ISO-10303-21;
HEADER;
FILE_DESCRIPTION (( 'STEP AP203' ),
    '1' );
FILE_NAME ('11-0216-01_outokumpu.step',
    '2015-08-11T14:12:38',
    ( '' ),
    ( '' ),
    'SwSTEP 2.0',
    'SolidWorks 2008',
    '' );
FILE_SCHEMA (( 'CONFIG_CONTROL_DESIGN' ));
ENDSEC;

DATA;
#1 = ORIENTED_EDGE ( 'NONE', *, *, #3, .T. ) ;
#2 = ORIENTED_EDGE ( 'NONE', *, *, #32, .T. ) ;
#3 = EDGE_CURVE ( 'NONE', #82, #83, #108, .T. ) ;
#4 = EDGE_LOOP ( 'NONE', ( #2, #1 ) ) ;
#5 = ORIENTED_EDGE ( 'NONE', *, *, #29, .F. ) ;
#6 = ORIENTED_EDGE ( 'NONE', *, *, #7, .F. ) ;
#7 = EDGE_CURVE ( 'NONE', #67, #30, #103, .T. ) ;
#8 = EDGE_LOOP ( 'NONE', ( #5, #6 ) ) ;
#9 = ORIENTED_EDGE ( 'NONE', *, *, #10, .T. ) ;
#10 = EDGE_CURVE ( 'NONE', #94, #78, #99, .T. ) ;
#11 = ORIENTED_EDGE ( 'NONE', *, *, #93, .F. ) ;
#12 = ORIENTED_EDGE ( 'NONE', *, *, #13, .F. ) ;
#13 = EDGE_CURVE ( 'NONE', #62, #35, #95, .T. ) ;
#14 = ORIENTED_EDGE ( 'NONE', *, *, #15, .F. ) ;
#15 = EDGE_CURVE ( 'NONE', #16, #70, #215, .T. ) ;
#16 = VERTEX_POINT ( 'NONE', #210 ) ;
#17 = ORIENTED_EDGE ( 'NONE', *, *, #10, .F. ) ;
#18 = ORIENTED_EDGE ( 'NONE', *, *, #73, .T. ) ;
#19 = ORIENTED_EDGE ( 'NONE', *, *, #20, .T. ) ;
#20 = EDGE_CURVE ( 'NONE', #27, #58, #209, .T. ) ;
#21 = ADVANCED_FACE ( 'NONE', ( #204 ), #203, .T. ) ;
#22 = ORIENTED_EDGE ( 'NONE', *, *, #23, .F. ) ;
#23 = EDGE_CURVE ( 'NONE', #30, #16, #274, .T. ) ;
#24 = EDGE_LOOP ( 'NONE', ( #56, #59, #9, #11, #12, #63 ) ) ;
#25 = ORIENTED_EDGE ( 'NONE', *, *, #26, .F. ) ;
#26 = EDGE_CURVE ( 'NONE', #27, #61, #270, .T. ) ;
#27 = VERTEX_POINT ( 'NONE', #266 ) ;
#28 = ORIENTED_EDGE ( 'NONE', *, *, #29, .T. ) ;
#29 = EDGE_CURVE ( 'NONE', #30, #67, #265, .T. ) ;
#30 = VERTEX_POINT ( 'NONE', #260 ) ;
#31 = ORIENTED_EDGE ( 'NONE', *, *, #32, .F. ) ;
#32 = EDGE_CURVE ( 'NONE', #83, #82, #258, .T. ) ;
#33 = ORIENTED_EDGE ( 'NONE', *, *, #34, .F. ) ;
#34 = EDGE_CURVE ( 'NONE', #35, #83, #259, .T. ) ;
#35 = VERTEX_POINT ( 'NONE', #250 ) ;
#36 = MANIFOLD_SOLID_BREP ( 'NONE', #122 ) ;
#37 = ADVANCED_FACE ( 'NONE', ( #249 ), #247, .F. ) ;
#38 = ORIENTED_EDGE ( 'NONE', *, *, #39, .F. ) ;
#39 = EDGE_CURVE ( 'NONE', #61, #86, #243, .T. ) ;
#40 = ORIENTED_EDGE ( 'NONE', *, *, #60, .F. ) ;
#41 = ADVANCED_FACE ( 'NONE', ( #238 ), #237, .T. ) ;
#42 = EDGE_LOOP ( 'NONE', ( #43, #44, #45, #46 ) ) ;
#43 = ORIENTED_EDGE ( 'NONE', *, *, #69, .F. ) ;
#44 = ORIENTED_EDGE ( 'NONE', *, *, #7, .T. ) ;
#45 = ORIENTED_EDGE ( 'NONE', *, *, #23, .T. ) ;
#46 = ORIENTED_EDGE ( 'NONE', *, *, #53, .F. ) ;
#47 = ADVANCED_FACE ( 'NONE', ( #236 ), #231, .F. ) ;
#48 = EDGE_LOOP ( 'NONE', ( #111, #112, #113, #114, #115 ) ) ;
#49 = ADVANCED_FACE ( 'NONE', ( #230, #225 ), #223, .F. ) ;
#50 = EDGE_LOOP ( 'NONE', ( #51, #52 ) ) ;
#51 = ORIENTED_EDGE ( 'NONE', *, *, #15, .T. ) ;
#52 = ORIENTED_EDGE ( 'NONE', *, *, #53, .T. ) ;
#53 = EDGE_CURVE ( 'NONE', #70, #16, #184, .T. ) ;
#54 = EDGE_LOOP ( 'NONE', ( #38, #40 ) ) ;
#55 = ADVANCED_FACE ( 'NONE', ( #179 ), #178, .F. ) ;
#56 = ORIENTED_EDGE ( 'NONE', *, *, #57, .T. ) ;
#57 = EDGE_CURVE ( 'NONE', #58, #90, #177, .T. ) ;
#58 = VERTEX_POINT ( 'NONE', #168 ) ;
#59 = ORIENTED_EDGE ( 'NONE', *, *, #89, .T. ) ;
#60 = EDGE_CURVE ( 'NONE', #86, #61, #167, .T. ) ;
#61 = VERTEX_POINT ( 'NONE', #162 ) ;
#62 = VERTEX_POINT ( 'NONE', #161 ) ;
#63 = ORIENTED_EDGE ( 'NONE', *, *, #64, .F. ) ;
#64 = EDGE_CURVE ( 'NONE', #58, #62, #160, .T. ) ;
#65 = ADVANCED_FACE ( 'NONE', ( #156 ), #154, .F. ) ;
#66 = EDGE_LOOP ( 'NONE', ( #17, #18, #19, #123, #124, #222 ) ) ;
#67 = VERTEX_POINT ( 'NONE', #202 ) ;
#68 = ORIENTED_EDGE ( 'NONE', *, *, #69, .T. ) ;
#69 = EDGE_CURVE ( 'NONE', #67, #70, #198, .T. ) ;
#70 = VERTEX_POINT ( 'NONE', #194 ) ;
#71 = ORIENTED_EDGE ( 'NONE', *, *, #60, .T. ) ;
#72 = ORIENTED_EDGE ( 'NONE', *, *, #73, .F. ) ;
#73 = EDGE_CURVE ( 'NONE', #94, #27, #193, .T. ) ;
#74 = EDGE_LOOP ( 'NONE', ( #28, #68, #14, #22 ) ) ;
#75 = EDGE_LOOP ( 'NONE', ( #76, #80, #31, #33, #92 ) ) ;
#76 = ORIENTED_EDGE ( 'NONE', *, *, #77, .T. ) ;
#77 = EDGE_CURVE ( 'NONE', #78, #79, #188, .T. ) ;
#78 = VERTEX_POINT ( 'NONE', #149 ) ;
#79 = VERTEX_POINT ( 'NONE', #148 ) ;
#80 = ORIENTED_EDGE ( 'NONE', *, *, #81, .T. ) ;
#81 = EDGE_CURVE ( 'NONE', #79, #82, #147, .T. ) ;
#82 = VERTEX_POINT ( 'NONE', #143 ) ;
#83 = VERTEX_POINT ( 'NONE', #142 ) ;
#84 = ORIENTED_EDGE ( 'NONE', *, *, #85, .T. ) ;
#85 = EDGE_CURVE ( 'NONE', #90, #86, #141, .T. ) ;
#86 = VERTEX_POINT ( 'NONE', #137 ) ;
#87 = ORIENTED_EDGE ( 'NONE', *, *, #89, .F. ) ;
#88 = ADVANCED_FACE ( 'NONE', ( #136 ), #134, .F. ) ;
#89 = EDGE_CURVE ( 'NONE', #90, #94, #130, .T. ) ;
#90 = VERTEX_POINT ( 'NONE', #125 ) ;
#91 = EDGE_LOOP ( 'NONE', ( #87, #84, #71, #25, #72 ) ) ;
#92 = ORIENTED_EDGE ( 'NONE', *, *, #93, .T. ) ;
#93 = EDGE_CURVE ( 'NONE', #35, #78, #294, .T. ) ;
#94 = VERTEX_POINT ( 'NONE', #291 ) ;
#95 = CIRCLE ( 'NONE', #219, 4.863999999999999000 ) ;
#96 = DIRECTION ( 'NONE',  ( -0.0000000000000000000, 3.854941057726231200E-016, -1.000000000000000000 ) ) ;
#97 = VECTOR ( 'NONE', #96, 1000.000000000000000 ) ;
#98 = CARTESIAN_POINT ( 'NONE',  ( 5.956485304992044900E-016, -4.864000000000001700, -9.000000000000019500 ) ) ;
#99 = LINE ( 'NONE', #98, #97 ) ;
#100 = DIRECTION ( 'NONE',  ( 1.000000000000000000, 0.0000000000000000000, 0.0000000000000000000 ) ) ;
#101 = DIRECTION ( 'NONE',  ( -0.0000000000000000000, -0.0000000000000000000, 1.000000000000000000 ) ) ;
#102 = AXIS2_PLACEMENT_3D ( 'NONE', #109, #101, #100 ) ;
#103 = CIRCLE ( 'NONE', #102, 6.999999999999999100 ) ;
#104 = DIRECTION ( 'NONE',  ( 1.000000000000000000, 0.0000000000000000000, 0.0000000000000000000 ) ) ;
#105 = DIRECTION ( 'NONE',  ( -0.0000000000000000000, -0.0000000000000000000, 1.000000000000000000 ) ) ;
#106 = CARTESIAN_POINT ( 'NONE',  ( 0.0000000000000000000, 0.0000000000000000000, -9.000000000000001800 ) ) ;
#107 = AXIS2_PLACEMENT_3D ( 'NONE', #106, #105, #104 ) ;
#108 = CIRCLE ( 'NONE', #107, 5.033854622807866400 ) ;
#109 = CARTESIAN_POINT ( 'NONE',  ( 0.0000000000000000000, 0.0000000000000000000, -9.000000000000001800 ) ) ;
#110 = ORIENTED_EDGE ( 'NONE', *, *, #3, .F. ) ;
#111 = ORIENTED_EDGE ( 'NONE', *, *, #85, .F. ) ;
#112 = ORIENTED_EDGE ( 'NONE', *, *, #57, .F. ) ;
#113 = ORIENTED_EDGE ( 'NONE', *, *, #20, .F. ) ;
#114 = ORIENTED_EDGE ( 'NONE', *, *, #26, .T. ) ;
#115 = ORIENTED_EDGE ( 'NONE', *, *, #39, .T. ) ;
#116 = ADVANCED_FACE ( 'NONE', ( #308 ), #303, .F. ) ;
#117 = EDGE_LOOP ( 'NONE', ( #118, #119, #120, #121, #110 ) ) ;
#118 = ORIENTED_EDGE ( 'NONE', *, *, #81, .F. ) ;
#119 = ORIENTED_EDGE ( 'NONE', *, *, #221, .T. ) ;
#120 = ORIENTED_EDGE ( 'NONE', *, *, #13, .T. ) ;
#121 = ORIENTED_EDGE ( 'NONE', *, *, #34, .T. ) ;
#122 = CLOSED_SHELL ( 'NONE', ( #37, #88, #21, #55, #65, #220, #49, #41, #47, #116 ) ) ;
#123 = ORIENTED_EDGE ( 'NONE', *, *, #64, .T. ) ;
#124 = ORIENTED_EDGE ( 'NONE', *, *, #221, .F. ) ;
#125 = CARTESIAN_POINT ( 'NONE',  ( -4.863999999999999000, 6.060487830150326700E-016, -0.1698546228078259800 ) ) ;
#126 = DIRECTION ( 'NONE',  ( 1.000000000000000000, 0.0000000000000000000, 0.0000000000000000000 ) ) ;
#127 = DIRECTION ( 'NONE',  ( -0.0000000000000000000, -0.0000000000000000000, 1.000000000000000000 ) ) ;
#128 = CARTESIAN_POINT ( 'NONE',  ( 0.0000000000000000000, 0.0000000000000000000, -0.1698546228078259800 ) ) ;
#129 = AXIS2_PLACEMENT_3D ( 'NONE', #128, #127, #126 ) ;
#130 = CIRCLE ( 'NONE', #129, 4.863999999999999000 ) ;
#131 = DIRECTION ( 'NONE',  ( 1.000000000000000000, 0.0000000000000000000, 0.0000000000000000000 ) ) ;
#132 = DIRECTION ( 'NONE',  ( -0.0000000000000000000, -0.0000000000000000000, 1.000000000000000000 ) ) ;
#133 = AXIS2_PLACEMENT_3D ( 'NONE', #135, #132, #131 ) ;
#134 = CONICAL_SURFACE ( 'NONE', #133, 4.863999999999999000, 0.7853981633974529400 ) ;
#135 = CARTESIAN_POINT ( 'NONE',  ( 0.0000000000000000000, 0.0000000000000000000, -0.1698546228078259800 ) ) ;
#136 = FACE_OUTER_BOUND ( 'NONE', #91, .T. ) ;
#137 = CARTESIAN_POINT ( 'NONE',  ( -5.033854622807827400, 6.164490355308611500E-016, 0.0000000000000000000 ) ) ;
#138 = DIRECTION ( 'NONE',  ( -0.7071067811865507900, 8.659274570719393600E-017, 0.7071067811865441300 ) ) ;
#139 = VECTOR ( 'NONE', #138, 1000.000000000000100 ) ;
#140 = CARTESIAN_POINT ( 'NONE',  ( -4.863999999999999000, 5.956485304992041900E-016, -0.1698546228078259800 ) ) ;
#141 = LINE ( 'NONE', #140, #139 ) ;
#142 = CARTESIAN_POINT ( 'NONE',  ( -5.033854622807866400, 0.0000000000000000000, -9.000000000000001800 ) ) ;
#143 = CARTESIAN_POINT ( 'NONE',  ( 5.033854622807866400, 6.164490355308659800E-016, -9.000000000000001800 ) ) ;
#144 = DIRECTION ( 'NONE',  ( 0.7071067811865493500, 8.659274570719377600E-017, -0.7071067811865456900 ) ) ;
#145 = VECTOR ( 'NONE', #144, 1000.000000000000000 ) ;
#146 = CARTESIAN_POINT ( 'NONE',  ( 5.033854622807866400, 6.164490355308659800E-016, -9.000000000000001800 ) ) ;
#147 = LINE ( 'NONE', #146, #145 ) ;
#148 = CARTESIAN_POINT ( 'NONE',  ( 4.863999999999999000, 6.060487830150350400E-016, -8.830145377192135200 ) ) ;
#149 = CARTESIAN_POINT ( 'NONE',  ( 5.956485304992043900E-016, -4.863999999999999000, -8.830145377192135200 ) ) ;
#150 = DIRECTION ( 'NONE',  ( 1.000000000000000000, 0.0000000000000000000, 0.0000000000000000000 ) ) ;
#151 = DIRECTION ( 'NONE',  ( -0.0000000000000000000, -0.0000000000000000000, 1.000000000000000000 ) ) ;
#152 = CARTESIAN_POINT ( 'NONE',  ( 0.0000000000000000000, 0.0000000000000000000, -8.830145377192135200 ) ) ;
#153 = AXIS2_PLACEMENT_3D ( 'NONE', #152, #151, #150 ) ;
#154 = CYLINDRICAL_SURFACE ( 'NONE', #155, 4.864000000000001700 ) ;
#155 = AXIS2_PLACEMENT_3D ( 'NONE', #201, #200, #199 ) ;
#156 = FACE_OUTER_BOUND ( 'NONE', #66, .T. ) ;
#157 = DIRECTION ( 'NONE',  ( -0.0000000000000000000, 3.854941057726231200E-016, -1.000000000000000000 ) ) ;
#158 = VECTOR ( 'NONE', #157, 1000.000000000000000 ) ;
#159 = CARTESIAN_POINT ( 'NONE',  ( 0.0000000000000000000, 4.864000000000001700, -9.000000000000016000 ) ) ;
#160 = LINE ( 'NONE', #159, #158 ) ;
#161 = CARTESIAN_POINT ( 'NONE',  ( 0.0000000000000000000, 4.863999999999999000, -8.830145377192135200 ) ) ;
#162 = CARTESIAN_POINT ( 'NONE',  ( 5.033854622807827400, 0.0000000000000000000, 0.0000000000000000000 ) ) ;
#163 = DIRECTION ( 'NONE',  ( 1.000000000000000000, 0.0000000000000000000, 0.0000000000000000000 ) ) ;
#164 = DIRECTION ( 'NONE',  ( -0.0000000000000000000, -0.0000000000000000000, 1.000000000000000000 ) ) ;
#165 = CARTESIAN_POINT ( 'NONE',  ( 0.0000000000000000000, 0.0000000000000000000, 0.0000000000000000000 ) ) ;
#166 = AXIS2_PLACEMENT_3D ( 'NONE', #165, #164, #163 ) ;
#167 = CIRCLE ( 'NONE', #166, 5.033854622807827400 ) ;
#168 = CARTESIAN_POINT ( 'NONE',  ( 0.0000000000000000000, 4.863999999999999000, -0.1698546228078259800 ) ) ;
#169 = DIRECTION ( 'NONE',  ( 1.000000000000000000, 0.0000000000000000000, 0.0000000000000000000 ) ) ;
#170 = DIRECTION ( 'NONE',  ( -0.0000000000000000000, -0.0000000000000000000, 1.000000000000000000 ) ) ;
#171 = CARTESIAN_POINT ( 'NONE',  ( 0.0000000000000000000, 0.0000000000000000000, -0.1698546228078259800 ) ) ;
#172 = AXIS2_PLACEMENT_3D ( 'NONE', #171, #170, #169 ) ;
#173 = DIRECTION ( 'NONE',  ( 0.0000000000000000000, 1.000000000000000000, 3.566454514754947700E-016 ) ) ;
#174 = DIRECTION ( 'NONE',  ( -0.0000000000000000000, 3.854941057726231200E-016, -1.000000000000000000 ) ) ;
#175 = CARTESIAN_POINT ( 'NONE',  ( 0.0000000000000000000, 0.0000000000000000000, -9.000000000000017800 ) ) ;
#176 = AXIS2_PLACEMENT_3D ( 'NONE', #175, #174, #173 ) ;
#177 = CIRCLE ( 'NONE', #172, 4.863999999999999000 ) ;
#178 = CYLINDRICAL_SURFACE ( 'NONE', #176, 4.864000000000001700 ) ;
#179 = FACE_OUTER_BOUND ( 'NONE', #24, .T. ) ;
#180 = DIRECTION ( 'NONE',  ( 1.000000000000000000, 0.0000000000000000000, 0.0000000000000000000 ) ) ;
#181 = DIRECTION ( 'NONE',  ( -0.0000000000000000000, -0.0000000000000000000, 1.000000000000000000 ) ) ;
#182 = CARTESIAN_POINT ( 'NONE',  ( 0.0000000000000000000, 0.0000000000000000000, 0.0000000000000000000 ) ) ;
#183 = AXIS2_PLACEMENT_3D ( 'NONE', #182, #181, #180 ) ;
#184 = CIRCLE ( 'NONE', #183, 7.000000000000000000 ) ;
#185 = DIRECTION ( 'NONE',  ( -1.000000000000000000, 0.0000000000000000000, -0.0000000000000000000 ) ) ;
#186 = DIRECTION ( 'NONE',  ( 0.0000000000000000000, 0.0000000000000000000, -1.000000000000000000 ) ) ;
#187 = CARTESIAN_POINT ( 'NONE',  ( 0.0000000000000000000, 7.000000000000000000, -2.168404344971008900E-016 ) ) ;
#188 = CIRCLE ( 'NONE', #153, 4.863999999999999000 ) ;
#189 = DIRECTION ( 'NONE',  ( 1.000000000000000000, 0.0000000000000000000, 0.0000000000000000000 ) ) ;
#190 = DIRECTION ( 'NONE',  ( -0.0000000000000000000, -0.0000000000000000000, 1.000000000000000000 ) ) ;
#191 = CARTESIAN_POINT ( 'NONE',  ( 0.0000000000000000000, 0.0000000000000000000, -0.1698546228078259800 ) ) ;
#192 = AXIS2_PLACEMENT_3D ( 'NONE', #191, #190, #189 ) ;
#193 = CIRCLE ( 'NONE', #192, 4.863999999999999000 ) ;
#194 = CARTESIAN_POINT ( 'NONE',  ( -7.000000000000000900, 8.572244476756641800E-016, 0.0000000000000000000 ) ) ;
#195 = DIRECTION ( 'NONE',  ( -0.0000000000000000000, -0.0000000000000000000, 1.000000000000000000 ) ) ;
#196 = VECTOR ( 'NONE', #195, 1000.000000000000000 ) ;
#197 = CARTESIAN_POINT ( 'NONE',  ( -6.999999999999999100, 8.572244476756639800E-016, -4.336808689942017700E-016 ) ) ;
#198 = LINE ( 'NONE', #197, #196 ) ;
#199 = DIRECTION ( 'NONE',  ( 0.0000000000000000000, 1.000000000000000000, 3.566454514754947700E-016 ) ) ;
#200 = DIRECTION ( 'NONE',  ( -0.0000000000000000000, 3.854941057726231200E-016, -1.000000000000000000 ) ) ;
#201 = CARTESIAN_POINT ( 'NONE',  ( 0.0000000000000000000, 0.0000000000000000000, -9.000000000000017800 ) ) ;
#202 = CARTESIAN_POINT ( 'NONE',  ( -6.999999999999999100, 8.572244476756639800E-016, -9.000000000000001800 ) ) ;
#203 = CYLINDRICAL_SURFACE ( 'NONE', #278, 6.999999999999999100 ) ;
#204 = FACE_OUTER_BOUND ( 'NONE', #74, .T. ) ;
#205 = DIRECTION ( 'NONE',  ( 1.000000000000000000, 0.0000000000000000000, 0.0000000000000000000 ) ) ;
#206 = DIRECTION ( 'NONE',  ( -0.0000000000000000000, -0.0000000000000000000, 1.000000000000000000 ) ) ;
#207 = CARTESIAN_POINT ( 'NONE',  ( 0.0000000000000000000, 0.0000000000000000000, -0.1698546228078259800 ) ) ;
#208 = AXIS2_PLACEMENT_3D ( 'NONE', #207, #206, #205 ) ;
#209 = CIRCLE ( 'NONE', #208, 4.863999999999999000 ) ;
#210 = CARTESIAN_POINT ( 'NONE',  ( 7.000000000000000000, 0.0000000000000000000, 0.0000000000000000000 ) ) ;
#211 = DIRECTION ( 'NONE',  ( 1.000000000000000000, 0.0000000000000000000, 0.0000000000000000000 ) ) ;
#212 = DIRECTION ( 'NONE',  ( -0.0000000000000000000, -0.0000000000000000000, 1.000000000000000000 ) ) ;
#213 = CARTESIAN_POINT ( 'NONE',  ( 0.0000000000000000000, 0.0000000000000000000, 0.0000000000000000000 ) ) ;
#214 = AXIS2_PLACEMENT_3D ( 'NONE', #213, #212, #211 ) ;
#215 = CIRCLE ( 'NONE', #214, 7.000000000000000000 ) ;
#216 = DIRECTION ( 'NONE',  ( 1.000000000000000000, 0.0000000000000000000, 0.0000000000000000000 ) ) ;
#217 = DIRECTION ( 'NONE',  ( -0.0000000000000000000, -0.0000000000000000000, 1.000000000000000000 ) ) ;
#218 = CARTESIAN_POINT ( 'NONE',  ( 0.0000000000000000000, 0.0000000000000000000, -8.830145377192135200 ) ) ;
#219 = AXIS2_PLACEMENT_3D ( 'NONE', #218, #217, #216 ) ;
#220 = ADVANCED_FACE ( 'NONE', ( #305, #304 ), #329, .F. ) ;
#221 = EDGE_CURVE ( 'NONE', #79, #62, #297, .T. ) ;
#222 = ORIENTED_EDGE ( 'NONE', *, *, #77, .F. ) ;
#223 = PLANE ( 'NONE',  #224 ) ;
#224 = AXIS2_PLACEMENT_3D ( 'NONE', #187, #186, #185 ) ;
#225 = FACE_BOUND ( 'NONE', #54, .T. ) ;
#226 = DIRECTION ( 'NONE',  ( 1.000000000000000000, 0.0000000000000000000, 0.0000000000000000000 ) ) ;
#227 = DIRECTION ( 'NONE',  ( -0.0000000000000000000, -0.0000000000000000000, 1.000000000000000000 ) ) ;
#228 = CARTESIAN_POINT ( 'NONE',  ( 0.0000000000000000000, 0.0000000000000000000, -0.1698546228078259800 ) ) ;
#229 = AXIS2_PLACEMENT_3D ( 'NONE', #228, #227, #226 ) ;
#230 = FACE_OUTER_BOUND ( 'NONE', #50, .T. ) ;
#231 = CONICAL_SURFACE ( 'NONE', #229, 4.863999999999999000, 0.7853981633974529400 ) ;
#232 = DIRECTION ( 'NONE',  ( 1.000000000000000000, 0.0000000000000000000, 0.0000000000000000000 ) ) ;
#233 = DIRECTION ( 'NONE',  ( -0.0000000000000000000, -0.0000000000000000000, 1.000000000000000000 ) ) ;
#234 = CARTESIAN_POINT ( 'NONE',  ( 0.0000000000000000000, 0.0000000000000000000, -4.336808689942017700E-016 ) ) ;
#235 = AXIS2_PLACEMENT_3D ( 'NONE', #234, #233, #232 ) ;
#236 = FACE_OUTER_BOUND ( 'NONE', #48, .T. ) ;
#237 = CYLINDRICAL_SURFACE ( 'NONE', #235, 6.999999999999999100 ) ;
#238 = FACE_OUTER_BOUND ( 'NONE', #42, .T. ) ;
#239 = DIRECTION ( 'NONE',  ( 1.000000000000000000, 0.0000000000000000000, 0.0000000000000000000 ) ) ;
#240 = DIRECTION ( 'NONE',  ( -0.0000000000000000000, -0.0000000000000000000, 1.000000000000000000 ) ) ;
#241 = CARTESIAN_POINT ( 'NONE',  ( 0.0000000000000000000, 0.0000000000000000000, 0.0000000000000000000 ) ) ;
#242 = AXIS2_PLACEMENT_3D ( 'NONE', #241, #240, #239 ) ;
#243 = CIRCLE ( 'NONE', #242, 5.033854622807827400 ) ;
#244 = DIRECTION ( 'NONE',  ( -1.000000000000000000, 0.0000000000000000000, 0.0000000000000000000 ) ) ;
#245 = DIRECTION ( 'NONE',  ( 0.0000000000000000000, 0.0000000000000000000, -1.000000000000000000 ) ) ;
#246 = AXIS2_PLACEMENT_3D ( 'NONE', #248, #245, #244 ) ;
#247 = CONICAL_SURFACE ( 'NONE', #246, 5.033854622807866400, 0.7853981633974509400 ) ;
#248 = CARTESIAN_POINT ( 'NONE',  ( 0.0000000000000000000, 0.0000000000000000000, -9.000000000000001800 ) ) ;
#249 = FACE_OUTER_BOUND ( 'NONE', #75, .T. ) ;
#250 = CARTESIAN_POINT ( 'NONE',  ( -4.863999999999999000, 0.0000000000000000000, -8.830145377192135200 ) ) ;
#251 = DIRECTION ( 'NONE',  ( -0.7071067811865493500, 0.0000000000000000000, -0.7071067811865456900 ) ) ;
#252 = VECTOR ( 'NONE', #251, 1000.000000000000000 ) ;
#253 = CARTESIAN_POINT ( 'NONE',  ( -5.033854622807866400, 0.0000000000000000000, -9.000000000000001800 ) ) ;
#254 = DIRECTION ( 'NONE',  ( 1.000000000000000000, 0.0000000000000000000, 0.0000000000000000000 ) ) ;
#255 = DIRECTION ( 'NONE',  ( -0.0000000000000000000, -0.0000000000000000000, 1.000000000000000000 ) ) ;
#256 = CARTESIAN_POINT ( 'NONE',  ( 0.0000000000000000000, 0.0000000000000000000, -9.000000000000001800 ) ) ;
#257 = AXIS2_PLACEMENT_3D ( 'NONE', #256, #255, #254 ) ;
#258 = CIRCLE ( 'NONE', #257, 5.033854622807866400 ) ;
#259 = LINE ( 'NONE', #253, #252 ) ;
#260 = CARTESIAN_POINT ( 'NONE',  ( 6.999999999999999100, 0.0000000000000000000, -9.000000000000001800 ) ) ;
#261 = DIRECTION ( 'NONE',  ( 1.000000000000000000, 0.0000000000000000000, 0.0000000000000000000 ) ) ;
#262 = DIRECTION ( 'NONE',  ( -0.0000000000000000000, -0.0000000000000000000, 1.000000000000000000 ) ) ;
#263 = CARTESIAN_POINT ( 'NONE',  ( 0.0000000000000000000, 0.0000000000000000000, -9.000000000000001800 ) ) ;
#264 = AXIS2_PLACEMENT_3D ( 'NONE', #263, #262, #261 ) ;
#265 = CIRCLE ( 'NONE', #264, 6.999999999999999100 ) ;
#266 = CARTESIAN_POINT ( 'NONE',  ( 4.863999999999999000, 0.0000000000000000000, -0.1698546228078259800 ) ) ;
#267 = DIRECTION ( 'NONE',  ( 0.7071067811865507900, 0.0000000000000000000, 0.7071067811865441300 ) ) ;
#268 = VECTOR ( 'NONE', #267, 1000.000000000000100 ) ;
#269 = CARTESIAN_POINT ( 'NONE',  ( 4.863999999999999000, 0.0000000000000000000, -0.1698546228078259800 ) ) ;
#270 = LINE ( 'NONE', #269, #268 ) ;
#271 = DIRECTION ( 'NONE',  ( -0.0000000000000000000, -0.0000000000000000000, 1.000000000000000000 ) ) ;
#272 = VECTOR ( 'NONE', #271, 1000.000000000000000 ) ;
#273 = CARTESIAN_POINT ( 'NONE',  ( 6.999999999999999100, 0.0000000000000000000, -4.336808689942017700E-016 ) ) ;
#274 = LINE ( 'NONE', #273, #272 ) ;
#275 = DIRECTION ( 'NONE',  ( 1.000000000000000000, 0.0000000000000000000, 0.0000000000000000000 ) ) ;
#276 = DIRECTION ( 'NONE',  ( -0.0000000000000000000, -0.0000000000000000000, 1.000000000000000000 ) ) ;
#277 = CARTESIAN_POINT ( 'NONE',  ( 0.0000000000000000000, 0.0000000000000000000, -4.336808689942017700E-016 ) ) ;
#278 = AXIS2_PLACEMENT_3D ( 'NONE', #277, #276, #275 ) ;
#279 =( LENGTH_UNIT ( ) NAMED_UNIT ( * ) SI_UNIT ( .MILLI., .METRE. ) );
#280 = DIRECTION ( 'NONE',  ( 1.000000000000000000, 0.0000000000000000000, 0.0000000000000000000 ) ) ;
#281 = DIRECTION ( 'NONE',  ( -0.0000000000000000000, -0.0000000000000000000, 1.000000000000000000 ) ) ;
#282 = CARTESIAN_POINT ( 'NONE',  ( 0.0000000000000000000, 0.0000000000000000000, -8.830145377192135200 ) ) ;
#283 = ORGANIZATION ( 'UNSPECIFIED', 'UNSPECIFIED', '' ) ;
#284 = PERSON ( 'UNSPECIFIED', 'UNSPECIFIED', 'UNSPECIFIED', ('UNSPECIFIED'), ('UNSPECIFIED'), ('UNSPECIFIED') ) ;
#285 = PRODUCT ( '11-0216-01_outokumpu', '11-0216-01_outokumpu', '', ( #286 ) ) ;
#286 = MECHANICAL_CONTEXT ( 'NONE', #312, 'mechanical' ) ;
#287 = APPLICATION_PROTOCOL_DEFINITION ( 'international standard', 'config_control_design', 1994, #312 ) ;
#288 = UNCERTAINTY_MEASURE_WITH_UNIT (LENGTH_MEASURE( 1.000000000000000100E-005 ), #279, 'distance_accuracy_value', 'NONE');
#289 =( NAMED_UNIT ( * ) SI_UNIT ( $, .STERADIAN. ) SOLID_ANGLE_UNIT ( ) );
#290 =( NAMED_UNIT ( * ) PLANE_ANGLE_UNIT ( ) SI_UNIT ( $, .RADIAN. ) );
#291 = CARTESIAN_POINT ( 'NONE',  ( 5.956485304992043900E-016, -4.863999999999999000, -0.1698546228078259800 ) ) ;
#292 = AXIS2_PLACEMENT_3D ( 'NONE', #282, #306, #293 ) ;
#293 = DIRECTION ( 'NONE',  ( 1.000000000000000000, 0.0000000000000000000, 0.0000000000000000000 ) ) ;
#294 = CIRCLE ( 'NONE', #292, 4.863999999999999000 ) ;
#295 = CARTESIAN_POINT ( 'NONE',  ( 0.0000000000000000000, 0.0000000000000000000, -8.830145377192135200 ) ) ;
#296 = AXIS2_PLACEMENT_3D ( 'NONE', #295, #281, #280 ) ;
#297 = CIRCLE ( 'NONE', #296, 4.863999999999999000 ) ;
#298 = CARTESIAN_POINT ( 'NONE',  ( 0.0000000000000000000, 0.0000000000000000000, 0.0000000000000000000 ) ) ;
#299 = DIRECTION ( 'NONE',  ( 1.000000000000000000, 0.0000000000000000000, 0.0000000000000000000 ) ) ;
#300 = DIRECTION ( 'NONE',  ( 0.0000000000000000000, -0.0000000000000000000, 1.000000000000000000 ) ) ;
#301 = CARTESIAN_POINT ( 'NONE',  ( 0.0000000000000000000, 6.999999999999999100, -9.000000000000001800 ) ) ;
#302 = AXIS2_PLACEMENT_3D ( 'NONE', #307, #331, #330 ) ;
#303 = CONICAL_SURFACE ( 'NONE', #302, 5.033854622807866400, 0.7853981633974509400 ) ;
#304 = FACE_BOUND ( 'NONE', #4, .T. ) ;
#305 = FACE_OUTER_BOUND ( 'NONE', #8, .T. ) ;
#306 = DIRECTION ( 'NONE',  ( -0.0000000000000000000, -0.0000000000000000000, 1.000000000000000000 ) ) ;
#307 = CARTESIAN_POINT ( 'NONE',  ( 0.0000000000000000000, 0.0000000000000000000, -9.000000000000001800 ) ) ;
#308 = FACE_OUTER_BOUND ( 'NONE', #117, .T. ) ;
#309 = AXIS2_PLACEMENT_3D ( 'NONE', #301, #300, #299 ) ;
#310 = DIRECTION ( 'NONE',  ( 0.0000000000000000000, 0.0000000000000000000, 1.000000000000000000 ) ) ;
#311 = AXIS2_PLACEMENT_3D ( 'NONE', #298, #310, #332 ) ;
#312 = APPLICATION_CONTEXT ( 'configuration controlled 3d designs of mechanical parts and assemblies' ) ;
#313 = SHAPE_DEFINITION_REPRESENTATION ( #333, #314 ) ;
#314 = ADVANCED_BREP_SHAPE_REPRESENTATION ( '11-0216-01_outokumpu', ( #36, #311 ), #315 ) ;
#315 =( GEOMETRIC_REPRESENTATION_CONTEXT ( 3 ) GLOBAL_UNCERTAINTY_ASSIGNED_CONTEXT ( ( #288 ) ) GLOBAL_UNIT_ASSIGNED_CONTEXT ( ( #279, #290, #289 ) ) REPRESENTATION_CONTEXT ( 'NONE', 'WORKASPACE' ) );
#316 = PERSON_AND_ORGANIZATION ( #284, #283 ) ;
#317 = CC_DESIGN_DATE_AND_TIME_ASSIGNMENT ( #319, #318, ( #326 ) ) ;
#318 = DATE_TIME_ROLE ( 'classification_date' ) ;
#319 = DATE_AND_TIME ( #320, #321 ) ;
#320 = CALENDAR_DATE ( 2015, 11, 8 ) ;
#321 = LOCAL_TIME ( 16, 12, 38.00000000000000000, #322 ) ;
#322 = COORDINATED_UNIVERSAL_TIME_OFFSET ( 1, 0, .AHEAD. ) ;
#323 = CC_DESIGN_PERSON_AND_ORGANIZATION_ASSIGNMENT ( #325, #324, ( #326 ) ) ;
#324 = PERSON_AND_ORGANIZATION_ROLE ( 'classification_officer' ) ;
#325 = PERSON_AND_ORGANIZATION ( #284, #283 ) ;
#326 = SECURITY_CLASSIFICATION ( '', '', #327 ) ;
#327 = SECURITY_CLASSIFICATION_LEVEL ( 'unclassified' ) ;
#328 = CC_DESIGN_PERSON_AND_ORGANIZATION_ASSIGNMENT ( #347, #346, ( #362 ) ) ;
#329 = PLANE ( 'NONE',  #309 ) ;
#330 = DIRECTION ( 'NONE',  ( -1.000000000000000000, 0.0000000000000000000, 0.0000000000000000000 ) ) ;
#331 = DIRECTION ( 'NONE',  ( 0.0000000000000000000, 0.0000000000000000000, -1.000000000000000000 ) ) ;
#332 = DIRECTION ( 'NONE',  ( 1.000000000000000000, 0.0000000000000000000, 0.0000000000000000000 ) ) ;
#333 = PRODUCT_DEFINITION_SHAPE ( 'NONE', 'NONE',  #383 ) ;
#334 = PRODUCT_RELATED_PRODUCT_CATEGORY ( 'detail', '', ( #285 ) ) ;
#335 = CC_DESIGN_SECURITY_CLASSIFICATION ( #326, ( #362 ) ) ;
#336 = CC_DESIGN_APPROVAL ( #344, ( #326 ) ) ;
#337 = APPROVAL_DATE_TIME ( #338, #344 ) ;
#338 = DATE_AND_TIME ( #339, #340 ) ;
#339 = CALENDAR_DATE ( 2015, 11, 8 ) ;
#340 = LOCAL_TIME ( 16, 12, 38.00000000000000000, #341 ) ;
#341 = COORDINATED_UNIVERSAL_TIME_OFFSET ( 1, 0, .AHEAD. ) ;
#342 = APPROVAL_PERSON_ORGANIZATION ( #316, #344, #343 ) ;
#343 = APPROVAL_ROLE ( '' ) ;
#344 = APPROVAL ( #345, 'UNSPECIFIED' ) ;
#345 = APPROVAL_STATUS ( 'not_yet_approved' ) ;
#346 = PERSON_AND_ORGANIZATION_ROLE ( 'design_supplier' ) ;
#347 = PERSON_AND_ORGANIZATION ( #284, #283 ) ;
#348 = CC_DESIGN_PERSON_AND_ORGANIZATION_ASSIGNMENT ( #350, #349, ( #362 ) ) ;
#349 = PERSON_AND_ORGANIZATION_ROLE ( 'creator' ) ;
#350 = PERSON_AND_ORGANIZATION ( #284, #283 ) ;
#351 = CC_DESIGN_APPROVAL ( #359, ( #362 ) ) ;
#352 = APPROVAL_DATE_TIME ( #353, #359 ) ;
#353 = DATE_AND_TIME ( #354, #355 ) ;
#354 = CALENDAR_DATE ( 2015, 11, 8 ) ;
#355 = LOCAL_TIME ( 16, 12, 38.00000000000000000, #356 ) ;
#356 = COORDINATED_UNIVERSAL_TIME_OFFSET ( 1, 0, .AHEAD. ) ;
#357 = APPROVAL_PERSON_ORGANIZATION ( #361, #359, #358 ) ;
#358 = APPROVAL_ROLE ( '' ) ;
#359 = APPROVAL ( #360, 'UNSPECIFIED' ) ;
#360 = APPROVAL_STATUS ( 'not_yet_approved' ) ;
#361 = PERSON_AND_ORGANIZATION ( #284, #283 ) ;
#362 = PRODUCT_DEFINITION_FORMATION_WITH_SPECIFIED_SOURCE ( 'ANY', '', #285, .NOT_KNOWN. ) ;
#363 = CC_DESIGN_DATE_AND_TIME_ASSIGNMENT ( #365, #364, ( #383 ) ) ;
#364 = DATE_TIME_ROLE ( 'creation_date' ) ;
#365 = DATE_AND_TIME ( #366, #367 ) ;
#366 = CALENDAR_DATE ( 2015, 11, 8 ) ;
#367 = LOCAL_TIME ( 16, 12, 38.00000000000000000, #368 ) ;
#368 = COORDINATED_UNIVERSAL_TIME_OFFSET ( 1, 0, .AHEAD. ) ;
#369 = CC_DESIGN_PERSON_AND_ORGANIZATION_ASSIGNMENT ( #371, #370, ( #383 ) ) ;
#370 = PERSON_AND_ORGANIZATION_ROLE ( 'creator' ) ;
#371 = PERSON_AND_ORGANIZATION ( #284, #283 ) ;
#372 = CC_DESIGN_APPROVAL ( #380, ( #383 ) ) ;
#373 = APPROVAL_DATE_TIME ( #374, #380 ) ;
#374 = DATE_AND_TIME ( #375, #376 ) ;
#375 = CALENDAR_DATE ( 2015, 11, 8 ) ;
#376 = LOCAL_TIME ( 16, 12, 38.00000000000000000, #377 ) ;
#377 = COORDINATED_UNIVERSAL_TIME_OFFSET ( 1, 0, .AHEAD. ) ;
#378 = APPROVAL_PERSON_ORGANIZATION ( #382, #380, #379 ) ;
#379 = APPROVAL_ROLE ( '' ) ;
#380 = APPROVAL ( #381, 'UNSPECIFIED' ) ;
#381 = APPROVAL_STATUS ( 'not_yet_approved' ) ;
#382 = PERSON_AND_ORGANIZATION ( #284, #283 ) ;
#383 = PRODUCT_DEFINITION ( 'UNKNOWN', '', #362, #384 ) ;
#384 = DESIGN_CONTEXT ( 'detailed design', #386, 'design' ) ;
#385 = APPLICATION_PROTOCOL_DEFINITION ( 'international standard', 'config_control_design', 1994, #386 ) ;
#386 = APPLICATION_CONTEXT ( 'configuration controlled 3d designs of mechanical parts and assemblies' ) ;
#387 = CC_DESIGN_PERSON_AND_ORGANIZATION_ASSIGNMENT ( #389, #388, ( #285 ) ) ;
#388 = PERSON_AND_ORGANIZATION_ROLE ( 'design_owner' ) ;
#389 = PERSON_AND_ORGANIZATION ( #284, #283 ) ;
ENDSEC;
END-ISO-10303-21;
