ISO-10303-21;
HEADER;
/* Generated by software containing ST-Developer
 * from STEP Tools, Inc. (www.steptools.com) 
 */
/* OPTION: using custom renumber hook */

FILE_DESCRIPTION(
/* description */ ('STEP AP203'),
/* implementation_level */ '2;1');

FILE_NAME(
/* name */ '07300040CH',
/* time_stamp */ '2024-03-19T17:26:18+01:00',
/* author */ ('License CC BY-ND 4.0'),
/* organization */ ('CADENAS'),
/* preprocessor_version */ 'ST-DEVELOPER v19.3',
/* originating_system */ 'PARTsolutions',
/* authorisation */ '  ');

FILE_SCHEMA (('CONFIG_CONTROL_DESIGN'));
ENDSEC;

DATA;
#10=PROPERTY_DEFINITION_REPRESENTATION(#14,#12);
#11=PROPERTY_DEFINITION_REPRESENTATION(#15,#13);
#12=REPRESENTATION('',(#16),#567);
#13=REPRESENTATION('',(#17),#567);
#14=PROPERTY_DEFINITION('pmi validation property','',#572);
#15=PROPERTY_DEFINITION('pmi validation property','',#572);
#16=VALUE_REPRESENTATION_ITEM('number of annotations',COUNT_MEASURE(0.));
#17=VALUE_REPRESENTATION_ITEM('number of views',COUNT_MEASURE(0.));
#18=SHAPE_REPRESENTATION_RELATIONSHIP('','',#282,#19);
#19=ADVANCED_BREP_SHAPE_REPRESENTATION('',(#280),#567);
#20=LINE('',#511,#22);
#21=LINE('',#513,#23);
#22=VECTOR('',#341,1000.);
#23=VECTOR('',#342,1000.);
#24=PLANE('',#289);
#25=PLANE('',#294);
#26=PLANE('',#301);
#27=PLANE('',#302);
#28=PLANE('',#306);
#29=PLANE('',#307);
#30=PLANE('',#311);
#31=PLANE('',#312);
#32=PLANE('',#319);
#33=PLANE('',#320);
#34=PLANE('',#323);
#35=PLANE('',#326);
#36=ELLIPSE('',#286,32.5269119345812,23.);
#37=ELLIPSE('',#288,32.5269119345812,23.);
#38=ELLIPSE('',#293,31.1126983722081,22.);
#39=CIRCLE('',#285,23.);
#40=CIRCLE('',#287,23.);
#41=CIRCLE('',#290,22.);
#42=CIRCLE('',#292,22.);
#43=CIRCLE('',#295,22.);
#44=CIRCLE('',#297,22.);
#45=CIRCLE('',#299,24.5);
#46=CIRCLE('',#300,24.5);
#47=CIRCLE('',#304,24.5);
#48=CIRCLE('',#305,24.5);
#49=CIRCLE('',#309,32.);
#50=CIRCLE('',#310,32.);
#51=CIRCLE('',#313,16.);
#52=CIRCLE('',#315,16.);
#53=CIRCLE('',#317,35.);
#54=CIRCLE('',#318,35.);
#55=CIRCLE('',#322,9.);
#56=CIRCLE('',#325,9.);
#57=ORIENTED_EDGE('',*,*,#109,.T.);
#58=ORIENTED_EDGE('',*,*,#110,.T.);
#59=ORIENTED_EDGE('',*,*,#111,.F.);
#60=ORIENTED_EDGE('',*,*,#112,.F.);
#61=ORIENTED_EDGE('',*,*,#113,.T.);
#62=ORIENTED_EDGE('',*,*,#114,.F.);
#63=ORIENTED_EDGE('',*,*,#115,.F.);
#64=ORIENTED_EDGE('',*,*,#116,.F.);
#65=ORIENTED_EDGE('',*,*,#113,.F.);
#66=ORIENTED_EDGE('',*,*,#117,.F.);
#67=ORIENTED_EDGE('',*,*,#118,.T.);
#68=ORIENTED_EDGE('',*,*,#119,.T.);
#69=ORIENTED_EDGE('',*,*,#118,.F.);
#70=ORIENTED_EDGE('',*,*,#120,.T.);
#71=ORIENTED_EDGE('',*,*,#121,.F.);
#72=ORIENTED_EDGE('',*,*,#111,.T.);
#73=ORIENTED_EDGE('',*,*,#122,.F.);
#74=ORIENTED_EDGE('',*,*,#121,.T.);
#75=ORIENTED_EDGE('',*,*,#123,.T.);
#76=ORIENTED_EDGE('',*,*,#124,.F.);
#77=ORIENTED_EDGE('',*,*,#123,.F.);
#78=ORIENTED_EDGE('',*,*,#119,.F.);
#79=ORIENTED_EDGE('',*,*,#124,.T.);
#80=ORIENTED_EDGE('',*,*,#125,.F.);
#81=ORIENTED_EDGE('',*,*,#126,.T.);
#82=ORIENTED_EDGE('',*,*,#125,.T.);
#83=ORIENTED_EDGE('',*,*,#122,.T.);
#84=ORIENTED_EDGE('',*,*,#126,.F.);
#85=ORIENTED_EDGE('',*,*,#127,.F.);
#86=ORIENTED_EDGE('',*,*,#128,.T.);
#87=ORIENTED_EDGE('',*,*,#115,.T.);
#88=ORIENTED_EDGE('',*,*,#117,.T.);
#89=ORIENTED_EDGE('',*,*,#112,.T.);
#90=ORIENTED_EDGE('',*,*,#128,.F.);
#91=ORIENTED_EDGE('',*,*,#114,.T.);
#92=ORIENTED_EDGE('',*,*,#116,.T.);
#93=ORIENTED_EDGE('',*,*,#120,.F.);
#94=ORIENTED_EDGE('',*,*,#129,.F.);
#95=ORIENTED_EDGE('',*,*,#127,.T.);
#96=ORIENTED_EDGE('',*,*,#130,.F.);
#97=ORIENTED_EDGE('',*,*,#129,.T.);
#98=ORIENTED_EDGE('',*,*,#131,.F.);
#99=ORIENTED_EDGE('',*,*,#132,.T.);
#100=ORIENTED_EDGE('',*,*,#131,.T.);
#101=ORIENTED_EDGE('',*,*,#130,.T.);
#102=ORIENTED_EDGE('',*,*,#132,.F.);
#103=ORIENTED_EDGE('',*,*,#133,.T.);
#104=ORIENTED_EDGE('',*,*,#110,.F.);
#105=ORIENTED_EDGE('',*,*,#133,.F.);
#106=ORIENTED_EDGE('',*,*,#134,.T.);
#107=ORIENTED_EDGE('',*,*,#109,.F.);
#108=ORIENTED_EDGE('',*,*,#134,.F.);
#109=EDGE_CURVE('',#135,#135,#158,.T.);
#110=EDGE_CURVE('',#136,#136,#159,.T.);
#111=EDGE_CURVE('',#137,#137,#39,.T.);
#112=EDGE_CURVE('',#138,#139,#36,.T.);
#113=EDGE_CURVE('',#138,#140,#40,.T.);
#114=EDGE_CURVE('',#141,#140,#37,.T.);
#115=EDGE_CURVE('',#139,#141,#160,.T.);
#116=EDGE_CURVE('',#140,#142,#20,.T.);
#117=EDGE_CURVE('',#143,#138,#21,.T.);
#118=EDGE_CURVE('',#143,#142,#41,.T.);
#119=EDGE_CURVE('',#144,#144,#42,.T.);
#120=EDGE_CURVE('',#143,#142,#38,.F.);
#121=EDGE_CURVE('',#145,#145,#43,.T.);
#122=EDGE_CURVE('',#146,#146,#44,.T.);
#123=EDGE_CURVE('',#147,#147,#45,.T.);
#124=EDGE_CURVE('',#148,#148,#46,.T.);
#125=EDGE_CURVE('',#149,#149,#47,.T.);
#126=EDGE_CURVE('',#150,#150,#48,.T.);
#127=EDGE_CURVE('',#151,#151,#49,.T.);
#128=EDGE_CURVE('',#141,#139,#50,.T.);
#129=EDGE_CURVE('',#152,#152,#51,.T.);
#130=EDGE_CURVE('',#153,#153,#52,.T.);
#131=EDGE_CURVE('',#154,#154,#53,.T.);
#132=EDGE_CURVE('',#155,#155,#54,.T.);
#133=EDGE_CURVE('',#156,#156,#55,.T.);
#134=EDGE_CURVE('',#157,#157,#56,.T.);
#135=VERTEX_POINT('',#438);
#136=VERTEX_POINT('',#458);
#137=VERTEX_POINT('',#460);
#138=VERTEX_POINT('',#462);
#139=VERTEX_POINT('',#463);
#140=VERTEX_POINT('',#465);
#141=VERTEX_POINT('',#467);
#142=VERTEX_POINT('',#512);
#143=VERTEX_POINT('',#514);
#144=VERTEX_POINT('',#518);
#145=VERTEX_POINT('',#522);
#146=VERTEX_POINT('',#525);
#147=VERTEX_POINT('',#528);
#148=VERTEX_POINT('',#530);
#149=VERTEX_POINT('',#535);
#150=VERTEX_POINT('',#537);
#151=VERTEX_POINT('',#542);
#152=VERTEX_POINT('',#547);
#153=VERTEX_POINT('',#550);
#154=VERTEX_POINT('',#553);
#155=VERTEX_POINT('',#555);
#156=VERTEX_POINT('',#560);
#157=VERTEX_POINT('',#564);
#158=B_SPLINE_CURVE_WITH_KNOTS('',3,(#419,#420,#421,#422,#423,#424,#425,
#426,#427,#428,#429,#430,#431,#432,#433,#434,#435,#436,#437),
 .UNSPECIFIED.,.T.,.F.,(1,1,1,1,1,1,1,1,1,1,1,1,1,1,1,1,1,1,1,1,1,1,1),
(-0.0106584982710755,-0.00710566551405035,-0.00355283275702518,0.,0.00355283275702518,
0.00710566551405036,0.0106584982710755,0.0142113310281007,0.0177641637851259,
0.0213169965421511,0.0248698292991762,0.0284226620562014,0.0319754948132266,
0.0355283275702518,0.039081160327277,0.0426339930843021,0.0461868258413273,
0.0497396585983525,0.0532924913553777,0.0568453241124029,0.060398156869428,
0.0639509896264532,0.0675038223834784),.UNSPECIFIED.);
#159=B_SPLINE_CURVE_WITH_KNOTS('',3,(#439,#440,#441,#442,#443,#444,#445,
#446,#447,#448,#449,#450,#451,#452,#453,#454,#455,#456,#457),
 .UNSPECIFIED.,.T.,.F.,(1,1,1,1,1,1,1,1,1,1,1,1,1,1,1,1,1,1,1,1,1,1,1),
(-0.0106545131895174,-0.0071030087930116,-0.0035515043965058,0.,0.0035515043965058,
0.0071030087930116,0.0106545131895174,0.0142060175860232,0.017757521982529,
0.0213090263790348,0.0248605307755406,0.0284120351720464,0.0319635395685522,
0.035515043965058,0.0390665483615638,0.0426180527580696,0.0461695571545754,
0.0497210615510812,0.053272565947587,0.0568240703440928,0.0603755747405986,
0.0639270791371044,0.0674785835336102),.UNSPECIFIED.);
#160=B_SPLINE_CURVE_WITH_KNOTS('',3,(#468,#469,#470,#471,#472,#473,#474,
#475,#476,#477,#478,#479,#480,#481,#482,#483,#484,#485,#486,#487,#488,#489,
#490,#491,#492,#493,#494,#495,#496,#497,#498,#499,#500,#501,#502,#503,#504,
#505,#506,#507,#508,#509),.UNSPECIFIED.,.F.,.F.,(4,1,1,1,1,1,1,1,1,1,1,
1,1,1,1,1,1,1,1,1,1,1,1,1,1,1,1,1,1,1,1,1,1,1,1,1,1,1,1,4),(1.11066339442142E-16,
0.00532648377533782,0.00798972566300667,0.0106529675506755,0.0133162094383444,
0.0159794513260132,0.0213059351013509,0.0239691769890198,0.0266324188766887,
0.0319589026520264,0.0372853864273641,0.0426118702027018,0.0532648377533772,
0.0585913215287149,0.0639178053040526,0.0692442890793903,0.074570772854728,
0.0772340147423969,0.0798972566300657,0.0852237404054034,0.0878869822930723,
0.0905502241807412,0.0958767079560789,0.101203191731417,0.106529675506754,
0.111856159282092,0.11718264305743,0.122509126832767,0.127835610608105,
0.133162094383443,0.138488578158781,0.143815061934118,0.146478303821787,
0.149141545709456,0.151804787597125,0.154468029484794,0.157131271372462,
0.159794513260131,0.165120997035469,0.170447480810807),.UNSPECIFIED.);
#161=EDGE_LOOP('',(#57));
#162=EDGE_LOOP('',(#58));
#163=EDGE_LOOP('',(#59));
#164=EDGE_LOOP('',(#60,#61,#62,#63));
#165=EDGE_LOOP('',(#64,#65,#66,#67));
#166=EDGE_LOOP('',(#68));
#167=EDGE_LOOP('',(#69,#70));
#168=EDGE_LOOP('',(#71));
#169=EDGE_LOOP('',(#72));
#170=EDGE_LOOP('',(#73));
#171=EDGE_LOOP('',(#74));
#172=EDGE_LOOP('',(#75));
#173=EDGE_LOOP('',(#76));
#174=EDGE_LOOP('',(#77));
#175=EDGE_LOOP('',(#78));
#176=EDGE_LOOP('',(#79));
#177=EDGE_LOOP('',(#80));
#178=EDGE_LOOP('',(#81));
#179=EDGE_LOOP('',(#82));
#180=EDGE_LOOP('',(#83));
#181=EDGE_LOOP('',(#84));
#182=EDGE_LOOP('',(#85));
#183=EDGE_LOOP('',(#86,#87));
#184=EDGE_LOOP('',(#88,#89,#90,#91,#92,#93));
#185=EDGE_LOOP('',(#94));
#186=EDGE_LOOP('',(#95));
#187=EDGE_LOOP('',(#96));
#188=EDGE_LOOP('',(#97));
#189=EDGE_LOOP('',(#98));
#190=EDGE_LOOP('',(#99));
#191=EDGE_LOOP('',(#100));
#192=EDGE_LOOP('',(#101));
#193=EDGE_LOOP('',(#102));
#194=EDGE_LOOP('',(#103));
#195=EDGE_LOOP('',(#104));
#196=EDGE_LOOP('',(#105));
#197=EDGE_LOOP('',(#106));
#198=EDGE_LOOP('',(#107));
#199=EDGE_LOOP('',(#108));
#200=FACE_BOUND('',#161,.T.);
#201=FACE_BOUND('',#162,.T.);
#202=FACE_BOUND('',#163,.T.);
#203=FACE_BOUND('',#164,.T.);
#204=FACE_BOUND('',#165,.T.);
#205=FACE_BOUND('',#166,.T.);
#206=FACE_BOUND('',#167,.T.);
#207=FACE_BOUND('',#168,.T.);
#208=FACE_BOUND('',#169,.T.);
#209=FACE_BOUND('',#170,.T.);
#210=FACE_BOUND('',#171,.T.);
#211=FACE_BOUND('',#172,.T.);
#212=FACE_BOUND('',#173,.T.);
#213=FACE_BOUND('',#174,.T.);
#214=FACE_BOUND('',#175,.T.);
#215=FACE_BOUND('',#176,.T.);
#216=FACE_BOUND('',#177,.T.);
#217=FACE_BOUND('',#178,.T.);
#218=FACE_BOUND('',#179,.T.);
#219=FACE_BOUND('',#180,.T.);
#220=FACE_BOUND('',#181,.T.);
#221=FACE_BOUND('',#182,.T.);
#222=FACE_BOUND('',#183,.T.);
#223=FACE_BOUND('',#184,.T.);
#224=FACE_BOUND('',#185,.T.);
#225=FACE_BOUND('',#186,.T.);
#226=FACE_BOUND('',#187,.T.);
#227=FACE_BOUND('',#188,.T.);
#228=FACE_BOUND('',#189,.T.);
#229=FACE_BOUND('',#190,.T.);
#230=FACE_BOUND('',#191,.T.);
#231=FACE_BOUND('',#192,.T.);
#232=FACE_BOUND('',#193,.T.);
#233=FACE_BOUND('',#194,.T.);
#234=FACE_BOUND('',#195,.T.);
#235=FACE_BOUND('',#196,.T.);
#236=FACE_BOUND('',#197,.T.);
#237=FACE_BOUND('',#198,.T.);
#238=FACE_BOUND('',#199,.T.);
#239=CYLINDRICAL_SURFACE('',#284,23.);
#240=CYLINDRICAL_SURFACE('',#291,22.);
#241=CYLINDRICAL_SURFACE('',#296,22.);
#242=CYLINDRICAL_SURFACE('',#298,24.5);
#243=CYLINDRICAL_SURFACE('',#303,24.5);
#244=CYLINDRICAL_SURFACE('',#308,32.);
#245=CYLINDRICAL_SURFACE('',#314,16.);
#246=CYLINDRICAL_SURFACE('',#316,35.);
#247=CYLINDRICAL_SURFACE('',#321,9.);
#248=CYLINDRICAL_SURFACE('',#324,9.);
#249=ADVANCED_FACE('',(#200,#201,#202,#203),#239,.T.);
#250=ADVANCED_FACE('',(#204),#24,.F.);
#251=ADVANCED_FACE('',(#205,#206),#240,.T.);
#252=ADVANCED_FACE('',(#207,#208),#25,.T.);
#253=ADVANCED_FACE('',(#209,#210),#241,.T.);
#254=ADVANCED_FACE('',(#211,#212),#242,.T.);
#255=ADVANCED_FACE('',(#213),#26,.F.);
#256=ADVANCED_FACE('',(#214,#215),#27,.T.);
#257=ADVANCED_FACE('',(#216,#217),#243,.T.);
#258=ADVANCED_FACE('',(#218),#28,.T.);
#259=ADVANCED_FACE('',(#219,#220),#29,.F.);
#260=ADVANCED_FACE('',(#221,#222),#244,.T.);
#261=ADVANCED_FACE('',(#223),#30,.F.);
#262=ADVANCED_FACE('',(#224,#225),#31,.T.);
#263=ADVANCED_FACE('',(#226,#227),#245,.T.);
#264=ADVANCED_FACE('',(#228,#229),#246,.T.);
#265=ADVANCED_FACE('',(#230),#32,.T.);
#266=ADVANCED_FACE('',(#231,#232),#33,.F.);
#267=ADVANCED_FACE('',(#233,#234),#247,.T.);
#268=ADVANCED_FACE('',(#235),#34,.F.);
#269=ADVANCED_FACE('',(#236,#237),#248,.T.);
#270=ADVANCED_FACE('',(#238),#35,.F.);
#271=CLOSED_SHELL('',(#249,#250,#251,#252,#253,#254,#255,#256,#257,#258,
#259,#260,#261,#262,#263,#264,#265,#266,#267,#268,#269,#270));
#272=STYLED_ITEM('',(#273),#280);
#273=PRESENTATION_STYLE_ASSIGNMENT((#274));
#274=SURFACE_STYLE_USAGE(.BOTH.,#275);
#275=SURFACE_SIDE_STYLE('',(#276));
#276=SURFACE_STYLE_FILL_AREA(#277);
#277=FILL_AREA_STYLE('',(#278));
#278=FILL_AREA_STYLE_COLOUR('',#279);
#279=COLOUR_RGB('',0.689999997615814,0.689999997615814,0.689999997615814);
#280=MANIFOLD_SOLID_BREP('07300040CH',#271);
#281=SHAPE_DEFINITION_REPRESENTATION(#572,#282);
#282=SHAPE_REPRESENTATION('07300040CH',(#283),#567);
#283=AXIS2_PLACEMENT_3D('',#417,#327,#328);
#284=AXIS2_PLACEMENT_3D('',#418,#329,#330);
#285=AXIS2_PLACEMENT_3D('',#459,#331,#332);
#286=AXIS2_PLACEMENT_3D('',#461,#333,#334);
#287=AXIS2_PLACEMENT_3D('',#464,#335,#336);
#288=AXIS2_PLACEMENT_3D('',#466,#337,#338);
#289=AXIS2_PLACEMENT_3D('',#510,#339,#340);
#290=AXIS2_PLACEMENT_3D('',#515,#343,#344);
#291=AXIS2_PLACEMENT_3D('',#516,#345,#346);
#292=AXIS2_PLACEMENT_3D('',#517,#347,#348);
#293=AXIS2_PLACEMENT_3D('',#519,#349,#350);
#294=AXIS2_PLACEMENT_3D('',#520,#351,#352);
#295=AXIS2_PLACEMENT_3D('',#521,#353,#354);
#296=AXIS2_PLACEMENT_3D('',#523,#355,#356);
#297=AXIS2_PLACEMENT_3D('',#524,#357,#358);
#298=AXIS2_PLACEMENT_3D('',#526,#359,#360);
#299=AXIS2_PLACEMENT_3D('',#527,#361,#362);
#300=AXIS2_PLACEMENT_3D('',#529,#363,#364);
#301=AXIS2_PLACEMENT_3D('',#531,#365,#366);
#302=AXIS2_PLACEMENT_3D('',#532,#367,#368);
#303=AXIS2_PLACEMENT_3D('',#533,#369,#370);
#304=AXIS2_PLACEMENT_3D('',#534,#371,#372);
#305=AXIS2_PLACEMENT_3D('',#536,#373,#374);
#306=AXIS2_PLACEMENT_3D('',#538,#375,#376);
#307=AXIS2_PLACEMENT_3D('',#539,#377,#378);
#308=AXIS2_PLACEMENT_3D('',#540,#379,#380);
#309=AXIS2_PLACEMENT_3D('',#541,#381,#382);
#310=AXIS2_PLACEMENT_3D('',#543,#383,#384);
#311=AXIS2_PLACEMENT_3D('',#544,#385,#386);
#312=AXIS2_PLACEMENT_3D('',#545,#387,#388);
#313=AXIS2_PLACEMENT_3D('',#546,#389,#390);
#314=AXIS2_PLACEMENT_3D('',#548,#391,#392);
#315=AXIS2_PLACEMENT_3D('',#549,#393,#394);
#316=AXIS2_PLACEMENT_3D('',#551,#395,#396);
#317=AXIS2_PLACEMENT_3D('',#552,#397,#398);
#318=AXIS2_PLACEMENT_3D('',#554,#399,#400);
#319=AXIS2_PLACEMENT_3D('',#556,#401,#402);
#320=AXIS2_PLACEMENT_3D('',#557,#403,#404);
#321=AXIS2_PLACEMENT_3D('',#558,#405,#406);
#322=AXIS2_PLACEMENT_3D('',#559,#407,#408);
#323=AXIS2_PLACEMENT_3D('',#561,#409,#410);
#324=AXIS2_PLACEMENT_3D('',#562,#411,#412);
#325=AXIS2_PLACEMENT_3D('',#563,#413,#414);
#326=AXIS2_PLACEMENT_3D('',#565,#415,#416);
#327=DIRECTION('',(0.,0.,1.));
#328=DIRECTION('',(1.,0.,0.));
#329=DIRECTION('',(-1.,0.,0.));
#330=DIRECTION('',(0.,0.,1.));
#331=DIRECTION('',(1.,0.,0.));
#332=DIRECTION('',(0.,0.,-1.));
#333=DIRECTION('',(0.707106781186548,0.,0.707106781186548));
#334=DIRECTION('',(-0.707106781186548,0.,0.707106781186548));
#335=DIRECTION('',(1.,0.,0.));
#336=DIRECTION('',(0.,0.,-1.));
#337=DIRECTION('',(0.707106781186548,0.,0.707106781186548));
#338=DIRECTION('',(-0.707106781186548,0.,0.707106781186548));
#339=DIRECTION('',(1.,0.,0.));
#340=DIRECTION('',(0.,0.,-1.));
#341=DIRECTION('',(0.,-1.,0.));
#342=DIRECTION('',(0.,-1.,0.));
#343=DIRECTION('',(1.,0.,0.));
#344=DIRECTION('',(0.,0.,-1.));
#345=DIRECTION('',(1.,0.,0.));
#346=DIRECTION('',(0.,0.,-1.));
#347=DIRECTION('',(1.,0.,0.));
#348=DIRECTION('',(0.,0.,-1.));
#349=DIRECTION('',(0.707106781186548,0.,0.707106781186548));
#350=DIRECTION('',(0.707106781186548,0.,-0.707106781186548));
#351=DIRECTION('',(1.,0.,0.));
#352=DIRECTION('',(0.,0.,-1.));
#353=DIRECTION('',(1.,0.,0.));
#354=DIRECTION('',(0.,0.,-1.));
#355=DIRECTION('',(-1.,0.,0.));
#356=DIRECTION('',(0.,0.,1.));
#357=DIRECTION('',(1.,0.,0.));
#358=DIRECTION('',(0.,0.,-1.));
#359=DIRECTION('',(1.,0.,0.));
#360=DIRECTION('',(0.,0.,-1.));
#361=DIRECTION('',(1.,0.,0.));
#362=DIRECTION('',(0.,0.,-1.));
#363=DIRECTION('',(1.,0.,0.));
#364=DIRECTION('',(0.,0.,-1.));
#365=DIRECTION('',(1.,0.,0.));
#366=DIRECTION('',(0.,0.,-1.));
#367=DIRECTION('',(1.,0.,0.));
#368=DIRECTION('',(0.,0.,-1.));
#369=DIRECTION('',(-1.,0.,0.));
#370=DIRECTION('',(0.,0.,1.));
#371=DIRECTION('',(1.,0.,0.));
#372=DIRECTION('',(0.,0.,-1.));
#373=DIRECTION('',(1.,0.,0.));
#374=DIRECTION('',(0.,0.,-1.));
#375=DIRECTION('',(1.,0.,0.));
#376=DIRECTION('',(0.,0.,-1.));
#377=DIRECTION('',(1.,0.,0.));
#378=DIRECTION('',(0.,0.,-1.));
#379=DIRECTION('',(-0.707106781186548,0.,-0.707106781186548));
#380=DIRECTION('',(-0.707106781186548,0.,0.707106781186548));
#381=DIRECTION('',(0.707106781186548,0.,0.707106781186548));
#382=DIRECTION('',(0.707106781186548,0.,-0.707106781186548));
#383=DIRECTION('',(0.707106781186548,0.,0.707106781186548));
#384=DIRECTION('',(0.707106781186548,0.,-0.707106781186548));
#385=DIRECTION('',(0.707106781186548,0.,0.707106781186548));
#386=DIRECTION('',(0.707106781186548,0.,-0.707106781186548));
#387=DIRECTION('',(0.707106781186548,0.,0.707106781186548));
#388=DIRECTION('',(0.707106781186548,0.,-0.707106781186548));
#389=DIRECTION('',(0.707106781186548,0.,0.707106781186548));
#390=DIRECTION('',(0.707106781186548,0.,-0.707106781186548));
#391=DIRECTION('',(-0.707106781186548,0.,-0.707106781186548));
#392=DIRECTION('',(-0.707106781186548,0.,0.707106781186548));
#393=DIRECTION('',(0.707106781186548,0.,0.707106781186548));
#394=DIRECTION('',(0.707106781186548,0.,-0.707106781186548));
#395=DIRECTION('',(-0.707106781186547,0.,-0.707106781186547));
#396=DIRECTION('',(-0.707106781186548,0.,0.707106781186548));
#397=DIRECTION('',(0.707106781186548,0.,0.707106781186548));
#398=DIRECTION('',(0.707106781186548,0.,-0.707106781186548));
#399=DIRECTION('',(0.707106781186548,0.,0.707106781186548));
#400=DIRECTION('',(0.707106781186548,0.,-0.707106781186548));
#401=DIRECTION('',(0.707106781186548,0.,0.707106781186548));
#402=DIRECTION('',(0.707106781186548,0.,-0.707106781186548));
#403=DIRECTION('',(0.707106781186548,0.,0.707106781186548));
#404=DIRECTION('',(0.707106781186548,0.,-0.707106781186548));
#405=DIRECTION('',(0.,1.,0.));
#406=DIRECTION('',(0.,0.,1.));
#407=DIRECTION('',(0.,1.,0.));
#408=DIRECTION('',(1.,0.,0.));
#409=DIRECTION('',(0.,1.,0.));
#410=DIRECTION('',(0.,0.,1.));
#411=DIRECTION('',(0.,0.,1.));
#412=DIRECTION('',(1.,0.,0.));
#413=DIRECTION('',(0.,0.,1.));
#414=DIRECTION('',(1.,0.,0.));
#415=DIRECTION('',(0.,0.,1.));
#416=DIRECTION('',(1.,0.,0.));
#417=CARTESIAN_POINT('',(0.,0.,0.));
#418=CARTESIAN_POINT('',(52.5,0.,0.));
#419=CARTESIAN_POINT('',(-22.4786746914241,-3.5560699410778,-22.8065381929653));
#420=CARTESIAN_POINT('',(-21.7596161928236,-0.00381779800059782,-23.09714469818));
#421=CARTESIAN_POINT('',(-22.4828605372816,3.57134113308019,-22.8048830143149));
#422=CARTESIAN_POINT('',(-24.4800973663149,6.52917830230495,-22.1051459982901));
#423=CARTESIAN_POINT('',(-27.4335856827378,8.51630260147813,-21.3808190822587));
#424=CARTESIAN_POINT('',(-30.9905280885482,9.2410068640764,-21.0589249456411));
#425=CARTESIAN_POINT('',(-34.5649056537911,8.51965557120339,-21.379550176975));
#426=CARTESIAN_POINT('',(-37.5268254007321,6.5232967679875,-22.1073051687019));
#427=CARTESIAN_POINT('',(-39.5181386950093,3.56434263925425,-22.8053404784703));
#428=CARTESIAN_POINT('',(-40.2404646446307,0.00369862106298274,-23.0971740627805));
#429=CARTESIAN_POINT('',(-39.5200006573805,-3.56418849649118,-22.805962460765));
#430=CARTESIAN_POINT('',(-37.5190410500164,-6.53211747549336,-22.1046943073869));
#431=CARTESIAN_POINT('',(-34.5582368583689,-8.52044968905176,-21.3790248501099));
#432=CARTESIAN_POINT('',(-30.9967866095365,-9.2407558877602,-21.0590868790823));
#433=CARTESIAN_POINT('',(-27.4307913730805,-8.51652150392228,-21.3806927995586));
#434=CARTESIAN_POINT('',(-24.4720359194767,-6.5231353943153,-22.1075873426722));
#435=CARTESIAN_POINT('',(-22.4786746914241,-3.5560699410778,-22.8065381929653));
#436=CARTESIAN_POINT('',(-21.7596161928236,-0.00381779800059782,-23.09714469818));
#437=CARTESIAN_POINT('',(-22.4828605372816,3.57134113308019,-22.8048830143149));
#438=CARTESIAN_POINT('',(-22.,0.,-23.));
#439=CARTESIAN_POINT('',(23.922710744392,-21.3818860921881,8.51376022268336));
#440=CARTESIAN_POINT('',(27.5025210033499,-21.0583769587121,9.24237578002293));
#441=CARTESIAN_POINT('',(31.0672052422083,-21.3806690040638,8.51673665722494));
#442=CARTESIAN_POINT('',(34.0231159116933,-22.1062015558693,6.52631264588217));
#443=CARTESIAN_POINT('',(36.0149185267187,-22.8040988022359,3.57095550579418));
#444=CARTESIAN_POINT('',(36.7408075253202,-23.0973096719507,0.0131486403682163));
#445=CARTESIAN_POINT('',(36.0218149421949,-22.8066482548238,-3.56082513057496));
#446=CARTESIAN_POINT('',(34.0231885451013,-22.1061076024774,-6.52682986529043));
#447=CARTESIAN_POINT('',(31.0700235859829,-21.3813759551868,-8.51479504993598));
#448=CARTESIAN_POINT('',(27.5134132492813,-21.0592384384298,-9.2403400108552));
#449=CARTESIAN_POINT('',(23.9467376705945,-21.377752743141,-8.52379899766884));
#450=CARTESIAN_POINT('',(20.9806672499358,-22.1048284747335,-6.53153059659578));
#451=CARTESIAN_POINT('',(18.9845089910812,-22.8043049585464,-3.57148949563517));
#452=CARTESIAN_POINT('',(18.2595551563243,-23.0971803173571,-0.0102347964941612));
#453=CARTESIAN_POINT('',(18.9772990247623,-22.806962564625,3.55681175643097));
#454=CARTESIAN_POINT('',(20.9723382480854,-22.1077769005783,6.52157605681131));
#455=CARTESIAN_POINT('',(23.922710744392,-21.3818860921881,8.51376022268336));
#456=CARTESIAN_POINT('',(27.5025210033499,-21.0583769587121,9.24237578002293));
#457=CARTESIAN_POINT('',(31.0672052422083,-21.3806690040638,8.51673665722494));
#458=CARTESIAN_POINT('',(27.5,-21.1660104885167,9.));
#459=CARTESIAN_POINT('',(52.5,0.,0.));
#460=CARTESIAN_POINT('',(52.5,0.,-23.));
#461=CARTESIAN_POINT('',(-31.,0.,0.));
#462=CARTESIAN_POINT('',(-52.5,-8.1700673191841,21.5));
#463=CARTESIAN_POINT('',(-8.75140453871301,-5.83095189484527,-22.248595461287));
#464=CARTESIAN_POINT('',(-52.5,0.,0.));
#465=CARTESIAN_POINT('',(-52.5,8.1700673191841,21.5));
#466=CARTESIAN_POINT('',(-31.,0.,0.));
#467=CARTESIAN_POINT('',(-8.75140453871301,5.83095189484527,-22.248595461287));
#468=CARTESIAN_POINT('',(-8.75140453871301,-5.83095189484517,-22.248595461287));
#469=CARTESIAN_POINT('',(-8.75140453871301,-7.57227058600624,-21.7922275283349));
#470=CARTESIAN_POINT('',(-8.74409967479428,-10.0488193933639,-20.8231730342673));
#471=CARTESIAN_POINT('',(-8.63087195475627,-13.1218127607901,-18.9538083465008));
#472=CARTESIAN_POINT('',(-8.45942366582604,-15.2266024774008,-17.3053393771182));
#473=CARTESIAN_POINT('',(-8.16675790497773,-17.1043908839935,-15.4532411903283));
#474=CARTESIAN_POINT('',(-7.5340765913149,-19.3327242241606,-12.6762836653093));
#475=CARTESIAN_POINT('',(-6.48180496822331,-20.9637559458788,-9.70672677040427));
#476=CARTESIAN_POINT('',(-4.86316811017866,-22.0562662290743,-6.66000435521051));
#477=CARTESIAN_POINT('',(-2.94815168618549,-22.7755423211363,-3.74604351703787));
#478=CARTESIAN_POINT('',(-0.0144974297364553,-23.1029979779701,-0.325481000978135));
#479=CARTESIAN_POINT('',(3.92195086190078,-22.855502925679,3.24274431432));
#480=CARTESIAN_POINT('',(9.5755140133202,-21.9063689058714,7.5553271429869));
#481=CARTESIAN_POINT('',(15.3590675309947,-20.2509169472547,11.2242785488733));
#482=CARTESIAN_POINT('',(21.1642878145889,-17.8792219266506,14.5818019429792));
#483=CARTESIAN_POINT('',(25.4464055312233,-15.6827384591515,16.9329508024785));
#484=CARTESIAN_POINT('',(29.5511692341511,-12.9795824737951,19.1011726318569));
#485=CARTESIAN_POINT('',(32.6414528419954,-10.2190631916942,20.6855537181538));
#486=CARTESIAN_POINT('',(34.7594093820991,-7.57524967319268,21.7551101032418));
#487=CARTESIAN_POINT('',(36.5446583955525,-4.55422501541223,22.648604189871));
#488=CARTESIAN_POINT('',(37.4629505677107,-1.03186383575375,23.1030377587129));
#489=CARTESIAN_POINT('',(37.0662134259944,2.57802972848641,22.9065606427668));
#490=CARTESIAN_POINT('',(35.8943288560513,5.95667036000239,22.3240145661864));
#491=CARTESIAN_POINT('',(33.3920007072551,9.52745507653389,21.0697106693849));
#492=CARTESIAN_POINT('',(29.682083087143,12.8812974252933,19.1692113504868));
#493=CARTESIAN_POINT('',(25.5734497478416,15.6085936573852,17.0012304938032));
#494=CARTESIAN_POINT('',(21.3360496471539,17.7986223644182,14.677367275935));
#495=CARTESIAN_POINT('',(16.988835296232,19.5953578051749,12.1720163922556));
#496=CARTESIAN_POINT('',(12.5883478894612,21.0385477400857,9.46175646894484));
#497=CARTESIAN_POINT('',(8.27832570153913,22.1189346499393,6.5594420055193));
#498=CARTESIAN_POINT('',(4.10574796929961,22.8327316773215,3.39352888121226));
#499=CARTESIAN_POINT('',(0.105156535543319,23.1035908852543,-0.204817477002229));
#500=CARTESIAN_POINT('',(-2.82970299330317,22.8027180314149,-3.58855229405349));
#501=CARTESIAN_POINT('',(-4.7978245082837,22.088989879095,-6.55008717099596));
#502=CARTESIAN_POINT('',(-6.00482740121576,21.2982139148974,-8.79512467211514));
#503=CARTESIAN_POINT('',(-6.96044356639345,20.2229523195664,-11.0569744471781));
#504=CARTESIAN_POINT('',(-7.67062730528261,18.8331595258887,-13.289791116573));
#505=CARTESIAN_POINT('',(-8.14690120837965,17.1978009606319,-15.3493858536187));
#506=CARTESIAN_POINT('',(-8.55608391691871,14.6458805420951,-17.8938631208702));
#507=CARTESIAN_POINT('',(-8.73958483141483,10.95760426165,-20.460264165913));
#508=CARTESIAN_POINT('',(-8.75140453871301,7.58073473272576,-21.7900092295467));
#509=CARTESIAN_POINT('',(-8.75140453871301,5.83095189484517,-22.248595461287));
#510=CARTESIAN_POINT('',(-52.5,0.,0.));
#511=CARTESIAN_POINT('',(-52.5,0.,21.5));
#512=CARTESIAN_POINT('',(-52.5,4.66368952654438,21.5));
#513=CARTESIAN_POINT('',(-52.5,0.,21.5));
#514=CARTESIAN_POINT('',(-52.5,-4.66368952654438,21.5));
#515=CARTESIAN_POINT('',(-52.5,0.,0.));
#516=CARTESIAN_POINT('',(-92.5,0.,0.));
#517=CARTESIAN_POINT('',(-92.5,0.,0.));
#518=CARTESIAN_POINT('',(-92.5,0.,-22.));
#519=CARTESIAN_POINT('',(-31.,0.,0.));
#520=CARTESIAN_POINT('',(52.5,0.,0.));
#521=CARTESIAN_POINT('',(52.5,0.,0.));
#522=CARTESIAN_POINT('',(52.5,0.,-22.));
#523=CARTESIAN_POINT('',(92.5,0.,0.));
#524=CARTESIAN_POINT('',(92.5,0.,0.));
#525=CARTESIAN_POINT('',(92.5,0.,-22.));
#526=CARTESIAN_POINT('',(-94.5,0.,0.));
#527=CARTESIAN_POINT('',(-94.5,0.,0.));
#528=CARTESIAN_POINT('',(-94.5,0.,-24.5));
#529=CARTESIAN_POINT('',(-92.5,0.,0.));
#530=CARTESIAN_POINT('',(-92.5,0.,-24.5));
#531=CARTESIAN_POINT('',(-94.5,0.,0.));
#532=CARTESIAN_POINT('',(-92.5,0.,0.));
#533=CARTESIAN_POINT('',(94.5,0.,0.));
#534=CARTESIAN_POINT('',(94.5,0.,0.));
#535=CARTESIAN_POINT('',(94.5,0.,-24.5));
#536=CARTESIAN_POINT('',(92.5,0.,0.));
#537=CARTESIAN_POINT('',(92.5,0.,-24.5));
#538=CARTESIAN_POINT('',(94.5,0.,0.));
#539=CARTESIAN_POINT('',(92.5,0.,0.));
#540=CARTESIAN_POINT('',(24.1543289325507,0.,55.1543289325507));
#541=CARTESIAN_POINT('',(24.1543289325507,0.,55.1543289325507));
#542=CARTESIAN_POINT('',(46.7817459305202,0.,32.5269119345812));
#543=CARTESIAN_POINT('',(-31.,0.,0.));
#544=CARTESIAN_POINT('',(-31.,0.,0.));
#545=CARTESIAN_POINT('',(24.1543289325507,0.,55.1543289325507));
#546=CARTESIAN_POINT('',(24.1543289325507,0.,55.1543289325507));
#547=CARTESIAN_POINT('',(35.4680374315355,0.,43.840620433566));
#548=CARTESIAN_POINT('',(90.8875314070311,0.,121.887531407031));
#549=CARTESIAN_POINT('',(90.8875314070311,0.,121.887531407031));
#550=CARTESIAN_POINT('',(102.201239906016,0.,110.573822908046));
#551=CARTESIAN_POINT('',(97.2514924377101,0.,128.25149243771));
#552=CARTESIAN_POINT('',(97.2514924377101,0.,128.25149243771));
#553=CARTESIAN_POINT('',(122.000229779239,0.,103.502755096181));
#554=CARTESIAN_POINT('',(90.8875314070311,0.,121.887531407031));
#555=CARTESIAN_POINT('',(115.63626874856,0.,97.138794065502));
#556=CARTESIAN_POINT('',(97.2514924377101,0.,128.25149243771));
#557=CARTESIAN_POINT('',(90.8875314070311,0.,121.887531407031));
#558=CARTESIAN_POINT('',(27.5,-27.,0.));
#559=CARTESIAN_POINT('',(27.5,-27.,0.));
#560=CARTESIAN_POINT('',(36.5,-27.,0.));
#561=CARTESIAN_POINT('',(27.5,-27.,0.));
#562=CARTESIAN_POINT('',(-31.,0.,-28.));
#563=CARTESIAN_POINT('',(-31.,0.,-28.));
#564=CARTESIAN_POINT('',(-22.,0.,-28.));
#565=CARTESIAN_POINT('',(-31.,0.,-28.));
#566=MECHANICAL_DESIGN_GEOMETRIC_PRESENTATION_REPRESENTATION('',(#272),
#567);
#567=(
GEOMETRIC_REPRESENTATION_CONTEXT(3)
GLOBAL_UNCERTAINTY_ASSIGNED_CONTEXT((#568))
GLOBAL_UNIT_ASSIGNED_CONTEXT((#571,#570,#569))
REPRESENTATION_CONTEXT('07300040CH','TOP_LEVEL_ASSEMBLY_PART')
);
#568=UNCERTAINTY_MEASURE_WITH_UNIT(LENGTH_MEASURE(0.005),#571,
'DISTANCE_ACCURACY_VALUE','Maximum Tolerance applied to model');
#569=(
NAMED_UNIT(*)
SI_UNIT($,.STERADIAN.)
SOLID_ANGLE_UNIT()
);
#570=(
NAMED_UNIT(*)
PLANE_ANGLE_UNIT()
SI_UNIT($,.RADIAN.)
);
#571=(
LENGTH_UNIT()
NAMED_UNIT(*)
SI_UNIT(.MILLI.,.METRE.)
);
#572=PRODUCT_DEFINITION_SHAPE('','',#573);
#573=PRODUCT_DEFINITION('','',#575,#574);
#574=DESIGN_CONTEXT('',#581,'design');
#575=PRODUCT_DEFINITION_FORMATION_WITH_SPECIFIED_SOURCE('','',#577,
 .NOT_KNOWN.);
#576=PRODUCT_RELATED_PRODUCT_CATEGORY('','',(#577));
#577=PRODUCT('07300040CH','07300040CH','07300040CH',(#579));
#578=PRODUCT_CATEGORY('','');
#579=MECHANICAL_CONTEXT('',#581,'mechanical');
#580=APPLICATION_PROTOCOL_DEFINITION('international standard',
'config_control_design',2010,#581);
#581=APPLICATION_CONTEXT(
'configuration controlled 3D designs of mechanical parts and assemblie
s');
ENDSEC;
END-ISO-10303-21;
