ISO-10303-21;
HEADER;
FILE_DESCRIPTION (( 'STEP AP203' ),
    '1' );
FILE_NAME ('3D_R169_ DN25-17_17323080.STEP',
    '2024-07-17T11:49:03',
    ( '' ),
    ( '' ),
    'SwSTEP 2.0',
    'SolidWorks 2024',
    '' );
FILE_SCHEMA (( 'CONFIG_CONTROL_DESIGN' ));
ENDSEC;

DATA;
#1 = CC_DESIGN_PERSON_AND_ORGANIZATION_ASSIGNMENT ( #43, #105, ( #19 ) ) ;
#2 = CIRCLE ( 'NONE', #208, 6.472412489900593258 ) ;
#3 = COORDINATED_UNIVERSAL_TIME_OFFSET ( 1, 0, .AHEAD. ) ;
#4 = CLOSED_SHELL ( 'NONE', ( #193, #246, #138, #46, #9, #66 ) ) ;
#5 = EDGE_LOOP ( 'NONE', ( #31, #21 ) ) ;
#6 = APPROVAL_DATE_TIME ( #24, #229 ) ;
#7 = ORIENTED_EDGE ( 'NONE', *, *, #92, .F. ) ;
#8 = DATE_TIME_ROLE ( 'creation_date' ) ;
#9 = ADVANCED_FACE ( 'NONE', ( #183 ), #87, .T. ) ;
#10 = LINE ( 'NONE', #220, #98 ) ;
#11 = PERSON_AND_ORGANIZATION_ROLE ( 'classification_officer' ) ;
#12 = CARTESIAN_POINT ( 'NONE',  ( 24.00000000000000000, 0.000000000000000000, 0.000000000000000000 ) ) ;
#13 =( NAMED_UNIT ( * ) PLANE_ANGLE_UNIT ( ) SI_UNIT ( $, .RADIAN. ) );
#14 = CARTESIAN_POINT ( 'NONE',  ( 24.00000000000000000, 0.000000000000000000, 0.000000000000000000 ) ) ;
#15 = FACE_OUTER_BOUND ( 'NONE', #214, .T. ) ;
#16 = AXIS2_PLACEMENT_3D ( 'NONE', #135, #191, #74 ) ;
#17 = DIRECTION ( 'NONE',  ( 0.000000000000000000, 0.000000000000000000, -1.000000000000000000 ) ) ;
#18 = DIRECTION ( 'NONE',  ( 0.000000000000000000, 0.000000000000000000, 1.000000000000000000 ) ) ;
#19 = PRODUCT ( '3D_R169_ DN25-17_17323080', '3D_R169_ DN25-17_17323080', '', ( #236 ) ) ;
#20 = EDGE_CURVE ( 'NONE', #212, #39, #226, .T. ) ;
#21 = ORIENTED_EDGE ( 'NONE', *, *, #114, .T. ) ;
#22 = APPROVAL_STATUS ( 'not_yet_approved' ) ;
#23 = ORIENTED_EDGE ( 'NONE', *, *, #239, .F. ) ;
#24 = DATE_AND_TIME ( #63, #223 ) ;
#25 = EDGE_CURVE ( 'NONE', #175, #82, #165, .T. ) ;
#26 = CARTESIAN_POINT ( 'NONE',  ( 23.67120202538928808, 0.000000000000000000, 0.000000000000000000 ) ) ;
#27 = SHAPE_DEFINITION_REPRESENTATION ( #189, #48 ) ;
#28 = DIRECTION ( 'NONE',  ( 0.000000000000000000, 0.000000000000000000, 1.000000000000000000 ) ) ;
#29 = VECTOR ( 'NONE', #248, 1000.000000000000000 ) ;
#30 = ORGANIZATION ( 'UNSPECIFIED', 'UNSPECIFIED', '' ) ;
#31 = ORIENTED_EDGE ( 'NONE', *, *, #182, .T. ) ;
#32 = EDGE_CURVE ( 'NONE', #70, #123, #207, .T. ) ;
#33 = CARTESIAN_POINT ( 'NONE',  ( 24.00000000000000000, 5.204748896376250699E-16, 8.500000000000000000 ) ) ;
#34 = CIRCLE ( 'NONE', #174, 12.50000000000000000 ) ;
#35 = LINE ( 'NONE', #247, #230 ) ;
#36 = CARTESIAN_POINT ( 'NONE',  ( 23.67120202538928808, 0.000000000000000000, 0.000000000000000000 ) ) ;
#37 = CARTESIAN_POINT ( 'NONE',  ( 24.00000000000000000, 1.037571283681281717E-15, -6.472412489900593258 ) ) ;
#38 = SECURITY_CLASSIFICATION ( '', '', #160 ) ;
#39 = VERTEX_POINT ( 'NONE', #33 ) ;
#40 = PERSON_AND_ORGANIZATION ( #108, #30 ) ;
#41 = ORIENTED_EDGE ( 'NONE', *, *, #239, .T. ) ;
#42 = PERSON_AND_ORGANIZATION ( #108, #30 ) ;
#43 = PERSON_AND_ORGANIZATION ( #108, #30 ) ;
#44 = EDGE_CURVE ( 'NONE', #212, #70, #10, .T. ) ;
#45 = DIRECTION ( 'NONE',  ( -0.9863939238321437486, 2.013306935865721687E-17, -0.1643989873053572914 ) ) ;
#46 = ADVANCED_FACE ( 'NONE', ( #86, #126 ), #199, .F. ) ;
#47 = AXIS2_PLACEMENT_3D ( 'NONE', #53, #133, #209 ) ;
#48 = ADVANCED_BREP_SHAPE_REPRESENTATION ( '3D_R169_ DN25-17_17323080', ( #111, #179 ), #188 ) ;
#49 = CARTESIAN_POINT ( 'NONE',  ( 0.000000000000000000, 0.000000000000000000, 10.47241248990059326 ) ) ;
#50 = ORIENTED_EDGE ( 'NONE', *, *, #25, .T. ) ;
#51 = DIRECTION ( 'NONE',  ( 1.000000000000000000, 0.000000000000000000, 0.000000000000000000 ) ) ;
#52 = CONICAL_SURFACE ( 'NONE', #148, 6.527212152335712503, 0.1651486774146267988 ) ;
#53 = CARTESIAN_POINT ( 'NONE',  ( 0.000000000000000000, 0.000000000000000000, 0.000000000000000000 ) ) ;
#54 = FACE_BOUND ( 'NONE', #58, .T. ) ;
#55 = FACE_OUTER_BOUND ( 'NONE', #80, .T. ) ;
#56 = CC_DESIGN_PERSON_AND_ORGANIZATION_ASSIGNMENT ( #200, #11, ( #38 ) ) ;
#57 = AXIS2_PLACEMENT_3D ( 'NONE', #187, #91, #170 ) ;
#58 = EDGE_LOOP ( 'NONE', ( #231, #23 ) ) ;
#59 = COORDINATED_UNIVERSAL_TIME_OFFSET ( 1, 0, .AHEAD. ) ;
#60 = ORIENTED_EDGE ( 'NONE', *, *, #32, .F. ) ;
#61 = PERSON_AND_ORGANIZATION ( #108, #30 ) ;
#62 = APPROVAL_PERSON_ORGANIZATION ( #122, #145, #158 ) ;
#63 = CALENDAR_DATE ( 2024, 17, 7 ) ;
#64 = CALENDAR_DATE ( 2024, 17, 7 ) ;
#65 = AXIS2_PLACEMENT_3D ( 'NONE', #14, #72, #245 ) ;
#66 = ADVANCED_FACE ( 'NONE', ( #67 ), #78, .F. ) ;
#67 = FACE_OUTER_BOUND ( 'NONE', #233, .T. ) ;
#68 = VECTOR ( 'NONE', #228, 1000.000000000000000 ) ;
#69 = CARTESIAN_POINT ( 'NONE',  ( 24.00000000000000000, 0.000000000000000000, 0.000000000000000000 ) ) ;
#70 = VERTEX_POINT ( 'NONE', #153 ) ;
#71 = CC_DESIGN_DATE_AND_TIME_ASSIGNMENT ( #127, #8, ( #161 ) ) ;
#72 = DIRECTION ( 'NONE',  ( 1.000000000000000000, 0.000000000000000000, 0.000000000000000000 ) ) ;
#73 = DIRECTION ( 'NONE',  ( -0.9863939238321437486, 2.013306935865721687E-17, -0.1643989873053572914 ) ) ;
#74 = DIRECTION ( 'NONE',  ( 0.000000000000000000, 0.000000000000000000, -1.000000000000000000 ) ) ;
#75 = DIRECTION ( 'NONE',  ( 0.000000000000000000, 0.000000000000000000, -1.000000000000000000 ) ) ;
#76 = PERSON_AND_ORGANIZATION ( #108, #30 ) ;
#77 = APPROVAL ( #142, 'UNSPECIFIED' ) ;
#78 = CONICAL_SURFACE ( 'NONE', #93, 6.527212152335712503, 0.1651486774146267988 ) ;
#79 = CIRCLE ( 'NONE', #16, 8.500000000000000000 ) ;
#80 = EDGE_LOOP ( 'NONE', ( #50, #177, #99, #204 ) ) ;
#81 = COORDINATED_UNIVERSAL_TIME_OFFSET ( 1, 0, .AHEAD. ) ;
#82 = VERTEX_POINT ( 'NONE', #37 ) ;
#83 = PERSON_AND_ORGANIZATION_ROLE ( 'creator' ) ;
#84 = CC_DESIGN_APPROVAL ( #145, ( #161 ) ) ;
#85 = APPROVAL_STATUS ( 'not_yet_approved' ) ;
#86 = FACE_BOUND ( 'NONE', #5, .T. ) ;
#87 = CONICAL_SURFACE ( 'NONE', #120, 8.500000000000000000, 0.1651486774146267988 ) ;
#88 = ORIENTED_EDGE ( 'NONE', *, *, #224, .T. ) ;
#89 = ORIENTED_EDGE ( 'NONE', *, *, #20, .F. ) ;
#90 = CARTESIAN_POINT ( 'NONE',  ( 24.00000000000000000, 0.000000000000000000, 0.000000000000000000 ) ) ;
#91 = DIRECTION ( 'NONE',  ( 1.000000000000000000, 0.000000000000000000, 0.000000000000000000 ) ) ;
#92 = EDGE_CURVE ( 'NONE', #39, #212, #79, .T. ) ;
#93 = AXIS2_PLACEMENT_3D ( 'NONE', #26, #104, #147 ) ;
#94 = CARTESIAN_POINT ( 'NONE',  ( 0.000000000000000000, -7.654042494670957606E-16, 12.50000000000000000 ) ) ;
#95 = CARTESIAN_POINT ( 'NONE',  ( 24.00000000000000000, 0.000000000000000000, 0.000000000000000000 ) ) ;
#96 = LOCAL_TIME ( 13, 49, 3.000000000000000000, #81 ) ;
#97 = CC_DESIGN_PERSON_AND_ORGANIZATION_ASSIGNMENT ( #76, #234, ( #192 ) ) ;
#98 = VECTOR ( 'NONE', #45, 1000.000000000000000 ) ;
#99 = ORIENTED_EDGE ( 'NONE', *, *, #182, .F. ) ;
#100 = CALENDAR_DATE ( 2024, 17, 7 ) ;
#101 = ORIENTED_EDGE ( 'NONE', *, *, #201, .T. ) ;
#102 = COORDINATED_UNIVERSAL_TIME_OFFSET ( 1, 0, .AHEAD. ) ;
#103 = DESIGN_CONTEXT ( 'detailed design', #137, 'design' ) ;
#104 = DIRECTION ( 'NONE',  ( -1.000000000000000000, -0.000000000000000000, -0.000000000000000000 ) ) ;
#105 = PERSON_AND_ORGANIZATION_ROLE ( 'design_owner' ) ;
#106 = DIRECTION ( 'NONE',  ( 1.000000000000000000, 0.000000000000000000, 0.000000000000000000 ) ) ;
#107 = UNCERTAINTY_MEASURE_WITH_UNIT (LENGTH_MEASURE( 1.000000000000000082E-05 ), #149, 'distance_accuracy_value', 'NONE');
#108 = PERSON ( 'UNSPECIFIED', 'UNSPECIFIED', 'UNSPECIFIED', ('UNSPECIFIED'), ('UNSPECIFIED'), ('UNSPECIFIED') ) ;
#109 = EDGE_LOOP ( 'NONE', ( #159, #7, #101, #88 ) ) ;
#110 = CC_DESIGN_APPROVAL ( #229, ( #192 ) ) ;
#111 = MANIFOLD_SOLID_BREP ( 'Wandung2', #4 ) ;
#112 = DIRECTION ( 'NONE',  ( 0.000000000000000000, 0.000000000000000000, 1.000000000000000000 ) ) ;
#113 = APPLICATION_CONTEXT ( 'configuration controlled 3d designs of mechanical parts and assemblies' ) ;
#114 = EDGE_CURVE ( 'NONE', #139, #244, #156, .T. ) ;
#115 = CARTESIAN_POINT ( 'NONE',  ( 0.000000000000000000, 1.282500643510752605E-15, -10.47241248990059326 ) ) ;
#116 = CARTESIAN_POINT ( 'NONE',  ( 24.00000000000000000, 5.204748896376250699E-16, -8.500000000000000000 ) ) ;
#117 = CARTESIAN_POINT ( 'NONE',  ( 0.000000000000000000, 0.000000000000000000, 0.000000000000000000 ) ) ;
#118 = LOCAL_TIME ( 13, 49, 3.000000000000000000, #102 ) ;
#119 = CC_DESIGN_PERSON_AND_ORGANIZATION_ASSIGNMENT ( #61, #140, ( #161 ) ) ;
#120 = AXIS2_PLACEMENT_3D ( 'NONE', #12, #185, #112 ) ;
#121 = ORIENTED_EDGE ( 'NONE', *, *, #92, .T. ) ;
#122 = PERSON_AND_ORGANIZATION ( #108, #30 ) ;
#123 = VERTEX_POINT ( 'NONE', #94 ) ;
#124 = CALENDAR_DATE ( 2024, 17, 7 ) ;
#125 = EDGE_CURVE ( 'NONE', #175, #244, #211, .T. ) ;
#126 = FACE_OUTER_BOUND ( 'NONE', #157, .T. ) ;
#127 = DATE_AND_TIME ( #124, #130 ) ;
#128 = DIRECTION ( 'NONE',  ( -1.000000000000000000, -0.000000000000000000, -0.000000000000000000 ) ) ;
#129 = ORIENTED_EDGE ( 'NONE', *, *, #125, .T. ) ;
#130 = LOCAL_TIME ( 13, 49, 3.000000000000000000, #3 ) ;
#131 = DIRECTION ( 'NONE',  ( 1.000000000000000000, 0.000000000000000000, 0.000000000000000000 ) ) ;
#132 = AXIS2_PLACEMENT_3D ( 'NONE', #151, #131, #206 ) ;
#133 = DIRECTION ( 'NONE',  ( 1.000000000000000000, 0.000000000000000000, 0.000000000000000000 ) ) ;
#134 = CC_DESIGN_DATE_AND_TIME_ASSIGNMENT ( #213, #232, ( #38 ) ) ;
#135 = CARTESIAN_POINT ( 'NONE',  ( 24.00000000000000000, 0.000000000000000000, 0.000000000000000000 ) ) ;
#136 = LINE ( 'NONE', #249, #68 ) ;
#137 = APPLICATION_CONTEXT ( 'configuration controlled 3d designs of mechanical parts and assemblies' ) ;
#138 = ADVANCED_FACE ( 'NONE', ( #54, #15 ), #152, .T. ) ;
#139 = VERTEX_POINT ( 'NONE', #115 ) ;
#140 = PERSON_AND_ORGANIZATION_ROLE ( 'creator' ) ;
#141 = EDGE_LOOP ( 'NONE', ( #89, #150, #166, #235 ) ) ;
#142 = APPROVAL_STATUS ( 'not_yet_approved' ) ;
#143 = CC_DESIGN_SECURITY_CLASSIFICATION ( #38, ( #192 ) ) ;
#144 = APPLICATION_PROTOCOL_DEFINITION ( 'international standard', 'config_control_design', 1994, #137 ) ;
#145 = APPROVAL ( #22, 'UNSPECIFIED' ) ;
#146 = CARTESIAN_POINT ( 'NONE',  ( 0.000000000000000000, 0.000000000000000000, 0.000000000000000000 ) ) ;
#147 = DIRECTION ( 'NONE',  ( 0.000000000000000000, 0.000000000000000000, 1.000000000000000000 ) ) ;
#148 = AXIS2_PLACEMENT_3D ( 'NONE', #36, #210, #18 ) ;
#149 =( LENGTH_UNIT ( ) NAMED_UNIT ( * ) SI_UNIT ( .MILLI., .METRE. ) );
#150 = ORIENTED_EDGE ( 'NONE', *, *, #44, .T. ) ;
#151 = CARTESIAN_POINT ( 'NONE',  ( 0.000000000000000000, 0.000000000000000000, 0.000000000000000000 ) ) ;
#152 = PLANE ( 'NONE',  #57 ) ;
#153 = CARTESIAN_POINT ( 'NONE',  ( 0.000000000000000000, 2.296212748401287183E-15, -12.50000000000000000 ) ) ;
#154 = CARTESIAN_POINT ( 'NONE',  ( 0.000000000000000000, 0.000000000000000000, 0.000000000000000000 ) ) ;
#155 = EDGE_CURVE ( 'NONE', #82, #139, #35, .T. ) ;
#156 = CIRCLE ( 'NONE', #171, 10.47241248990059503 ) ;
#157 = EDGE_LOOP ( 'NONE', ( #222, #60 ) ) ;
#158 = APPROVAL_ROLE ( '' ) ;
#159 = ORIENTED_EDGE ( 'NONE', *, *, #44, .F. ) ;
#160 = SECURITY_CLASSIFICATION_LEVEL ( 'unclassified' ) ;
#161 = PRODUCT_DEFINITION ( 'UNKNOWN', '', #192, #103 ) ;
#162 = APPROVAL_ROLE ( '' ) ;
#163 = APPLICATION_PROTOCOL_DEFINITION ( 'international standard', 'config_control_design', 1994, #113 ) ;
#164 = CARTESIAN_POINT ( 'NONE',  ( 0.000000000000000000, 0.000000000000000000, 0.000000000000000000 ) ) ;
#165 = CIRCLE ( 'NONE', #194, 6.472412489900593258 ) ;
#166 = ORIENTED_EDGE ( 'NONE', *, *, #32, .T. ) ;
#167 = ORIENTED_EDGE ( 'NONE', *, *, #114, .F. ) ;
#168 = DIRECTION ( 'NONE',  ( 0.000000000000000000, 0.000000000000000000, -1.000000000000000000 ) ) ;
#169 = DIRECTION ( 'NONE',  ( 0.000000000000000000, 0.000000000000000000, -1.000000000000000000 ) ) ;
#170 = DIRECTION ( 'NONE',  ( 0.000000000000000000, 0.000000000000000000, -1.000000000000000000 ) ) ;
#171 = AXIS2_PLACEMENT_3D ( 'NONE', #117, #227, #17 ) ;
#172 = CARTESIAN_POINT ( 'NONE',  ( 23.67120202538928808, 0.000000000000000000, 6.527212152335712503 ) ) ;
#173 = DIRECTION ( 'NONE',  ( 1.000000000000000000, 0.000000000000000000, 0.000000000000000000 ) ) ;
#174 = AXIS2_PLACEMENT_3D ( 'NONE', #154, #190, #75 ) ;
#175 = VERTEX_POINT ( 'NONE', #225 ) ;
#176 = DATE_AND_TIME ( #100, #215 ) ;
#177 = ORIENTED_EDGE ( 'NONE', *, *, #155, .T. ) ;
#178 = APPROVAL_DATE_TIME ( #217, #77 ) ;
#179 = AXIS2_PLACEMENT_3D ( 'NONE', #146, #28, #106 ) ;
#180 = DIRECTION ( 'NONE',  ( 0.000000000000000000, 0.000000000000000000, -1.000000000000000000 ) ) ;
#181 = APPROVAL_DATE_TIME ( #176, #145 ) ;
#182 = EDGE_CURVE ( 'NONE', #244, #139, #202, .T. ) ;
#183 = FACE_OUTER_BOUND ( 'NONE', #109, .T. ) ;
#184 = APPROVAL_PERSON_ORGANIZATION ( #40, #77, #216 ) ;
#185 = DIRECTION ( 'NONE',  ( -1.000000000000000000, -0.000000000000000000, -0.000000000000000000 ) ) ;
#186 = CC_DESIGN_PERSON_AND_ORGANIZATION_ASSIGNMENT ( #42, #83, ( #192 ) ) ;
#187 = CARTESIAN_POINT ( 'NONE',  ( 24.00000000000000000, 0.000000000000000000, 0.000000000000000000 ) ) ;
#188 =( GEOMETRIC_REPRESENTATION_CONTEXT ( 3 ) GLOBAL_UNCERTAINTY_ASSIGNED_CONTEXT ( ( #107 ) ) GLOBAL_UNIT_ASSIGNED_CONTEXT ( ( #149, #13, #218 ) ) REPRESENTATION_CONTEXT ( 'NONE', 'WORKASPACE' ) );
#189 = PRODUCT_DEFINITION_SHAPE ( 'NONE', 'NONE',  #161 ) ;
#190 = DIRECTION ( 'NONE',  ( 1.000000000000000000, 0.000000000000000000, 0.000000000000000000 ) ) ;
#191 = DIRECTION ( 'NONE',  ( 1.000000000000000000, 0.000000000000000000, 0.000000000000000000 ) ) ;
#192 = PRODUCT_DEFINITION_FORMATION_WITH_SPECIFIED_SOURCE ( 'ANY', '', #19, .NOT_KNOWN. ) ;
#193 = ADVANCED_FACE ( 'NONE', ( #55 ), #52, .F. ) ;
#194 = AXIS2_PLACEMENT_3D ( 'NONE', #90, #51, #169 ) ;
#195 = ORIENTED_EDGE ( 'NONE', *, *, #20, .T. ) ;
#196 = COORDINATED_UNIVERSAL_TIME_OFFSET ( 1, 0, .AHEAD. ) ;
#197 = ORIENTED_EDGE ( 'NONE', *, *, #155, .F. ) ;
#198 = PERSON_AND_ORGANIZATION ( #108, #30 ) ;
#199 = PLANE ( 'NONE',  #241 ) ;
#200 = PERSON_AND_ORGANIZATION ( #108, #30 ) ;
#201 = EDGE_CURVE ( 'NONE', #39, #123, #136, .T. ) ;
#202 = CIRCLE ( 'NONE', #47, 10.47241248990059503 ) ;
#203 = DIRECTION ( 'NONE',  ( 0.000000000000000000, 0.000000000000000000, 1.000000000000000000 ) ) ;
#204 = ORIENTED_EDGE ( 'NONE', *, *, #125, .F. ) ;
#205 = APPROVAL_PERSON_ORGANIZATION ( #198, #229, #162 ) ;
#206 = DIRECTION ( 'NONE',  ( 0.000000000000000000, 0.000000000000000000, -1.000000000000000000 ) ) ;
#207 = CIRCLE ( 'NONE', #132, 12.50000000000000000 ) ;
#208 = AXIS2_PLACEMENT_3D ( 'NONE', #95, #173, #168 ) ;
#209 = DIRECTION ( 'NONE',  ( 0.000000000000000000, 0.000000000000000000, -1.000000000000000000 ) ) ;
#210 = DIRECTION ( 'NONE',  ( -1.000000000000000000, -0.000000000000000000, -0.000000000000000000 ) ) ;
#211 = LINE ( 'NONE', #172, #29 ) ;
#212 = VERTEX_POINT ( 'NONE', #116 ) ;
#213 = DATE_AND_TIME ( #64, #118 ) ;
#214 = EDGE_LOOP ( 'NONE', ( #121, #195 ) ) ;
#215 = LOCAL_TIME ( 13, 49, 3.000000000000000000, #196 ) ;
#216 = APPROVAL_ROLE ( '' ) ;
#217 = DATE_AND_TIME ( #238, #96 ) ;
#218 =( NAMED_UNIT ( * ) SI_UNIT ( $, .STERADIAN. ) SOLID_ANGLE_UNIT ( ) );
#219 = CONICAL_SURFACE ( 'NONE', #242, 8.500000000000000000, 0.1651486774146267988 ) ;
#220 = CARTESIAN_POINT ( 'NONE',  ( 24.00000000000000000, 1.040949779275250140E-15, -8.500000000000000000 ) ) ;
#221 = FACE_OUTER_BOUND ( 'NONE', #141, .T. ) ;
#222 = ORIENTED_EDGE ( 'NONE', *, *, #224, .F. ) ;
#223 = LOCAL_TIME ( 13, 49, 3.000000000000000000, #59 ) ;
#224 = EDGE_CURVE ( 'NONE', #123, #70, #34, .T. ) ;
#225 = CARTESIAN_POINT ( 'NONE',  ( 24.00000000000000000, 0.000000000000000000, 6.472412489900593258 ) ) ;
#226 = CIRCLE ( 'NONE', #65, 8.500000000000000000 ) ;
#227 = DIRECTION ( 'NONE',  ( 1.000000000000000000, 0.000000000000000000, 0.000000000000000000 ) ) ;
#228 = DIRECTION ( 'NONE',  ( -0.9863939238321437486, 0.000000000000000000, 0.1643989873053572914 ) ) ;
#229 = APPROVAL ( #85, 'UNSPECIFIED' ) ;
#230 = VECTOR ( 'NONE', #73, 1000.000000000000000 ) ;
#231 = ORIENTED_EDGE ( 'NONE', *, *, #25, .F. ) ;
#232 = DATE_TIME_ROLE ( 'classification_date' ) ;
#233 = EDGE_LOOP ( 'NONE', ( #197, #41, #129, #167 ) ) ;
#234 = PERSON_AND_ORGANIZATION_ROLE ( 'design_supplier' ) ;
#235 = ORIENTED_EDGE ( 'NONE', *, *, #201, .F. ) ;
#236 = MECHANICAL_CONTEXT ( 'NONE', #113, 'mechanical' ) ;
#237 = CC_DESIGN_APPROVAL ( #77, ( #38 ) ) ;
#238 = CALENDAR_DATE ( 2024, 17, 7 ) ;
#239 = EDGE_CURVE ( 'NONE', #82, #175, #2, .T. ) ;
#240 = DIRECTION ( 'NONE',  ( 1.000000000000000000, 0.000000000000000000, 0.000000000000000000 ) ) ;
#241 = AXIS2_PLACEMENT_3D ( 'NONE', #164, #240, #180 ) ;
#242 = AXIS2_PLACEMENT_3D ( 'NONE', #69, #128, #203 ) ;
#243 = PRODUCT_RELATED_PRODUCT_CATEGORY ( 'detail', '', ( #19 ) ) ;
#244 = VERTEX_POINT ( 'NONE', #49 ) ;
#245 = DIRECTION ( 'NONE',  ( 0.000000000000000000, 0.000000000000000000, -1.000000000000000000 ) ) ;
#246 = ADVANCED_FACE ( 'NONE', ( #221 ), #219, .T. ) ;
#247 = CARTESIAN_POINT ( 'NONE',  ( 23.67120202538928808, 7.993529469713636236E-16, -6.527212152335712503 ) ) ;
#248 = DIRECTION ( 'NONE',  ( -0.9863939238321437486, 0.000000000000000000, 0.1643989873053572914 ) ) ;
#249 = CARTESIAN_POINT ( 'NONE',  ( 24.00000000000000000, 0.000000000000000000, 8.500000000000000000 ) ) ;
ENDSEC;
END-ISO-10303-21;
