ISO-10303-21;
HEADER;
FILE_DESCRIPTION (( 'STEP AP203' ),
    '1' );
FILE_NAME ('3D_R245_139.7_17386170.STEP',
    '2024-08-06T09:35:39',
    ( '' ),
    ( '' ),
    'SwSTEP 2.0',
    'SolidWorks 2024',
    '' );
FILE_SCHEMA (( 'CONFIG_CONTROL_DESIGN' ));
ENDSEC;

DATA;
#1 = DATE_TIME_ROLE ( 'classification_date' ) ;
#2 = ORIENTED_EDGE ( 'NONE', *, *, #177, .T. ) ;
#3 = EDGE_LOOP ( 'NONE', ( #2, #233 ) ) ;
#4 = CARTESIAN_POINT ( 'NONE',  ( 1.475699392972560429E-14, 4.000000000000000000, 120.5000000000000000 ) ) ;
#5 = EDGE_LOOP ( 'NONE', ( #68, #175 ) ) ;
#6 = PRODUCT_DEFINITION_FORMATION_WITH_SPECIFIED_SOURCE ( 'ANY', '', #129, .NOT_KNOWN. ) ;
#7 = AXIS2_PLACEMENT_3D ( 'NONE', #200, #61, #141 ) ;
#8 = DIRECTION ( 'NONE',  ( 0.000000000000000000, 0.000000000000000000, 1.000000000000000000 ) ) ;
#9 = ADVANCED_FACE ( 'NONE', ( #105 ), #201, .T. ) ;
#10 = APPROVAL_ROLE ( '' ) ;
#11 = CARTESIAN_POINT ( 'NONE',  ( 0.000000000000000000, 0.000000000000000000, 0.000000000000000000 ) ) ;
#12 = AXIS2_PLACEMENT_3D ( 'NONE', #95, #186, #72 ) ;
#13 = APPROVAL_DATE_TIME ( #114, #55 ) ;
#14 = ORIENTED_EDGE ( 'NONE', *, *, #25, .F. ) ;
#15 = CC_DESIGN_SECURITY_CLASSIFICATION ( #73, ( #6 ) ) ;
#16 = LOCAL_TIME ( 11, 35, 39.00000000000000000, #145 ) ;
#17 = AXIS2_PLACEMENT_3D ( 'NONE', #159, #222, #8 ) ;
#18 = APPROVAL_ROLE ( '' ) ;
#19 = ORIENTED_EDGE ( 'NONE', *, *, #83, .F. ) ;
#20 = FACE_OUTER_BOUND ( 'NONE', #190, .T. ) ;
#21 = FACE_OUTER_BOUND ( 'NONE', #90, .T. ) ;
#22 = ORIENTED_EDGE ( 'NONE', *, *, #25, .T. ) ;
#23 = LINE ( 'NONE', #4, #202 ) ;
#24 = CARTESIAN_POINT ( 'NONE',  ( 0.000000000000000000, 4.000000000000000000, 0.000000000000000000 ) ) ;
#25 = EDGE_CURVE ( 'NONE', #157, #84, #223, .T. ) ;
#26 = AXIS2_PLACEMENT_3D ( 'NONE', #24, #48, #122 ) ;
#27 = CARTESIAN_POINT ( 'NONE',  ( 0.000000000000000000, 0.000000000000000000, 0.000000000000000000 ) ) ;
#28 = DIRECTION ( 'NONE',  ( 0.000000000000000000, 0.000000000000000000, 1.000000000000000000 ) ) ;
#29 = DIRECTION ( 'NONE',  ( 0.000000000000000000, 1.000000000000000000, 0.000000000000000000 ) ) ;
#30 = CARTESIAN_POINT ( 'NONE',  ( 0.000000000000000000, 4.000000000000000000, 0.000000000000000000 ) ) ;
#31 = CC_DESIGN_APPROVAL ( #55, ( #73 ) ) ;
#32 = PERSON_AND_ORGANIZATION_ROLE ( 'creator' ) ;
#33 = EDGE_CURVE ( 'NONE', #76, #113, #184, .T. ) ;
#34 = COORDINATED_UNIVERSAL_TIME_OFFSET ( 1, 0, .AHEAD. ) ;
#35 = CALENDAR_DATE ( 2024, 6, 8 ) ;
#36 = CC_DESIGN_PERSON_AND_ORGANIZATION_ASSIGNMENT ( #153, #80, ( #6 ) ) ;
#37 = EDGE_LOOP ( 'NONE', ( #104, #41, #117, #44 ) ) ;
#38 = LOCAL_TIME ( 11, 35, 39.00000000000000000, #57 ) ;
#39 = VECTOR ( 'NONE', #108, 1000.000000000000000 ) ;
#40 = COORDINATED_UNIVERSAL_TIME_OFFSET ( 1, 0, .AHEAD. ) ;
#41 = ORIENTED_EDGE ( 'NONE', *, *, #216, .T. ) ;
#42 = FACE_BOUND ( 'NONE', #5, .T. ) ;
#43 = LINE ( 'NONE', #119, #53 ) ;
#44 = ORIENTED_EDGE ( 'NONE', *, *, #237, .F. ) ;
#45 = DIRECTION ( 'NONE',  ( 0.000000000000000000, 0.000000000000000000, 1.000000000000000000 ) ) ;
#46 = MANIFOLD_SOLID_BREP ( 'Aufsatz-Linear austragen1', #179 ) ;
#47 = EDGE_CURVE ( 'NONE', #78, #81, #23, .T. ) ;
#48 = DIRECTION ( 'NONE',  ( 0.000000000000000000, 1.000000000000000000, 0.000000000000000000 ) ) ;
#49 = APPROVAL_PERSON_ORGANIZATION ( #168, #55, #229 ) ;
#50 = PERSON_AND_ORGANIZATION ( #167, #64 ) ;
#51 = PRODUCT_DEFINITION_SHAPE ( 'NONE', 'NONE',  #116 ) ;
#52 = CARTESIAN_POINT ( 'NONE',  ( 0.000000000000000000, 4.000000000000000000, 0.000000000000000000 ) ) ;
#53 = VECTOR ( 'NONE', #196, 1000.000000000000000 ) ;
#54 = PERSON_AND_ORGANIZATION_ROLE ( 'classification_officer' ) ;
#55 = APPROVAL ( #213, 'UNSPECIFIED' ) ;
#56 = ORIENTED_EDGE ( 'NONE', *, *, #33, .T. ) ;
#57 = COORDINATED_UNIVERSAL_TIME_OFFSET ( 1, 0, .AHEAD. ) ;
#58 = EDGE_LOOP ( 'NONE', ( #248, #220, #132, #14 ) ) ;
#59 = PERSON_AND_ORGANIZATION ( #167, #64 ) ;
#60 = LOCAL_TIME ( 11, 35, 39.00000000000000000, #34 ) ;
#61 = DIRECTION ( 'NONE',  ( -0.000000000000000000, -1.000000000000000000, -0.000000000000000000 ) ) ;
#62 = DIRECTION ( 'NONE',  ( -0.000000000000000000, -1.000000000000000000, -0.000000000000000000 ) ) ;
#63 = PLANE ( 'NONE',  #124 ) ;
#64 = ORGANIZATION ( 'UNSPECIFIED', 'UNSPECIFIED', '' ) ;
#65 = CIRCLE ( 'NONE', #17, 120.5000000000000000 ) ;
#66 = DIRECTION ( 'NONE',  ( 0.000000000000000000, 0.000000000000000000, -1.000000000000000000 ) ) ;
#67 = ADVANCED_FACE ( 'NONE', ( #21, #42 ), #63, .F. ) ;
#68 = ORIENTED_EDGE ( 'NONE', *, *, #227, .T. ) ;
#69 = DIRECTION ( 'NONE',  ( 1.000000000000000000, 0.000000000000000000, 0.000000000000000000 ) ) ;
#70 = FACE_OUTER_BOUND ( 'NONE', #3, .T. ) ;
#71 = LINE ( 'NONE', #204, #39 ) ;
#72 = DIRECTION ( 'NONE',  ( 0.000000000000000000, 0.000000000000000000, 1.000000000000000000 ) ) ;
#73 = SECURITY_CLASSIFICATION ( '', '', #77 ) ;
#74 = CIRCLE ( 'NONE', #240, 120.5000000000000000 ) ;
#75 = APPROVAL ( #146, 'UNSPECIFIED' ) ;
#76 = VERTEX_POINT ( 'NONE', #235 ) ;
#77 = SECURITY_CLASSIFICATION_LEVEL ( 'unclassified' ) ;
#78 = VERTEX_POINT ( 'NONE', #180 ) ;
#79 = AXIS2_PLACEMENT_3D ( 'NONE', #11, #109, #28 ) ;
#80 = PERSON_AND_ORGANIZATION_ROLE ( 'design_supplier' ) ;
#81 = VERTEX_POINT ( 'NONE', #139 ) ;
#82 = ORIENTED_EDGE ( 'NONE', *, *, #83, .T. ) ;
#83 = EDGE_CURVE ( 'NONE', #84, #81, #65, .T. ) ;
#84 = VERTEX_POINT ( 'NONE', #85 ) ;
#85 = CARTESIAN_POINT ( 'NONE',  ( 0.000000000000000000, 0.000000000000000000, -120.5000000000000000 ) ) ;
#86 = APPLICATION_CONTEXT ( 'configuration controlled 3d designs of mechanical parts and assemblies' ) ;
#87 = DIRECTION ( 'NONE',  ( 0.000000000000000000, -0.000000000000000000, 1.000000000000000000 ) ) ;
#88 = AXIS2_PLACEMENT_3D ( 'NONE', #238, #121, #66 ) ;
#89 = CARTESIAN_POINT ( 'NONE',  ( 0.000000000000000000, 0.000000000000000000, 0.000000000000000000 ) ) ;
#90 = EDGE_LOOP ( 'NONE', ( #19, #155 ) ) ;
#91 =( LENGTH_UNIT ( ) NAMED_UNIT ( * ) SI_UNIT ( .MILLI., .METRE. ) );
#92 =( NAMED_UNIT ( * ) PLANE_ANGLE_UNIT ( ) SI_UNIT ( $, .RADIAN. ) );
#93 = AXIS2_PLACEMENT_3D ( 'NONE', #203, #97, #69 ) ;
#94 = UNCERTAINTY_MEASURE_WITH_UNIT (LENGTH_MEASURE( 1.000000000000000082E-05 ), #91, 'distance_accuracy_value', 'NONE');
#95 = CARTESIAN_POINT ( 'NONE',  ( 0.000000000000000000, 4.000000000000000000, 0.000000000000000000 ) ) ;
#96 = ADVANCED_FACE ( 'NONE', ( #217 ), #195, .F. ) ;
#97 = DIRECTION ( 'NONE',  ( 0.000000000000000000, 0.000000000000000000, 1.000000000000000000 ) ) ;
#98 = PERSON_AND_ORGANIZATION_ROLE ( 'creator' ) ;
#99 = CC_DESIGN_PERSON_AND_ORGANIZATION_ASSIGNMENT ( #170, #54, ( #73 ) ) ;
#100 = CYLINDRICAL_SURFACE ( 'NONE', #221, 120.5000000000000000 ) ;
#101 = CIRCLE ( 'NONE', #79, 70.50000000000000000 ) ;
#102 = DIRECTION ( 'NONE',  ( 0.000000000000000000, 1.000000000000000000, 0.000000000000000000 ) ) ;
#103 = CC_DESIGN_DATE_AND_TIME_ASSIGNMENT ( #150, #1, ( #73 ) ) ;
#104 = ORIENTED_EDGE ( 'NONE', *, *, #192, .F. ) ;
#105 = FACE_OUTER_BOUND ( 'NONE', #58, .T. ) ;
#106 = CIRCLE ( 'NONE', #234, 120.5000000000000000 ) ;
#107 = DIRECTION ( 'NONE',  ( 0.000000000000000000, 1.000000000000000000, 0.000000000000000000 ) ) ;
#108 = DIRECTION ( 'NONE',  ( -0.000000000000000000, -1.000000000000000000, -0.000000000000000000 ) ) ;
#109 = DIRECTION ( 'NONE',  ( 0.000000000000000000, 1.000000000000000000, 0.000000000000000000 ) ) ;
#110 = DIRECTION ( 'NONE',  ( 0.000000000000000000, 0.000000000000000000, 1.000000000000000000 ) ) ;
#111 = CC_DESIGN_DATE_AND_TIME_ASSIGNMENT ( #135, #193, ( #116 ) ) ;
#112 = DIRECTION ( 'NONE',  ( -0.000000000000000000, -1.000000000000000000, -0.000000000000000000 ) ) ;
#113 = VERTEX_POINT ( 'NONE', #120 ) ;
#114 = DATE_AND_TIME ( #231, #143 ) ;
#115 = LOCAL_TIME ( 11, 35, 39.00000000000000000, #247 ) ;
#116 = PRODUCT_DEFINITION ( 'UNKNOWN', '', #6, #164 ) ;
#117 = ORIENTED_EDGE ( 'NONE', *, *, #154, .T. ) ;
#118 = CARTESIAN_POINT ( 'NONE',  ( 0.000000000000000000, 0.000000000000000000, 0.000000000000000000 ) ) ;
#119 = CARTESIAN_POINT ( 'NONE',  ( 0.000000000000000000, 4.000000000000000000, -70.50000000000000000 ) ) ;
#120 = CARTESIAN_POINT ( 'NONE',  ( 8.633759933988840567E-15, 4.000000000000000000, 70.50000000000000000 ) ) ;
#121 = DIRECTION ( 'NONE',  ( -0.000000000000000000, -1.000000000000000000, -0.000000000000000000 ) ) ;
#122 = DIRECTION ( 'NONE',  ( 0.000000000000000000, 0.000000000000000000, 1.000000000000000000 ) ) ;
#123 = AXIS2_PLACEMENT_3D ( 'NONE', #205, #246, #110 ) ;
#124 = AXIS2_PLACEMENT_3D ( 'NONE', #89, #107, #87 ) ;
#125 = APPLICATION_PROTOCOL_DEFINITION ( 'international standard', 'config_control_design', 1994, #243 ) ;
#126 = PRODUCT_RELATED_PRODUCT_CATEGORY ( 'detail', '', ( #129 ) ) ;
#127 = DATE_AND_TIME ( #224, #16 ) ;
#128 = CARTESIAN_POINT ( 'NONE',  ( 0.000000000000000000, 4.000000000000000000, 0.000000000000000000 ) ) ;
#129 = PRODUCT ( '3D_R245_139.7_17386170', '3D_R245_139.7_17386170', '', ( #182 ) ) ;
#130 = EDGE_CURVE ( 'NONE', #81, #84, #74, .T. ) ;
#131 = FACE_BOUND ( 'NONE', #152, .T. ) ;
#132 = ORIENTED_EDGE ( 'NONE', *, *, #130, .T. ) ;
#133 = DATE_AND_TIME ( #249, #38 ) ;
#134 = ADVANCED_FACE ( 'NONE', ( #20 ), #100, .T. ) ;
#135 = DATE_AND_TIME ( #210, #115 ) ;
#136 = AXIS2_PLACEMENT_3D ( 'NONE', #52, #163, #225 ) ;
#137 = DIRECTION ( 'NONE',  ( -0.000000000000000000, -1.000000000000000000, -0.000000000000000000 ) ) ;
#138 = DIRECTION ( 'NONE',  ( 0.000000000000000000, 0.000000000000000000, -1.000000000000000000 ) ) ;
#139 = CARTESIAN_POINT ( 'NONE',  ( 1.475699392972560429E-14, 0.000000000000000000, 120.5000000000000000 ) ) ;
#140 = ORIENTED_EDGE ( 'NONE', *, *, #33, .F. ) ;
#141 = DIRECTION ( 'NONE',  ( 0.000000000000000000, 0.000000000000000000, -1.000000000000000000 ) ) ;
#142 = CC_DESIGN_PERSON_AND_ORGANIZATION_ASSIGNMENT ( #59, #32, ( #6 ) ) ;
#143 = LOCAL_TIME ( 11, 35, 39.00000000000000000, #40 ) ;
#144 = PERSON_AND_ORGANIZATION_ROLE ( 'design_owner' ) ;
#145 = COORDINATED_UNIVERSAL_TIME_OFFSET ( 1, 0, .AHEAD. ) ;
#146 = APPROVAL_STATUS ( 'not_yet_approved' ) ;
#147 = DIRECTION ( 'NONE',  ( 0.000000000000000000, 1.000000000000000000, 0.000000000000000000 ) ) ;
#148 = APPROVAL_PERSON_ORGANIZATION ( #189, #188, #18 ) ;
#149 = DIRECTION ( 'NONE',  ( 0.000000000000000000, 0.000000000000000000, 1.000000000000000000 ) ) ;
#150 = DATE_AND_TIME ( #35, #60 ) ;
#151 = SHAPE_DEFINITION_REPRESENTATION ( #51, #219 ) ;
#152 = EDGE_LOOP ( 'NONE', ( #140, #161 ) ) ;
#153 = PERSON_AND_ORGANIZATION ( #167, #64 ) ;
#154 = EDGE_CURVE ( 'NONE', #76, #169, #43, .T. ) ;
#155 = ORIENTED_EDGE ( 'NONE', *, *, #130, .F. ) ;
#156 =( GEOMETRIC_REPRESENTATION_CONTEXT ( 3 ) GLOBAL_UNCERTAINTY_ASSIGNED_CONTEXT ( ( #94 ) ) GLOBAL_UNIT_ASSIGNED_CONTEXT ( ( #91, #92, #245 ) ) REPRESENTATION_CONTEXT ( 'NONE', 'WORKASPACE' ) );
#157 = VERTEX_POINT ( 'NONE', #174 ) ;
#158 = FACE_OUTER_BOUND ( 'NONE', #198, .T. ) ;
#159 = CARTESIAN_POINT ( 'NONE',  ( 0.000000000000000000, 0.000000000000000000, 0.000000000000000000 ) ) ;
#160 = CC_DESIGN_APPROVAL ( #75, ( #116 ) ) ;
#161 = ORIENTED_EDGE ( 'NONE', *, *, #216, .F. ) ;
#162 = CARTESIAN_POINT ( 'NONE',  ( 0.000000000000000000, 4.000000000000000000, -120.5000000000000000 ) ) ;
#163 = DIRECTION ( 'NONE',  ( 0.000000000000000000, 1.000000000000000000, 0.000000000000000000 ) ) ;
#164 = DESIGN_CONTEXT ( 'detailed design', #243, 'design' ) ;
#165 = CARTESIAN_POINT ( 'NONE',  ( 0.000000000000000000, 0.000000000000000000, -70.50000000000000000 ) ) ;
#166 = ADVANCED_FACE ( 'NONE', ( #158 ), #236, .F. ) ;
#167 = PERSON ( 'UNSPECIFIED', 'UNSPECIFIED', 'UNSPECIFIED', ('UNSPECIFIED'), ('UNSPECIFIED'), ('UNSPECIFIED') ) ;
#168 = PERSON_AND_ORGANIZATION ( #167, #64 ) ;
#169 = VERTEX_POINT ( 'NONE', #165 ) ;
#170 = PERSON_AND_ORGANIZATION ( #167, #64 ) ;
#171 = VECTOR ( 'NONE', #176, 1000.000000000000000 ) ;
#172 = ORIENTED_EDGE ( 'NONE', *, *, #227, .F. ) ;
#173 = CARTESIAN_POINT ( 'NONE',  ( 0.000000000000000000, 4.000000000000000000, 0.000000000000000000 ) ) ;
#174 = CARTESIAN_POINT ( 'NONE',  ( 0.000000000000000000, 4.000000000000000000, -120.5000000000000000 ) ) ;
#175 = ORIENTED_EDGE ( 'NONE', *, *, #237, .T. ) ;
#176 = DIRECTION ( 'NONE',  ( -0.000000000000000000, -1.000000000000000000, -0.000000000000000000 ) ) ;
#177 = EDGE_CURVE ( 'NONE', #157, #78, #106, .T. ) ;
#178 = CC_DESIGN_APPROVAL ( #188, ( #6 ) ) ;
#179 = CLOSED_SHELL ( 'NONE', ( #166, #9, #199, #67, #134, #96 ) ) ;
#180 = CARTESIAN_POINT ( 'NONE',  ( 1.475699392972560429E-14, 4.000000000000000000, 120.5000000000000000 ) ) ;
#181 = PERSON_AND_ORGANIZATION ( #167, #64 ) ;
#182 = MECHANICAL_CONTEXT ( 'NONE', #86, 'mechanical' ) ;
#183 = CIRCLE ( 'NONE', #12, 70.50000000000000000 ) ;
#184 = CIRCLE ( 'NONE', #26, 70.50000000000000000 ) ;
#185 = CARTESIAN_POINT ( 'NONE',  ( 8.633759933988840567E-15, 0.000000000000000000, 70.50000000000000000 ) ) ;
#186 = DIRECTION ( 'NONE',  ( 0.000000000000000000, 1.000000000000000000, 0.000000000000000000 ) ) ;
#187 = PLANE ( 'NONE',  #136 ) ;
#188 = APPROVAL ( #212, 'UNSPECIFIED' ) ;
#189 = PERSON_AND_ORGANIZATION ( #167, #64 ) ;
#190 = EDGE_LOOP ( 'NONE', ( #209, #194, #22, #82 ) ) ;
#191 = ORIENTED_EDGE ( 'NONE', *, *, #154, .F. ) ;
#192 = EDGE_CURVE ( 'NONE', #113, #241, #71, .T. ) ;
#193 = DATE_TIME_ROLE ( 'creation_date' ) ;
#194 = ORIENTED_EDGE ( 'NONE', *, *, #177, .F. ) ;
#195 = CYLINDRICAL_SURFACE ( 'NONE', #88, 70.50000000000000000 ) ;
#196 = DIRECTION ( 'NONE',  ( -0.000000000000000000, -1.000000000000000000, -0.000000000000000000 ) ) ;
#197 = AXIS2_PLACEMENT_3D ( 'NONE', #27, #29, #149 ) ;
#198 = EDGE_LOOP ( 'NONE', ( #56, #218, #172, #191 ) ) ;
#199 = ADVANCED_FACE ( 'NONE', ( #70, #131 ), #187, .T. ) ;
#200 = CARTESIAN_POINT ( 'NONE',  ( 0.000000000000000000, 4.000000000000000000, 0.000000000000000000 ) ) ;
#201 = CYLINDRICAL_SURFACE ( 'NONE', #7, 120.5000000000000000 ) ;
#202 = VECTOR ( 'NONE', #137, 1000.000000000000000 ) ;
#203 = CARTESIAN_POINT ( 'NONE',  ( 0.000000000000000000, 0.000000000000000000, 0.000000000000000000 ) ) ;
#204 = CARTESIAN_POINT ( 'NONE',  ( 8.633759933988840567E-15, 4.000000000000000000, 70.50000000000000000 ) ) ;
#205 = CARTESIAN_POINT ( 'NONE',  ( 0.000000000000000000, 4.000000000000000000, 0.000000000000000000 ) ) ;
#206 = APPLICATION_PROTOCOL_DEFINITION ( 'international standard', 'config_control_design', 1994, #86 ) ;
#207 = EDGE_CURVE ( 'NONE', #78, #157, #214, .T. ) ;
#208 = APPROVAL_DATE_TIME ( #133, #188 ) ;
#209 = ORIENTED_EDGE ( 'NONE', *, *, #47, .F. ) ;
#210 = CALENDAR_DATE ( 2024, 6, 8 ) ;
#211 = CC_DESIGN_PERSON_AND_ORGANIZATION_ASSIGNMENT ( #242, #144, ( #129 ) ) ;
#212 = APPROVAL_STATUS ( 'not_yet_approved' ) ;
#213 = APPROVAL_STATUS ( 'not_yet_approved' ) ;
#214 = CIRCLE ( 'NONE', #123, 120.5000000000000000 ) ;
#215 = AXIS2_PLACEMENT_3D ( 'NONE', #30, #112, #226 ) ;
#216 = EDGE_CURVE ( 'NONE', #113, #76, #183, .T. ) ;
#217 = FACE_OUTER_BOUND ( 'NONE', #37, .T. ) ;
#218 = ORIENTED_EDGE ( 'NONE', *, *, #192, .T. ) ;
#219 = ADVANCED_BREP_SHAPE_REPRESENTATION ( '3D_R245_139.7_17386170', ( #46, #93 ), #156 ) ;
#220 = ORIENTED_EDGE ( 'NONE', *, *, #47, .T. ) ;
#221 = AXIS2_PLACEMENT_3D ( 'NONE', #173, #62, #138 ) ;
#222 = DIRECTION ( 'NONE',  ( 0.000000000000000000, 1.000000000000000000, 0.000000000000000000 ) ) ;
#223 = LINE ( 'NONE', #162, #171 ) ;
#224 = CALENDAR_DATE ( 2024, 6, 8 ) ;
#225 = DIRECTION ( 'NONE',  ( 0.000000000000000000, -0.000000000000000000, 1.000000000000000000 ) ) ;
#226 = DIRECTION ( 'NONE',  ( 0.000000000000000000, 0.000000000000000000, -1.000000000000000000 ) ) ;
#227 = EDGE_CURVE ( 'NONE', #169, #241, #101, .T. ) ;
#228 = DIRECTION ( 'NONE',  ( 0.000000000000000000, 0.000000000000000000, 1.000000000000000000 ) ) ;
#229 = APPROVAL_ROLE ( '' ) ;
#230 = CIRCLE ( 'NONE', #197, 70.50000000000000000 ) ;
#231 = CALENDAR_DATE ( 2024, 6, 8 ) ;
#232 = CC_DESIGN_PERSON_AND_ORGANIZATION_ASSIGNMENT ( #50, #98, ( #116 ) ) ;
#233 = ORIENTED_EDGE ( 'NONE', *, *, #207, .T. ) ;
#234 = AXIS2_PLACEMENT_3D ( 'NONE', #128, #147, #228 ) ;
#235 = CARTESIAN_POINT ( 'NONE',  ( 0.000000000000000000, 4.000000000000000000, -70.50000000000000000 ) ) ;
#236 = CYLINDRICAL_SURFACE ( 'NONE', #215, 70.50000000000000000 ) ;
#237 = EDGE_CURVE ( 'NONE', #241, #169, #230, .T. ) ;
#238 = CARTESIAN_POINT ( 'NONE',  ( 0.000000000000000000, 4.000000000000000000, 0.000000000000000000 ) ) ;
#239 = APPROVAL_PERSON_ORGANIZATION ( #181, #75, #10 ) ;
#240 = AXIS2_PLACEMENT_3D ( 'NONE', #118, #102, #45 ) ;
#241 = VERTEX_POINT ( 'NONE', #185 ) ;
#242 = PERSON_AND_ORGANIZATION ( #167, #64 ) ;
#243 = APPLICATION_CONTEXT ( 'configuration controlled 3d designs of mechanical parts and assemblies' ) ;
#244 = APPROVAL_DATE_TIME ( #127, #75 ) ;
#245 =( NAMED_UNIT ( * ) SI_UNIT ( $, .STERADIAN. ) SOLID_ANGLE_UNIT ( ) );
#246 = DIRECTION ( 'NONE',  ( 0.000000000000000000, 1.000000000000000000, 0.000000000000000000 ) ) ;
#247 = COORDINATED_UNIVERSAL_TIME_OFFSET ( 1, 0, .AHEAD. ) ;
#248 = ORIENTED_EDGE ( 'NONE', *, *, #207, .F. ) ;
#249 = CALENDAR_DATE ( 2024, 6, 8 ) ;
ENDSEC;
END-ISO-10303-21;
