ISO-10303-21;
HEADER;
FILE_DESCRIPTION (( 'STEP AP203' ),
    '1' );
FILE_NAME ('OT214-300-304x2_OSTP.step',
    '2021-02-10T12:47:48',
    ( '' ),
    ( '' ),
    'SwSTEP 2.0',
    'SolidWorks 2014',
    '' );
FILE_SCHEMA (( 'CONFIG_CONTROL_DESIGN' ));
ENDSEC;

DATA;
#1 = APPROVAL_STATUS ( 'not_yet_approved' ) ;
#2 = ADVANCED_FACE ( 'NONE', ( #69 ), #64, .F. ) ;
#3 = DIRECTION ( 'NONE',  ( 0.0000000000000000000, 0.0000000000000000000, 1.000000000000000000 ) ) ;
#4 = APPROVAL ( #238, 'UNSPECIFIED' ) ;
#5 = SHAPE_DEFINITION_REPRESENTATION ( #179, #83 ) ;
#6 = DIRECTION ( 'NONE',  ( 1.000000000000000000, 0.0000000000000000000, 0.0000000000000000000 ) ) ;
#7 = CARTESIAN_POINT ( 'NONE',  ( 0.0000000000000000000, 0.0000000000000000000, 0.0000000000000000000 ) ) ;
#8 = TOROIDAL_SURFACE ( 'NONE', #46, 400.0000000000000000, 152.0000000000000000 ) ;
#9 = CIRCLE ( 'NONE', #186, 550.0000000000000000 ) ;
#10 = ORIENTED_EDGE ( 'NONE', *, *, #40, .T. ) ;
#11 = DIRECTION ( 'NONE',  ( 0.0000000000000000000, 0.0000000000000000000, 1.000000000000000000 ) ) ;
#12 = AXIS2_PLACEMENT_3D ( 'NONE', #79, #120, #119 ) ;
#13 = CIRCLE ( 'NONE', #191, 150.0000000000000000 ) ;
#14 = DIRECTION ( 'NONE',  ( 0.0000000000000000000, 1.000000000000000000, 0.0000000000000000000 ) ) ;
#15 = EDGE_LOOP ( 'NONE', ( #215, #161, #214, #117 ) ) ;
#16 = FACE_OUTER_BOUND ( 'NONE', #24, .T. ) ;
#17 = CALENDAR_DATE ( 2021, 10, 2 ) ;
#18 = CARTESIAN_POINT ( 'NONE',  ( 400.0000000000000000, 250.0000000000000000, -1.836970198721029400E-014 ) ) ;
#19 = CARTESIAN_POINT ( 'NONE',  ( 399.9999999999999400, 400.0000000000000000, 0.0000000000000000000 ) ) ;
#20 = PLANE ( 'NONE',  #73 ) ;
#21 = EDGE_CURVE ( 'NONE', #39, #84, #13, .T. ) ;
#22 = APPROVAL_DATE_TIME ( #94, #4 ) ;
#23 = PLANE ( 'NONE',  #241 ) ;
#24 = EDGE_LOOP ( 'NONE', ( #143, #182 ) ) ;
#25 = CC_DESIGN_APPROVAL ( #4, ( #225 ) ) ;
#26 = DIRECTION ( 'NONE',  ( 1.000000000000000000, 6.123233995736766000E-017, -0.0000000000000000000 ) ) ;
#27 = PERSON_AND_ORGANIZATION_ROLE ( 'classification_officer' ) ;
#28 = CARTESIAN_POINT ( 'NONE',  ( 400.0000000000000000, 0.0000000000000000000, -1.836970198721029700E-014 ) ) ;
#29 =( GEOMETRIC_REPRESENTATION_CONTEXT ( 3 ) GLOBAL_UNCERTAINTY_ASSIGNED_CONTEXT ( ( #188 ) ) GLOBAL_UNIT_ASSIGNED_CONTEXT ( ( #212, #50, #168 ) ) REPRESENTATION_CONTEXT ( 'NONE', 'WORKASPACE' ) );
#30 = APPROVAL_STATUS ( 'not_yet_approved' ) ;
#31 = ORIENTED_EDGE ( 'NONE', *, *, #21, .T. ) ;
#32 = CLOSED_SHELL ( 'NONE', ( #173, #111, #194, #147, #33, #2 ) ) ;
#33 = ADVANCED_FACE ( 'NONE', ( #221, #245 ), #20, .F. ) ;
#34 = DIRECTION ( 'NONE',  ( 0.0000000000000000000, 0.0000000000000000000, 1.000000000000000000 ) ) ;
#35 = DIRECTION ( 'NONE',  ( 0.0000000000000000000, 0.0000000000000000000, 1.000000000000000000 ) ) ;
#36 = COORDINATED_UNIVERSAL_TIME_OFFSET ( 1, 0, .AHEAD. ) ;
#37 = AXIS2_PLACEMENT_3D ( 'NONE', #103, #144, #110 ) ;
#38 = CIRCLE ( 'NONE', #153, 150.0000000000000000 ) ;
#39 = VERTEX_POINT ( 'NONE', #67 ) ;
#40 = EDGE_CURVE ( 'NONE', #42, #71, #99, .T. ) ;
#41 = CC_DESIGN_SECURITY_CLASSIFICATION ( #225, ( #165 ) ) ;
#42 = VERTEX_POINT ( 'NONE', #218 ) ;
#43 = ORGANIZATION ( 'UNSPECIFIED', 'UNSPECIFIED', '' ) ;
#44 = CARTESIAN_POINT ( 'NONE',  ( 0.0000000000000000000, 0.0000000000000000000, 0.0000000000000000000 ) ) ;
#45 = CARTESIAN_POINT ( 'NONE',  ( 400.0000000000000000, 400.0000000000000000, 0.0000000000000000000 ) ) ;
#46 = AXIS2_PLACEMENT_3D ( 'NONE', #233, #95, #60 ) ;
#47 = PERSON_AND_ORGANIZATION ( #62, #43 ) ;
#48 = EDGE_LOOP ( 'NONE', ( #213, #184 ) ) ;
#49 = FACE_OUTER_BOUND ( 'NONE', #15, .T. ) ;
#50 =( NAMED_UNIT ( * ) PLANE_ANGLE_UNIT ( ) SI_UNIT ( $, .RADIAN. ) );
#51 = CARTESIAN_POINT ( 'NONE',  ( 399.9999999999999400, 400.0000000000000000, 0.0000000000000000000 ) ) ;
#52 = APPROVAL_PERSON_ORGANIZATION ( #131, #135, #174 ) ;
#53 = EDGE_CURVE ( 'NONE', #232, #71, #203, .T. ) ;
#54 = PRODUCT_RELATED_PRODUCT_CATEGORY ( 'detail', '', ( #80 ) ) ;
#55 = FACE_OUTER_BOUND ( 'NONE', #58, .T. ) ;
#56 = CARTESIAN_POINT ( 'NONE',  ( 400.0000000000000000, 0.0000000000000000000, -1.861463134703976800E-014 ) ) ;
#57 = TOROIDAL_SURFACE ( 'NONE', #172, 400.0000000000000000, 152.0000000000000000 ) ;
#58 = EDGE_LOOP ( 'NONE', ( #253, #185, #230, #229 ) ) ;
#59 = CIRCLE ( 'NONE', #139, 250.0000000000000000 ) ;
#60 = DIRECTION ( 'NONE',  ( 1.000000000000000000, 0.0000000000000000000, 0.0000000000000000000 ) ) ;
#61 = DIRECTION ( 'NONE',  ( 0.0000000000000000000, 0.0000000000000000000, 1.000000000000000000 ) ) ;
#62 = PERSON ( 'UNSPECIFIED', 'UNSPECIFIED', 'UNSPECIFIED', ('UNSPECIFIED'), ('UNSPECIFIED'), ('UNSPECIFIED') ) ;
#63 = AXIS2_PLACEMENT_3D ( 'NONE', #223, #65, #3 ) ;
#64 = TOROIDAL_SURFACE ( 'NONE', #37, 400.0000000000000000, 150.0000000000000000 ) ;
#65 = DIRECTION ( 'NONE',  ( 0.0000000000000000000, 1.000000000000000000, 0.0000000000000000000 ) ) ;
#66 = DIRECTION ( 'NONE',  ( 1.000000000000000000, 6.123233995736766000E-017, 0.0000000000000000000 ) ) ;
#67 = CARTESIAN_POINT ( 'NONE',  ( -150.0000000000000300, 0.0000000000000000000, 0.0000000000000000000 ) ) ;
#68 = EDGE_CURVE ( 'NONE', #232, #102, #248, .T. ) ;
#69 = FACE_OUTER_BOUND ( 'NONE', #125, .T. ) ;
#70 = MANIFOLD_SOLID_BREP ( 'cut-body', #32 ) ;
#71 = VERTEX_POINT ( 'NONE', #243 ) ;
#72 = DIRECTION ( 'NONE',  ( 0.0000000000000000000, 1.000000000000000000, 0.0000000000000000000 ) ) ;
#73 = AXIS2_PLACEMENT_3D ( 'NONE', #7, #178, #112 ) ;
#74 = CALENDAR_DATE ( 2021, 10, 2 ) ;
#75 = CIRCLE ( 'NONE', #251, 552.0000000000000000 ) ;
#76 = EDGE_CURVE ( 'NONE', #71, #42, #239, .T. ) ;
#77 = CALENDAR_DATE ( 2021, 10, 2 ) ;
#78 = PERSON_AND_ORGANIZATION_ROLE ( 'design_owner' ) ;
#79 = CARTESIAN_POINT ( 'NONE',  ( 400.0000000000000000, 0.0000000000000000000, 0.0000000000000000000 ) ) ;
#80 = PRODUCT ( 'OT214-300-304x2_OSTP', 'OT214-300-304x2_OSTP', '', ( #201 ) ) ;
#81 = AXIS2_PLACEMENT_3D ( 'NONE', #56, #34, #177 ) ;
#82 = APPROVAL_ROLE ( '' ) ;
#83 = ADVANCED_BREP_SHAPE_REPRESENTATION ( 'OT214-300-304x2_OSTP', ( #70, #92 ), #29 ) ;
#84 = VERTEX_POINT ( 'NONE', #88 ) ;
#85 = LOCAL_TIME ( 13, 47, 48.00000000000000000, #36 ) ;
#86 = VERTEX_POINT ( 'NONE', #98 ) ;
#87 = EDGE_CURVE ( 'NONE', #228, #86, #169, .T. ) ;
#88 = CARTESIAN_POINT ( 'NONE',  ( 150.0000000000000000, 0.0000000000000000000, -1.836970198721029400E-014 ) ) ;
#89 = ORIENTED_EDGE ( 'NONE', *, *, #157, .T. ) ;
#90 = CARTESIAN_POINT ( 'NONE',  ( 399.9999999999998900, 552.0000000000000000, 0.0000000000000000000 ) ) ;
#91 = FACE_BOUND ( 'NONE', #48, .T. ) ;
#92 = AXIS2_PLACEMENT_3D ( 'NONE', #44, #250, #138 ) ;
#93 = PERSON_AND_ORGANIZATION ( #62, #43 ) ;
#94 = DATE_AND_TIME ( #142, #115 ) ;
#95 = DIRECTION ( 'NONE',  ( 0.0000000000000000000, 0.0000000000000000000, 1.000000000000000000 ) ) ;
#96 = AXIS2_PLACEMENT_3D ( 'NONE', #51, #158, #133 ) ;
#97 = CARTESIAN_POINT ( 'NONE',  ( 399.9999999999999400, 248.0000000000000300, -1.861463134703976800E-014 ) ) ;
#98 = CARTESIAN_POINT ( 'NONE',  ( 400.0000000000000000, 550.0000000000000000, 0.0000000000000000000 ) ) ;
#99 = CIRCLE ( 'NONE', #63, 152.0000000000000000 ) ;
#100 = DIRECTION ( 'NONE',  ( 1.000000000000000000, 0.0000000000000000000, 0.0000000000000000000 ) ) ;
#101 = EDGE_CURVE ( 'NONE', #228, #84, #59, .T. ) ;
#102 = VERTEX_POINT ( 'NONE', #90 ) ;
#103 = CARTESIAN_POINT ( 'NONE',  ( 400.0000000000000000, 0.0000000000000000000, 0.0000000000000000000 ) ) ;
#104 = COORDINATED_UNIVERSAL_TIME_OFFSET ( 1, 0, .AHEAD. ) ;
#105 = APPROVAL_ROLE ( '' ) ;
#106 = COORDINATED_UNIVERSAL_TIME_OFFSET ( 1, 0, .AHEAD. ) ;
#107 = ORIENTED_EDGE ( 'NONE', *, *, #101, .T. ) ;
#108 = PERSON_AND_ORGANIZATION_ROLE ( 'design_supplier' ) ;
#109 = CC_DESIGN_PERSON_AND_ORGANIZATION_ASSIGNMENT ( #159, #78, ( #80 ) ) ;
#110 = DIRECTION ( 'NONE',  ( 1.000000000000000000, 0.0000000000000000000, 0.0000000000000000000 ) ) ;
#111 = ADVANCED_FACE ( 'NONE', ( #227 ), #57, .T. ) ;
#112 = DIRECTION ( 'NONE',  ( 0.0000000000000000000, -0.0000000000000000000, 1.000000000000000000 ) ) ;
#113 = COORDINATED_UNIVERSAL_TIME_OFFSET ( 1, 0, .AHEAD. ) ;
#114 = AXIS2_PLACEMENT_3D ( 'NONE', #122, #167, #11 ) ;
#115 = LOCAL_TIME ( 13, 47, 48.00000000000000000, #252 ) ;
#116 = EDGE_CURVE ( 'NONE', #84, #39, #38, .T. ) ;
#117 = ORIENTED_EDGE ( 'NONE', *, *, #76, .T. ) ;
#118 = CARTESIAN_POINT ( 'NONE',  ( 400.0000000000000000, 0.0000000000000000000, 0.0000000000000000000 ) ) ;
#119 = DIRECTION ( 'NONE',  ( 1.000000000000000000, 0.0000000000000000000, 0.0000000000000000000 ) ) ;
#120 = DIRECTION ( 'NONE',  ( 0.0000000000000000000, 0.0000000000000000000, 1.000000000000000000 ) ) ;
#121 = PRODUCT_DEFINITION ( 'UNKNOWN', '', #165, #137 ) ;
#122 = CARTESIAN_POINT ( 'NONE',  ( 0.0000000000000000000, 0.0000000000000000000, 0.0000000000000000000 ) ) ;
#123 = APPLICATION_CONTEXT ( 'configuration controlled 3d designs of mechanical parts and assemblies' ) ;
#124 = DATE_AND_TIME ( #77, #220 ) ;
#125 = EDGE_LOOP ( 'NONE', ( #162, #89, #107, #166 ) ) ;
#126 = AXIS2_PLACEMENT_3D ( 'NONE', #208, #206, #151 ) ;
#127 = DATE_TIME_ROLE ( 'creation_date' ) ;
#128 = ORIENTED_EDGE ( 'NONE', *, *, #141, .F. ) ;
#129 = DATE_AND_TIME ( #74, #156 ) ;
#130 = CALENDAR_DATE ( 2021, 10, 2 ) ;
#131 = PERSON_AND_ORGANIZATION ( #62, #43 ) ;
#132 = EDGE_CURVE ( 'NONE', #86, #39, #9, .T. ) ;
#133 = DIRECTION ( 'NONE',  ( 0.0000000000000000000, 0.0000000000000000000, 1.000000000000000000 ) ) ;
#134 = PERSON_AND_ORGANIZATION ( #62, #43 ) ;
#135 = APPROVAL ( #30, 'UNSPECIFIED' ) ;
#136 = EDGE_LOOP ( 'NONE', ( #155, #190 ) ) ;
#137 = DESIGN_CONTEXT ( 'detailed design', #123, 'design' ) ;
#138 = DIRECTION ( 'NONE',  ( 1.000000000000000000, 0.0000000000000000000, 0.0000000000000000000 ) ) ;
#139 = AXIS2_PLACEMENT_3D ( 'NONE', #28, #226, #192 ) ;
#140 = ORIENTED_EDGE ( 'NONE', *, *, #116, .T. ) ;
#141 = EDGE_CURVE ( 'NONE', #102, #232, #193, .T. ) ;
#142 = CALENDAR_DATE ( 2021, 10, 2 ) ;
#143 = ORIENTED_EDGE ( 'NONE', *, *, #68, .T. ) ;
#144 = DIRECTION ( 'NONE',  ( 0.0000000000000000000, 0.0000000000000000000, 1.000000000000000000 ) ) ;
#145 = CARTESIAN_POINT ( 'NONE',  ( 400.0000000000000000, 0.0000000000000000000, 0.0000000000000000000 ) ) ;
#146 = DATE_TIME_ROLE ( 'classification_date' ) ;
#147 = ADVANCED_FACE ( 'NONE', ( #91, #16 ), #23, .T. ) ;
#148 = APPLICATION_PROTOCOL_DEFINITION ( 'international standard', 'config_control_design', 1994, #123 ) ;
#149 = CC_DESIGN_APPROVAL ( #135, ( #121 ) ) ;
#150 = APPROVAL_PERSON_ORGANIZATION ( #134, #4, #105 ) ;
#151 = DIRECTION ( 'NONE',  ( 0.0000000000000000000, 1.000000000000000000, 0.0000000000000000000 ) ) ;
#152 = DIRECTION ( 'NONE',  ( 0.0000000000000000000, 1.000000000000000000, 0.0000000000000000000 ) ) ;
#153 = AXIS2_PLACEMENT_3D ( 'NONE', #205, #72, #196 ) ;
#154 = APPROVAL_DATE_TIME ( #235, #135 ) ;
#155 = ORIENTED_EDGE ( 'NONE', *, *, #76, .F. ) ;
#156 = LOCAL_TIME ( 13, 47, 48.00000000000000000, #104 ) ;
#157 = EDGE_CURVE ( 'NONE', #86, #228, #175, .T. ) ;
#158 = DIRECTION ( 'NONE',  ( 1.000000000000000000, 6.123233995736766000E-017, 0.0000000000000000000 ) ) ;
#159 = PERSON_AND_ORGANIZATION ( #62, #43 ) ;
#160 = DIRECTION ( 'NONE',  ( 0.0000000000000000000, 0.0000000000000000000, 1.000000000000000000 ) ) ;
#161 = ORIENTED_EDGE ( 'NONE', *, *, #68, .F. ) ;
#162 = ORIENTED_EDGE ( 'NONE', *, *, #132, .F. ) ;
#163 = DIRECTION ( 'NONE',  ( 0.0000000000000000000, 0.0000000000000000000, 1.000000000000000000 ) ) ;
#164 = CC_DESIGN_PERSON_AND_ORGANIZATION_ASSIGNMENT ( #204, #242, ( #121 ) ) ;
#165 = PRODUCT_DEFINITION_FORMATION_WITH_SPECIFIED_SOURCE ( 'ANY', '', #80, .NOT_KNOWN. ) ;
#166 = ORIENTED_EDGE ( 'NONE', *, *, #21, .F. ) ;
#167 = DIRECTION ( 'NONE',  ( 0.0000000000000000000, 1.000000000000000000, 0.0000000000000000000 ) ) ;
#168 =( NAMED_UNIT ( * ) SI_UNIT ( $, .STERADIAN. ) SOLID_ANGLE_UNIT ( ) );
#169 = CIRCLE ( 'NONE', #126, 150.0000000000000300 ) ;
#170 = SECURITY_CLASSIFICATION_LEVEL ( 'unclassified' ) ;
#171 = LOCAL_TIME ( 13, 47, 48.00000000000000000, #106 ) ;
#172 = AXIS2_PLACEMENT_3D ( 'NONE', #145, #244, #6 ) ;
#173 = ADVANCED_FACE ( 'NONE', ( #55 ), #224, .F. ) ;
#174 = APPROVAL_ROLE ( '' ) ;
#175 = CIRCLE ( 'NONE', #216, 150.0000000000000300 ) ;
#176 = EDGE_CURVE ( 'NONE', #102, #42, #75, .T. ) ;
#177 = DIRECTION ( 'NONE',  ( 1.000000000000000000, 0.0000000000000000000, 0.0000000000000000000 ) ) ;
#178 = DIRECTION ( 'NONE',  ( 0.0000000000000000000, 1.000000000000000000, 0.0000000000000000000 ) ) ;
#179 = PRODUCT_DEFINITION_SHAPE ( 'NONE', 'NONE',  #121 ) ;
#180 = CC_DESIGN_DATE_AND_TIME_ASSIGNMENT ( #210, #127, ( #121 ) ) ;
#181 = APPROVAL ( #1, 'UNSPECIFIED' ) ;
#182 = ORIENTED_EDGE ( 'NONE', *, *, #141, .T. ) ;
#183 = APPLICATION_PROTOCOL_DEFINITION ( 'international standard', 'config_control_design', 1994, #231 ) ;
#184 = ORIENTED_EDGE ( 'NONE', *, *, #157, .F. ) ;
#185 = ORIENTED_EDGE ( 'NONE', *, *, #132, .T. ) ;
#186 = AXIS2_PLACEMENT_3D ( 'NONE', #236, #163, #100 ) ;
#187 = CARTESIAN_POINT ( 'NONE',  ( 399.9999999999999400, 400.0000000000000000, 0.0000000000000000000 ) ) ;
#188 = UNCERTAINTY_MEASURE_WITH_UNIT (LENGTH_MEASURE( 1.000000000000000100E-005 ), #212, 'distance_accuracy_value', 'NONE');
#189 = APPROVAL_DATE_TIME ( #129, #181 ) ;
#190 = ORIENTED_EDGE ( 'NONE', *, *, #40, .F. ) ;
#191 = AXIS2_PLACEMENT_3D ( 'NONE', #198, #152, #35 ) ;
#192 = DIRECTION ( 'NONE',  ( 1.000000000000000000, 0.0000000000000000000, 0.0000000000000000000 ) ) ;
#193 = CIRCLE ( 'NONE', #199, 152.0000000000000000 ) ;
#194 = ADVANCED_FACE ( 'NONE', ( #49 ), #8, .T. ) ;
#195 = CC_DESIGN_APPROVAL ( #181, ( #165 ) ) ;
#196 = DIRECTION ( 'NONE',  ( 0.0000000000000000000, 0.0000000000000000000, 1.000000000000000000 ) ) ;
#197 = EDGE_LOOP ( 'NONE', ( #140, #31 ) ) ;
#198 = CARTESIAN_POINT ( 'NONE',  ( 0.0000000000000000000, 0.0000000000000000000, 0.0000000000000000000 ) ) ;
#199 = AXIS2_PLACEMENT_3D ( 'NONE', #19, #66, #160 ) ;
#200 = ORIENTED_EDGE ( 'NONE', *, *, #176, .T. ) ;
#201 = MECHANICAL_CONTEXT ( 'NONE', #231, 'mechanical' ) ;
#202 = CC_DESIGN_PERSON_AND_ORGANIZATION_ASSIGNMENT ( #234, #222, ( #165 ) ) ;
#203 = CIRCLE ( 'NONE', #81, 248.0000000000000000 ) ;
#204 = PERSON_AND_ORGANIZATION ( #62, #43 ) ;
#205 = CARTESIAN_POINT ( 'NONE',  ( 0.0000000000000000000, 0.0000000000000000000, 0.0000000000000000000 ) ) ;
#206 = DIRECTION ( 'NONE',  ( 1.000000000000000000, 6.123233995736766000E-017, 0.0000000000000000000 ) ) ;
#207 = ORIENTED_EDGE ( 'NONE', *, *, #53, .F. ) ;
#208 = CARTESIAN_POINT ( 'NONE',  ( 400.0000000000000000, 400.0000000000000000, 0.0000000000000000000 ) ) ;
#209 = CC_DESIGN_PERSON_AND_ORGANIZATION_ASSIGNMENT ( #47, #108, ( #165 ) ) ;
#210 = DATE_AND_TIME ( #17, #171 ) ;
#211 = DIRECTION ( 'NONE',  ( 1.000000000000000000, 0.0000000000000000000, 0.0000000000000000000 ) ) ;
#212 =( LENGTH_UNIT ( ) NAMED_UNIT ( * ) SI_UNIT ( .MILLI., .METRE. ) );
#213 = ORIENTED_EDGE ( 'NONE', *, *, #87, .F. ) ;
#214 = ORIENTED_EDGE ( 'NONE', *, *, #53, .T. ) ;
#215 = ORIENTED_EDGE ( 'NONE', *, *, #176, .F. ) ;
#216 = AXIS2_PLACEMENT_3D ( 'NONE', #45, #217, #14 ) ;
#217 = DIRECTION ( 'NONE',  ( 1.000000000000000000, 6.123233995736766000E-017, 0.0000000000000000000 ) ) ;
#218 = CARTESIAN_POINT ( 'NONE',  ( -152.0000000000000300, 0.0000000000000000000, 0.0000000000000000000 ) ) ;
#219 = EDGE_LOOP ( 'NONE', ( #128, #200, #10, #207 ) ) ;
#220 = LOCAL_TIME ( 13, 47, 48.00000000000000000, #113 ) ;
#221 = FACE_BOUND ( 'NONE', #197, .T. ) ;
#222 = PERSON_AND_ORGANIZATION_ROLE ( 'creator' ) ;
#223 = CARTESIAN_POINT ( 'NONE',  ( 0.0000000000000000000, 0.0000000000000000000, 0.0000000000000000000 ) ) ;
#224 = TOROIDAL_SURFACE ( 'NONE', #12, 400.0000000000000000, 150.0000000000000000 ) ;
#225 = SECURITY_CLASSIFICATION ( '', '', #170 ) ;
#226 = DIRECTION ( 'NONE',  ( 0.0000000000000000000, 0.0000000000000000000, 1.000000000000000000 ) ) ;
#227 = FACE_OUTER_BOUND ( 'NONE', #219, .T. ) ;
#228 = VERTEX_POINT ( 'NONE', #18 ) ;
#229 = ORIENTED_EDGE ( 'NONE', *, *, #101, .F. ) ;
#230 = ORIENTED_EDGE ( 'NONE', *, *, #116, .F. ) ;
#231 = APPLICATION_CONTEXT ( 'configuration controlled 3d designs of mechanical parts and assemblies' ) ;
#232 = VERTEX_POINT ( 'NONE', #97 ) ;
#233 = CARTESIAN_POINT ( 'NONE',  ( 400.0000000000000000, 0.0000000000000000000, 0.0000000000000000000 ) ) ;
#234 = PERSON_AND_ORGANIZATION ( #62, #43 ) ;
#235 = DATE_AND_TIME ( #130, #85 ) ;
#236 = CARTESIAN_POINT ( 'NONE',  ( 400.0000000000000000, 0.0000000000000000000, 0.0000000000000000000 ) ) ;
#237 = CC_DESIGN_PERSON_AND_ORGANIZATION_ASSIGNMENT ( #93, #27, ( #225 ) ) ;
#238 = APPROVAL_STATUS ( 'not_yet_approved' ) ;
#239 = CIRCLE ( 'NONE', #114, 152.0000000000000000 ) ;
#240 = APPROVAL_PERSON_ORGANIZATION ( #246, #181, #82 ) ;
#241 = AXIS2_PLACEMENT_3D ( 'NONE', #187, #26, #61 ) ;
#242 = PERSON_AND_ORGANIZATION_ROLE ( 'creator' ) ;
#243 = CARTESIAN_POINT ( 'NONE',  ( 152.0000000000000000, 0.0000000000000000000, -1.861463134703976800E-014 ) ) ;
#244 = DIRECTION ( 'NONE',  ( 0.0000000000000000000, 0.0000000000000000000, 1.000000000000000000 ) ) ;
#245 = FACE_OUTER_BOUND ( 'NONE', #136, .T. ) ;
#246 = PERSON_AND_ORGANIZATION ( #62, #43 ) ;
#247 = CC_DESIGN_DATE_AND_TIME_ASSIGNMENT ( #124, #146, ( #225 ) ) ;
#248 = CIRCLE ( 'NONE', #96, 152.0000000000000000 ) ;
#249 = DIRECTION ( 'NONE',  ( 0.0000000000000000000, 0.0000000000000000000, 1.000000000000000000 ) ) ;
#250 = DIRECTION ( 'NONE',  ( 0.0000000000000000000, 0.0000000000000000000, 1.000000000000000000 ) ) ;
#251 = AXIS2_PLACEMENT_3D ( 'NONE', #118, #249, #211 ) ;
#252 = COORDINATED_UNIVERSAL_TIME_OFFSET ( 1, 0, .AHEAD. ) ;
#253 = ORIENTED_EDGE ( 'NONE', *, *, #87, .T. ) ;
ENDSEC;
END-ISO-10303-21;
