ISO-10303-21;
HEADER;
FILE_DESCRIPTION (( 'STEP AP203' ),
    '1' );
FILE_NAME ('3D_R243_84_17386640.STEP',
    '2024-08-06T10:10:17',
    ( '' ),
    ( '' ),
    'SwSTEP 2.0',
    'SolidWorks 2024',
    '' );
FILE_SCHEMA (( 'CONFIG_CONTROL_DESIGN' ));
ENDSEC;

DATA;
#1 = ORIENTED_EDGE ( 'NONE', *, *, #111, .T. ) ;
#2 = CIRCLE ( 'NONE', #165, 72.50000000000001421 ) ;
#3 = ORIENTED_EDGE ( 'NONE', *, *, #128, .F. ) ;
#4 = DIRECTION ( 'NONE',  ( -0.000000000000000000, -1.000000000000000000, -0.000000000000000000 ) ) ;
#5 = ORGANIZATION ( 'UNSPECIFIED', 'UNSPECIFIED', '' ) ;
#6 = DIRECTION ( 'NONE',  ( 0.000000000000000000, 0.000000000000000000, 1.000000000000000000 ) ) ;
#7 = DESIGN_CONTEXT ( 'detailed design', #53, 'design' ) ;
#8 = CC_DESIGN_PERSON_AND_ORGANIZATION_ASSIGNMENT ( #135, #77, ( #180 ) ) ;
#9 = DIRECTION ( 'NONE',  ( 0.000000000000000000, 0.000000000000000000, 1.000000000000000000 ) ) ;
#10 = CALENDAR_DATE ( 2024, 6, 8 ) ;
#11 = PERSON_AND_ORGANIZATION ( #215, #5 ) ;
#12 = CC_DESIGN_APPROVAL ( #75, ( #72 ) ) ;
#13 = DIRECTION ( 'NONE',  ( 0.000000000000000000, 0.000000000000000000, 1.000000000000000000 ) ) ;
#14 = APPROVAL_ROLE ( '' ) ;
#15 = ADVANCED_FACE ( 'NONE', ( #216 ), #157, .F. ) ;
#16 = CARTESIAN_POINT ( 'NONE',  ( 0.000000000000000000, 0.000000000000000000, 0.000000000000000000 ) ) ;
#17 = COORDINATED_UNIVERSAL_TIME_OFFSET ( 1, 0, .AHEAD. ) ;
#18 = DIRECTION ( 'NONE',  ( -0.000000000000000000, -1.000000000000000000, -0.000000000000000000 ) ) ;
#19 = DATE_TIME_ROLE ( 'creation_date' ) ;
#20 = VERTEX_POINT ( 'NONE', #154 ) ;
#21 = AXIS2_PLACEMENT_3D ( 'NONE', #59, #94, #150 ) ;
#22 = VERTEX_POINT ( 'NONE', #76 ) ;
#23 =( GEOMETRIC_REPRESENTATION_CONTEXT ( 3 ) GLOBAL_UNCERTAINTY_ASSIGNED_CONTEXT ( ( #132 ) ) GLOBAL_UNIT_ASSIGNED_CONTEXT ( ( #38, #36, #137 ) ) REPRESENTATION_CONTEXT ( 'NONE', 'WORKASPACE' ) );
#24 = CARTESIAN_POINT ( 'NONE',  ( 5.204748896376252474E-15, 4.000000000000000000, 42.50000000000000711 ) ) ;
#25 = ORIENTED_EDGE ( 'NONE', *, *, #160, .T. ) ;
#26 = LOCAL_TIME ( 12, 10, 17.00000000000000000, #60 ) ;
#27 = CYLINDRICAL_SURFACE ( 'NONE', #35, 42.50000000000000711 ) ;
#28 = ADVANCED_FACE ( 'NONE', ( #67 ), #188, .T. ) ;
#29 = CARTESIAN_POINT ( 'NONE',  ( 8.878689293818310863E-15, 4.000000000000000000, 72.50000000000001421 ) ) ;
#30 = AXIS2_PLACEMENT_3D ( 'NONE', #74, #237, #127 ) ;
#31 = DIRECTION ( 'NONE',  ( -0.000000000000000000, -1.000000000000000000, -0.000000000000000000 ) ) ;
#32 = PERSON_AND_ORGANIZATION ( #215, #5 ) ;
#33 = DIRECTION ( 'NONE',  ( 0.000000000000000000, 1.000000000000000000, 0.000000000000000000 ) ) ;
#34 = CALENDAR_DATE ( 2024, 6, 8 ) ;
#35 = AXIS2_PLACEMENT_3D ( 'NONE', #54, #129, #193 ) ;
#36 =( NAMED_UNIT ( * ) PLANE_ANGLE_UNIT ( ) SI_UNIT ( $, .RADIAN. ) );
#37 = COORDINATED_UNIVERSAL_TIME_OFFSET ( 1, 0, .AHEAD. ) ;
#38 =( LENGTH_UNIT ( ) NAMED_UNIT ( * ) SI_UNIT ( .MILLI., .METRE. ) );
#39 = PERSON_AND_ORGANIZATION_ROLE ( 'creator' ) ;
#40 = CC_DESIGN_PERSON_AND_ORGANIZATION_ASSIGNMENT ( #11, #148, ( #72 ) ) ;
#41 = EDGE_LOOP ( 'NONE', ( #3, #189, #103, #230 ) ) ;
#42 = CIRCLE ( 'NONE', #175, 42.50000000000000711 ) ;
#43 = ORIENTED_EDGE ( 'NONE', *, *, #246, .F. ) ;
#44 = ADVANCED_BREP_SHAPE_REPRESENTATION ( '3D_R243_84_17386640', ( #214, #235 ), #23 ) ;
#45 = ORIENTED_EDGE ( 'NONE', *, *, #107, .F. ) ;
#46 = VERTEX_POINT ( 'NONE', #91 ) ;
#47 = CC_DESIGN_PERSON_AND_ORGANIZATION_ASSIGNMENT ( #223, #39, ( #201 ) ) ;
#48 = DIRECTION ( 'NONE',  ( 0.000000000000000000, 0.000000000000000000, 1.000000000000000000 ) ) ;
#49 = EDGE_CURVE ( 'NONE', #205, #63, #219, .T. ) ;
#50 = CLOSED_SHELL ( 'NONE', ( #149, #28, #92, #227, #156, #15 ) ) ;
#51 = CIRCLE ( 'NONE', #73, 42.50000000000000711 ) ;
#52 = LINE ( 'NONE', #29, #124 ) ;
#53 = APPLICATION_CONTEXT ( 'configuration controlled 3d designs of mechanical parts and assemblies' ) ;
#54 = CARTESIAN_POINT ( 'NONE',  ( 0.000000000000000000, 4.000000000000000000, 0.000000000000000000 ) ) ;
#55 = EDGE_LOOP ( 'NONE', ( #90, #43 ) ) ;
#56 = LOCAL_TIME ( 12, 10, 17.00000000000000000, #37 ) ;
#57 = DATE_AND_TIME ( #100, #245 ) ;
#58 = CARTESIAN_POINT ( 'NONE',  ( 5.204748896376252474E-15, 4.000000000000000000, 42.50000000000000711 ) ) ;
#59 = CARTESIAN_POINT ( 'NONE',  ( 0.000000000000000000, 4.000000000000000000, 0.000000000000000000 ) ) ;
#60 = COORDINATED_UNIVERSAL_TIME_OFFSET ( 1, 0, .AHEAD. ) ;
#61 = ORIENTED_EDGE ( 'NONE', *, *, #171, .F. ) ;
#62 = CC_DESIGN_PERSON_AND_ORGANIZATION_ASSIGNMENT ( #134, #242, ( #194 ) ) ;
#63 = VERTEX_POINT ( 'NONE', #141 ) ;
#64 = VECTOR ( 'NONE', #31, 1000.000000000000000 ) ;
#65 = ORIENTED_EDGE ( 'NONE', *, *, #243, .T. ) ;
#66 = CARTESIAN_POINT ( 'NONE',  ( 0.000000000000000000, 0.000000000000000000, 0.000000000000000000 ) ) ;
#67 = FACE_OUTER_BOUND ( 'NONE', #41, .T. ) ;
#68 = EDGE_CURVE ( 'NONE', #22, #205, #52, .T. ) ;
#69 = APPROVAL_PERSON_ORGANIZATION ( #120, #75, #183 ) ;
#70 = APPLICATION_CONTEXT ( 'configuration controlled 3d designs of mechanical parts and assemblies' ) ;
#71 = DIRECTION ( 'NONE',  ( 0.000000000000000000, 1.000000000000000000, 0.000000000000000000 ) ) ;
#72 = SECURITY_CLASSIFICATION ( '', '', #82 ) ;
#73 = AXIS2_PLACEMENT_3D ( 'NONE', #16, #169, #13 ) ;
#74 = CARTESIAN_POINT ( 'NONE',  ( 0.000000000000000000, 4.000000000000000000, 0.000000000000000000 ) ) ;
#75 = APPROVAL ( #170, 'UNSPECIFIED' ) ;
#76 = CARTESIAN_POINT ( 'NONE',  ( 8.878689293818310863E-15, 4.000000000000000000, 72.50000000000001421 ) ) ;
#77 = PERSON_AND_ORGANIZATION_ROLE ( 'creator' ) ;
#78 = APPROVAL_PERSON_ORGANIZATION ( #241, #185, #14 ) ;
#79 = DIRECTION ( 'NONE',  ( -0.000000000000000000, -1.000000000000000000, -0.000000000000000000 ) ) ;
#80 = APPROVAL_DATE_TIME ( #83, #143 ) ;
#81 = DIRECTION ( 'NONE',  ( 0.000000000000000000, 1.000000000000000000, 0.000000000000000000 ) ) ;
#82 = SECURITY_CLASSIFICATION_LEVEL ( 'unclassified' ) ;
#83 = DATE_AND_TIME ( #34, #56 ) ;
#84 = ORIENTED_EDGE ( 'NONE', *, *, #128, .T. ) ;
#85 = PRODUCT_RELATED_PRODUCT_CATEGORY ( 'detail', '', ( #194 ) ) ;
#86 = AXIS2_PLACEMENT_3D ( 'NONE', #101, #203, #244 ) ;
#87 = ORIENTED_EDGE ( 'NONE', *, *, #49, .F. ) ;
#88 = DIRECTION ( 'NONE',  ( -0.000000000000000000, -1.000000000000000000, -0.000000000000000000 ) ) ;
#89 = AXIS2_PLACEMENT_3D ( 'NONE', #161, #79, #182 ) ;
#90 = ORIENTED_EDGE ( 'NONE', *, *, #243, .F. ) ;
#91 = CARTESIAN_POINT ( 'NONE',  ( 0.000000000000000000, 4.000000000000000000, -42.50000000000000711 ) ) ;
#92 = ADVANCED_FACE ( 'NONE', ( #139, #197 ), #93, .T. ) ;
#93 = PLANE ( 'NONE',  #30 ) ;
#94 = DIRECTION ( 'NONE',  ( 0.000000000000000000, 1.000000000000000000, 0.000000000000000000 ) ) ;
#95 = CC_DESIGN_PERSON_AND_ORGANIZATION_ASSIGNMENT ( #32, #221, ( #201 ) ) ;
#96 = CALENDAR_DATE ( 2024, 6, 8 ) ;
#97 = AXIS2_PLACEMENT_3D ( 'NONE', #198, #33, #115 ) ;
#98 = DIRECTION ( 'NONE',  ( 0.000000000000000000, -0.000000000000000000, 1.000000000000000000 ) ) ;
#99 = COORDINATED_UNIVERSAL_TIME_OFFSET ( 1, 0, .AHEAD. ) ;
#100 = CALENDAR_DATE ( 2024, 6, 8 ) ;
#101 = CARTESIAN_POINT ( 'NONE',  ( 0.000000000000000000, 4.000000000000000000, 0.000000000000000000 ) ) ;
#102 = PERSON_AND_ORGANIZATION ( #215, #5 ) ;
#103 = ORIENTED_EDGE ( 'NONE', *, *, #49, .T. ) ;
#104 = ORIENTED_EDGE ( 'NONE', *, *, #246, .T. ) ;
#105 = VECTOR ( 'NONE', #88, 1000.000000000000000 ) ;
#106 = CARTESIAN_POINT ( 'NONE',  ( 0.000000000000000000, 4.000000000000000000, 0.000000000000000000 ) ) ;
#107 = EDGE_CURVE ( 'NONE', #187, #20, #191, .T. ) ;
#108 = ORIENTED_EDGE ( 'NONE', *, *, #210, .F. ) ;
#109 = CARTESIAN_POINT ( 'NONE',  ( 0.000000000000000000, 4.000000000000000000, 0.000000000000000000 ) ) ;
#110 = FACE_OUTER_BOUND ( 'NONE', #177, .T. ) ;
#111 = EDGE_CURVE ( 'NONE', #20, #208, #42, .T. ) ;
#112 = AXIS2_PLACEMENT_3D ( 'NONE', #106, #113, #48 ) ;
#113 = DIRECTION ( 'NONE',  ( 0.000000000000000000, 1.000000000000000000, 0.000000000000000000 ) ) ;
#114 = APPLICATION_PROTOCOL_DEFINITION ( 'international standard', 'config_control_design', 1994, #53 ) ;
#115 = DIRECTION ( 'NONE',  ( 0.000000000000000000, 0.000000000000000000, 1.000000000000000000 ) ) ;
#116 = PLANE ( 'NONE',  #122 ) ;
#117 = CALENDAR_DATE ( 2024, 6, 8 ) ;
#118 = DATE_TIME_ROLE ( 'classification_date' ) ;
#119 = CARTESIAN_POINT ( 'NONE',  ( 0.000000000000000000, 0.000000000000000000, 0.000000000000000000 ) ) ;
#120 = PERSON_AND_ORGANIZATION ( #215, #5 ) ;
#121 = ORIENTED_EDGE ( 'NONE', *, *, #210, .T. ) ;
#122 = AXIS2_PLACEMENT_3D ( 'NONE', #119, #184, #98 ) ;
#123 = CARTESIAN_POINT ( 'NONE',  ( 0.000000000000000000, 4.000000000000000000, 0.000000000000000000 ) ) ;
#124 = VECTOR ( 'NONE', #144, 1000.000000000000000 ) ;
#125 = EDGE_CURVE ( 'NONE', #234, #63, #176, .T. ) ;
#126 = ORIENTED_EDGE ( 'NONE', *, *, #160, .F. ) ;
#127 = DIRECTION ( 'NONE',  ( 0.000000000000000000, -0.000000000000000000, 1.000000000000000000 ) ) ;
#128 = EDGE_CURVE ( 'NONE', #22, #234, #174, .T. ) ;
#129 = DIRECTION ( 'NONE',  ( -0.000000000000000000, -1.000000000000000000, -0.000000000000000000 ) ) ;
#130 = PRODUCT_DEFINITION_SHAPE ( 'NONE', 'NONE',  #180 ) ;
#131 = DIRECTION ( 'NONE',  ( -0.000000000000000000, -1.000000000000000000, -0.000000000000000000 ) ) ;
#132 = UNCERTAINTY_MEASURE_WITH_UNIT (LENGTH_MEASURE( 1.000000000000000082E-05 ), #38, 'distance_accuracy_value', 'NONE');
#133 = CARTESIAN_POINT ( 'NONE',  ( 0.000000000000000000, 0.000000000000000000, -42.50000000000000711 ) ) ;
#134 = PERSON_AND_ORGANIZATION ( #215, #5 ) ;
#135 = PERSON_AND_ORGANIZATION ( #215, #5 ) ;
#136 = COORDINATED_UNIVERSAL_TIME_OFFSET ( 1, 0, .AHEAD. ) ;
#137 =( NAMED_UNIT ( * ) SI_UNIT ( $, .STERADIAN. ) SOLID_ANGLE_UNIT ( ) );
#138 = DIRECTION ( 'NONE',  ( 0.000000000000000000, 0.000000000000000000, 1.000000000000000000 ) ) ;
#139 = FACE_OUTER_BOUND ( 'NONE', #247, .T. ) ;
#140 = AXIS2_PLACEMENT_3D ( 'NONE', #66, #71, #138 ) ;
#141 = CARTESIAN_POINT ( 'NONE',  ( 0.000000000000000000, 0.000000000000000000, -72.50000000000001421 ) ) ;
#142 = CARTESIAN_POINT ( 'NONE',  ( 0.000000000000000000, 4.000000000000000000, -72.50000000000001421 ) ) ;
#143 = APPROVAL ( #239, 'UNSPECIFIED' ) ;
#144 = DIRECTION ( 'NONE',  ( -0.000000000000000000, -1.000000000000000000, -0.000000000000000000 ) ) ;
#145 = DATE_AND_TIME ( #117, #152 ) ;
#146 = CIRCLE ( 'NONE', #86, 42.50000000000000711 ) ;
#147 = DIRECTION ( 'NONE',  ( 0.000000000000000000, 0.000000000000000000, 1.000000000000000000 ) ) ;
#148 = PERSON_AND_ORGANIZATION_ROLE ( 'classification_officer' ) ;
#149 = ADVANCED_FACE ( 'NONE', ( #218 ), #27, .F. ) ;
#150 = DIRECTION ( 'NONE',  ( 0.000000000000000000, 0.000000000000000000, 1.000000000000000000 ) ) ;
#151 = MECHANICAL_CONTEXT ( 'NONE', #70, 'mechanical' ) ;
#152 = LOCAL_TIME ( 12, 10, 17.00000000000000000, #136 ) ;
#153 = DIRECTION ( 'NONE',  ( 0.000000000000000000, 0.000000000000000000, -1.000000000000000000 ) ) ;
#154 = CARTESIAN_POINT ( 'NONE',  ( 5.204748896376252474E-15, 0.000000000000000000, 42.50000000000000711 ) ) ;
#155 = CC_DESIGN_APPROVAL ( #143, ( #180 ) ) ;
#156 = ADVANCED_FACE ( 'NONE', ( #110 ), #179, .T. ) ;
#157 = CYLINDRICAL_SURFACE ( 'NONE', #195, 42.50000000000000711 ) ;
#158 = LOCAL_TIME ( 12, 10, 17.00000000000000000, #99 ) ;
#159 = DIRECTION ( 'NONE',  ( 0.000000000000000000, 0.000000000000000000, -1.000000000000000000 ) ) ;
#160 = EDGE_CURVE ( 'NONE', #234, #22, #190, .T. ) ;
#161 = CARTESIAN_POINT ( 'NONE',  ( 0.000000000000000000, 4.000000000000000000, 0.000000000000000000 ) ) ;
#162 = CARTESIAN_POINT ( 'NONE',  ( 0.000000000000000000, 4.000000000000000000, -42.50000000000000711 ) ) ;
#163 = CARTESIAN_POINT ( 'NONE',  ( 0.000000000000000000, 0.000000000000000000, 0.000000000000000000 ) ) ;
#164 = APPROVAL_STATUS ( 'not_yet_approved' ) ;
#165 = AXIS2_PLACEMENT_3D ( 'NONE', #163, #81, #147 ) ;
#166 = LINE ( 'NONE', #162, #220 ) ;
#167 = DATE_AND_TIME ( #10, #158 ) ;
#168 = SHAPE_DEFINITION_REPRESENTATION ( #130, #44 ) ;
#169 = DIRECTION ( 'NONE',  ( 0.000000000000000000, 1.000000000000000000, 0.000000000000000000 ) ) ;
#170 = APPROVAL_STATUS ( 'not_yet_approved' ) ;
#171 = EDGE_CURVE ( 'NONE', #63, #205, #2, .T. ) ;
#172 = ORIENTED_EDGE ( 'NONE', *, *, #68, .F. ) ;
#173 = ORIENTED_EDGE ( 'NONE', *, *, #107, .T. ) ;
#174 = CIRCLE ( 'NONE', #112, 72.50000000000001421 ) ;
#175 = AXIS2_PLACEMENT_3D ( 'NONE', #232, #178, #6 ) ;
#176 = LINE ( 'NONE', #142, #64 ) ;
#177 = EDGE_LOOP ( 'NONE', ( #172, #126, #231, #236 ) ) ;
#178 = DIRECTION ( 'NONE',  ( 0.000000000000000000, 1.000000000000000000, 0.000000000000000000 ) ) ;
#179 = CYLINDRICAL_SURFACE ( 'NONE', #89, 72.50000000000001421 ) ;
#180 = PRODUCT_DEFINITION ( 'UNKNOWN', '', #201, #7 ) ;
#181 = CARTESIAN_POINT ( 'NONE',  ( 0.000000000000000000, 0.000000000000000000, 0.000000000000000000 ) ) ;
#182 = DIRECTION ( 'NONE',  ( 0.000000000000000000, 0.000000000000000000, -1.000000000000000000 ) ) ;
#183 = APPROVAL_ROLE ( '' ) ;
#184 = DIRECTION ( 'NONE',  ( 0.000000000000000000, 1.000000000000000000, 0.000000000000000000 ) ) ;
#185 = APPROVAL ( #164, 'UNSPECIFIED' ) ;
#186 = APPROVAL_DATE_TIME ( #57, #75 ) ;
#187 = VERTEX_POINT ( 'NONE', #58 ) ;
#188 = CYLINDRICAL_SURFACE ( 'NONE', #212, 72.50000000000001421 ) ;
#189 = ORIENTED_EDGE ( 'NONE', *, *, #68, .T. ) ;
#190 = CIRCLE ( 'NONE', #97, 72.50000000000001421 ) ;
#191 = LINE ( 'NONE', #24, #105 ) ;
#192 = CC_DESIGN_DATE_AND_TIME_ASSIGNMENT ( #202, #118, ( #72 ) ) ;
#193 = DIRECTION ( 'NONE',  ( 0.000000000000000000, 0.000000000000000000, -1.000000000000000000 ) ) ;
#194 = PRODUCT ( '3D_R243_84_17386640', '3D_R243_84_17386640', '', ( #151 ) ) ;
#195 = AXIS2_PLACEMENT_3D ( 'NONE', #123, #4, #153 ) ;
#196 = CC_DESIGN_SECURITY_CLASSIFICATION ( #72, ( #201 ) ) ;
#197 = FACE_BOUND ( 'NONE', #55, .T. ) ;
#198 = CARTESIAN_POINT ( 'NONE',  ( 0.000000000000000000, 4.000000000000000000, 0.000000000000000000 ) ) ;
#199 = FACE_OUTER_BOUND ( 'NONE', #248, .T. ) ;
#200 = APPROVAL_ROLE ( '' ) ;
#201 = PRODUCT_DEFINITION_FORMATION_WITH_SPECIFIED_SOURCE ( 'ANY', '', #194, .NOT_KNOWN. ) ;
#202 = DATE_AND_TIME ( #96, #26 ) ;
#203 = DIRECTION ( 'NONE',  ( 0.000000000000000000, 1.000000000000000000, 0.000000000000000000 ) ) ;
#204 = APPROVAL_DATE_TIME ( #167, #185 ) ;
#205 = VERTEX_POINT ( 'NONE', #206 ) ;
#206 = CARTESIAN_POINT ( 'NONE',  ( 8.878689293818310863E-15, 0.000000000000000000, 72.50000000000001421 ) ) ;
#207 = EDGE_LOOP ( 'NONE', ( #121, #1 ) ) ;
#208 = VERTEX_POINT ( 'NONE', #133 ) ;
#209 = ORIENTED_EDGE ( 'NONE', *, *, #111, .F. ) ;
#210 = EDGE_CURVE ( 'NONE', #208, #20, #51, .T. ) ;
#211 = ORIENTED_EDGE ( 'NONE', *, *, #229, .T. ) ;
#212 = AXIS2_PLACEMENT_3D ( 'NONE', #109, #131, #159 ) ;
#213 = CIRCLE ( 'NONE', #21, 42.50000000000000711 ) ;
#214 = MANIFOLD_SOLID_BREP ( 'Aufsatz-Linear austragen1', #50 ) ;
#215 = PERSON ( 'UNSPECIFIED', 'UNSPECIFIED', 'UNSPECIFIED', ('UNSPECIFIED'), ('UNSPECIFIED'), ('UNSPECIFIED') ) ;
#216 = FACE_OUTER_BOUND ( 'NONE', #217, .T. ) ;
#217 = EDGE_LOOP ( 'NONE', ( #45, #104, #211, #209 ) ) ;
#218 = FACE_OUTER_BOUND ( 'NONE', #226, .T. ) ;
#219 = CIRCLE ( 'NONE', #140, 72.50000000000001421 ) ;
#220 = VECTOR ( 'NONE', #18, 1000.000000000000000 ) ;
#221 = PERSON_AND_ORGANIZATION_ROLE ( 'design_supplier' ) ;
#222 = FACE_BOUND ( 'NONE', #207, .T. ) ;
#223 = PERSON_AND_ORGANIZATION ( #215, #5 ) ;
#224 = APPLICATION_PROTOCOL_DEFINITION ( 'international standard', 'config_control_design', 1994, #70 ) ;
#225 = CC_DESIGN_APPROVAL ( #185, ( #201 ) ) ;
#226 = EDGE_LOOP ( 'NONE', ( #65, #173, #108, #228 ) ) ;
#227 = ADVANCED_FACE ( 'NONE', ( #199, #222 ), #116, .F. ) ;
#228 = ORIENTED_EDGE ( 'NONE', *, *, #229, .F. ) ;
#229 = EDGE_CURVE ( 'NONE', #46, #208, #166, .T. ) ;
#230 = ORIENTED_EDGE ( 'NONE', *, *, #125, .F. ) ;
#231 = ORIENTED_EDGE ( 'NONE', *, *, #125, .T. ) ;
#232 = CARTESIAN_POINT ( 'NONE',  ( 0.000000000000000000, 0.000000000000000000, 0.000000000000000000 ) ) ;
#233 = CC_DESIGN_DATE_AND_TIME_ASSIGNMENT ( #145, #19, ( #180 ) ) ;
#234 = VERTEX_POINT ( 'NONE', #240 ) ;
#235 = AXIS2_PLACEMENT_3D ( 'NONE', #181, #9, #238 ) ;
#236 = ORIENTED_EDGE ( 'NONE', *, *, #171, .T. ) ;
#237 = DIRECTION ( 'NONE',  ( 0.000000000000000000, 1.000000000000000000, 0.000000000000000000 ) ) ;
#238 = DIRECTION ( 'NONE',  ( 1.000000000000000000, 0.000000000000000000, 0.000000000000000000 ) ) ;
#239 = APPROVAL_STATUS ( 'not_yet_approved' ) ;
#240 = CARTESIAN_POINT ( 'NONE',  ( 0.000000000000000000, 4.000000000000000000, -72.50000000000001421 ) ) ;
#241 = PERSON_AND_ORGANIZATION ( #215, #5 ) ;
#242 = PERSON_AND_ORGANIZATION_ROLE ( 'design_owner' ) ;
#243 = EDGE_CURVE ( 'NONE', #46, #187, #213, .T. ) ;
#244 = DIRECTION ( 'NONE',  ( 0.000000000000000000, 0.000000000000000000, 1.000000000000000000 ) ) ;
#245 = LOCAL_TIME ( 12, 10, 17.00000000000000000, #17 ) ;
#246 = EDGE_CURVE ( 'NONE', #187, #46, #146, .T. ) ;
#247 = EDGE_LOOP ( 'NONE', ( #25, #84 ) ) ;
#248 = EDGE_LOOP ( 'NONE', ( #61, #87 ) ) ;
#249 = APPROVAL_PERSON_ORGANIZATION ( #102, #143, #200 ) ;
ENDSEC;
END-ISO-10303-21;
