ISO-10303-21;
HEADER;
FILE_DESCRIPTION (( 'STEP AP203' ),
    '1' );
FILE_NAME ('3D-LR-131-SE_30-25_17106560.STEP',
    '2024-09-02T20:27:29',
    ( '' ),
    ( '' ),
    'SwSTEP 2.0',
    'SolidWorks 2024',
    '' );
FILE_SCHEMA (( 'CONFIG_CONTROL_DESIGN' ));
ENDSEC;

DATA;
#1 = EDGE_CURVE ( 'NONE', #266, #176, #332, .T. ) ;
#2 = CARTESIAN_POINT ( 'NONE',  ( -8.550000000000002487, 0.000000000000000000, 0.000000000000000000 ) ) ;
#3 = VERTEX_POINT ( 'NONE', #133 ) ;
#4 = DIRECTION ( 'NONE',  ( 0.000000000000000000, 0.000000000000000000, 1.000000000000000000 ) ) ;
#5 = ORIENTED_EDGE ( 'NONE', *, *, #1, .F. ) ;
#6 = AXIS2_PLACEMENT_3D ( 'NONE', #113, #54, #112 ) ;
#7 = VECTOR ( 'NONE', #342, 1000.000000000000000 ) ;
#8 = LINE ( 'NONE', #167, #187 ) ;
#9 = CARTESIAN_POINT ( 'NONE',  ( 0.7499999999999937828, 0.000000000000000000, 0.000000000000000000 ) ) ;
#10 = CARTESIAN_POINT ( 'NONE',  ( -8.197346038583082972, 0.000000000000000000, 0.000000000000000000 ) ) ;
#11 = DIRECTION ( 'NONE',  ( 0.000000000000000000, 0.000000000000000000, 1.000000000000000000 ) ) ;
#12 = CARTESIAN_POINT ( 'NONE',  ( -8.550000000000002487, 0.000000000000000000, 17.50000000000000000 ) ) ;
#13 = FACE_OUTER_BOUND ( 'NONE', #222, .T. ) ;
#14 = CIRCLE ( 'NONE', #313, 17.50000000000000000 ) ;
#15 = CIRCLE ( 'NONE', #355, 15.00000000000000000 ) ;
#16 = CARTESIAN_POINT ( 'NONE',  ( 0.7499999999999937828, 1.898202538678397557E-15, -15.50000000000000000 ) ) ;
#17 = PRODUCT_DEFINITION ( 'UNKNOWN', '', #44, #261 ) ;
#18 = COORDINATED_UNIVERSAL_TIME_OFFSET ( 1, 0, .AHEAD. ) ;
#19 = EDGE_CURVE ( 'NONE', #228, #219, #270, .T. ) ;
#20 = CARTESIAN_POINT ( 'NONE',  ( -8.197346038583082972, 0.000000000000000000, 0.000000000000000000 ) ) ;
#21 = DIRECTION ( 'NONE',  ( -1.000000000000000000, -0.000000000000000000, -0.000000000000000000 ) ) ;
#22 = ORIENTED_EDGE ( 'NONE', *, *, #352, .F. ) ;
#23 = CARTESIAN_POINT ( 'NONE',  ( -9.750000000000001776, 1.530808498934191324E-15, -12.49999999999999822 ) ) ;
#24 = EDGE_LOOP ( 'NONE', ( #415, #90 ) ) ;
#25 = CALENDAR_DATE ( 2024, 2, 9 ) ;
#26 = FACE_OUTER_BOUND ( 'NONE', #366, .T. ) ;
#27 = ORIENTED_EDGE ( 'NONE', *, *, #96, .T. ) ;
#28 = FACE_OUTER_BOUND ( 'NONE', #211, .T. ) ;
#29 = AXIS2_PLACEMENT_3D ( 'NONE', #324, #356, #155 ) ;
#30 = CC_DESIGN_PERSON_AND_ORGANIZATION_ASSIGNMENT ( #379, #192, ( #44 ) ) ;
#31 = ADVANCED_FACE ( 'NONE', ( #13 ), #243, .T. ) ;
#32 = VERTEX_POINT ( 'NONE', #104 ) ;
#33 = PERSON ( 'UNSPECIFIED', 'UNSPECIFIED', 'UNSPECIFIED', ('UNSPECIFIED'), ('UNSPECIFIED'), ('UNSPECIFIED') ) ;
#34 = PRODUCT_DEFINITION_SHAPE ( 'NONE', 'NONE',  #17 ) ;
#35 = AXIS2_PLACEMENT_3D ( 'NONE', #317, #143, #245 ) ;
#36 = CARTESIAN_POINT ( 'NONE',  ( 0.7499999999999937828, 0.000000000000000000, 0.000000000000000000 ) ) ;
#37 = CARTESIAN_POINT ( 'NONE',  ( -36.70332301863295754, 0.000000000000000000, 17.50000000000000000 ) ) ;
#38 = EDGE_CURVE ( 'NONE', #100, #325, #59, .T. ) ;
#39 = ORIENTED_EDGE ( 'NONE', *, *, #19, .F. ) ;
#40 = CARTESIAN_POINT ( 'NONE',  ( -36.70332301863295754, 1.898202538678397557E-15, -15.50000000000000000 ) ) ;
#41 = ORIENTED_EDGE ( 'NONE', *, *, #105, .T. ) ;
#42 = DIRECTION ( 'NONE',  ( 0.000000000000000000, 0.000000000000000000, 1.000000000000000000 ) ) ;
#43 = CARTESIAN_POINT ( 'NONE',  ( -36.70332301863295754, 1.836970198721029589E-15, -15.00000000000000000 ) ) ;
#44 = PRODUCT_DEFINITION_FORMATION_WITH_SPECIFIED_SOURCE ( 'ANY', '', #264, .NOT_KNOWN. ) ;
#45 = CC_DESIGN_DATE_AND_TIME_ASSIGNMENT ( #119, #57, ( #72 ) ) ;
#46 = ADVANCED_FACE ( 'NONE', ( #50 ), #238, .T. ) ;
#47 = DIRECTION ( 'NONE',  ( 0.000000000000000000, 0.000000000000000000, 1.000000000000000000 ) ) ;
#48 = CARTESIAN_POINT ( 'NONE',  ( -36.70332301863295754, 1.530808498934191521E-15, -12.50000000000000000 ) ) ;
#49 = EDGE_LOOP ( 'NONE', ( #389, #289, #161, #335 ) ) ;
#50 = FACE_OUTER_BOUND ( 'NONE', #139, .T. ) ;
#51 = VECTOR ( 'NONE', #103, 999.9999999999998863 ) ;
#52 = EDGE_CURVE ( 'NONE', #182, #348, #344, .T. ) ;
#53 = APPROVAL_DATE_TIME ( #126, #230 ) ;
#54 = DIRECTION ( 'NONE',  ( -1.000000000000000000, -0.000000000000000000, -0.000000000000000000 ) ) ;
#55 = EDGE_LOOP ( 'NONE', ( #27, #396, #144, #369 ) ) ;
#56 = FACE_OUTER_BOUND ( 'NONE', #259, .T. ) ;
#57 = DATE_TIME_ROLE ( 'classification_date' ) ;
#58 = DIRECTION ( 'NONE',  ( -1.000000000000000000, -0.000000000000000000, -0.000000000000000000 ) ) ;
#59 = CIRCLE ( 'NONE', #299, 12.49999999999999822 ) ;
#60 = DATE_AND_TIME ( #283, #386 ) ;
#61 = CARTESIAN_POINT ( 'NONE',  ( -8.550000000000002487, 0.000000000000000000, 0.000000000000000000 ) ) ;
#62 = ORIENTED_EDGE ( 'NONE', *, *, #370, .T. ) ;
#63 = DIRECTION ( 'NONE',  ( 0.000000000000000000, 0.000000000000000000, 1.000000000000000000 ) ) ;
#64 = ORIENTED_EDGE ( 'NONE', *, *, #190, .T. ) ;
#65 = DIRECTION ( 'NONE',  ( 0.000000000000000000, 0.000000000000000000, 1.000000000000000000 ) ) ;
#66 = EDGE_CURVE ( 'NONE', #325, #100, #403, .T. ) ;
#67 = VECTOR ( 'NONE', #158, 999.9999999999998863 ) ;
#68 = DIRECTION ( 'NONE',  ( 0.000000000000000000, 0.000000000000000000, 1.000000000000000000 ) ) ;
#69 = ORIENTED_EDGE ( 'NONE', *, *, #216, .F. ) ;
#70 = AXIS2_PLACEMENT_3D ( 'NONE', #275, #402, #109 ) ;
#71 = FACE_OUTER_BOUND ( 'NONE', #49, .T. ) ;
#72 = SECURITY_CLASSIFICATION ( '', '', #323 ) ;
#73 = ORIENTED_EDGE ( 'NONE', *, *, #388, .T. ) ;
#74 = VERTEX_POINT ( 'NONE', #85 ) ;
#75 = DIRECTION ( 'NONE',  ( 0.000000000000000000, 0.000000000000000000, 1.000000000000000000 ) ) ;
#76 = ADVANCED_FACE ( 'NONE', ( #77 ), #178, .T. ) ;
#77 = FACE_OUTER_BOUND ( 'NONE', #124, .T. ) ;
#78 = AXIS2_PLACEMENT_3D ( 'NONE', #315, #309, #373 ) ;
#79 = AXIS2_PLACEMENT_3D ( 'NONE', #122, #359, #390 ) ;
#80 = CARTESIAN_POINT ( 'NONE',  ( -36.70332301863295754, 2.143131898507868248E-15, -17.50000000000000000 ) ) ;
#81 = DIRECTION ( 'NONE',  ( 1.000000000000000000, 0.000000000000000000, 0.000000000000000000 ) ) ;
#82 = DIRECTION ( 'NONE',  ( 0.000000000000000000, 0.000000000000000000, 1.000000000000000000 ) ) ;
#83 = ADVANCED_FACE ( 'NONE', ( #247 ), #377, .F. ) ;
#84 = DIRECTION ( 'NONE',  ( -1.000000000000000000, -0.000000000000000000, -0.000000000000000000 ) ) ;
#85 = CARTESIAN_POINT ( 'NONE',  ( 0.7499999999999937828, 1.836970198721029589E-15, -15.00000000000000000 ) ) ;
#86 = SHAPE_DEFINITION_REPRESENTATION ( #34, #326 ) ;
#87 = DIRECTION ( 'NONE',  ( -1.000000000000000000, -0.000000000000000000, -0.000000000000000000 ) ) ;
#88 = CARTESIAN_POINT ( 'NONE',  ( -8.550000000000002487, 0.000000000000000000, 17.50000000000000000 ) ) ;
#89 = DIRECTION ( 'NONE',  ( 0.000000000000000000, 0.000000000000000000, -1.000000000000000000 ) ) ;
#90 = ORIENTED_EDGE ( 'NONE', *, *, #52, .F. ) ;
#91 = AXIS2_PLACEMENT_3D ( 'NONE', #256, #152, #63 ) ;
#92 = CALENDAR_DATE ( 2024, 2, 9 ) ;
#93 = DIRECTION ( 'NONE',  ( -1.000000000000000000, -0.000000000000000000, -0.000000000000000000 ) ) ;
#94 = ORIENTED_EDGE ( 'NONE', *, *, #66, .F. ) ;
#95 = DIRECTION ( 'NONE',  ( -1.000000000000000000, -0.000000000000000000, -0.000000000000000000 ) ) ;
#96 = EDGE_CURVE ( 'NONE', #348, #182, #196, .T. ) ;
#97 = LOCAL_TIME ( 22, 27, 29.00000000000000000, #419 ) ;
#98 = CARTESIAN_POINT ( 'NONE',  ( 9.749999999999994671, 1.530808498934191521E-15, -12.50000000000000000 ) ) ;
#99 = VERTEX_POINT ( 'NONE', #406 ) ;
#100 = VERTEX_POINT ( 'NONE', #141 ) ;
#101 = AXIS2_PLACEMENT_3D ( 'NONE', #417, #425, #260 ) ;
#102 = ORIENTED_EDGE ( 'NONE', *, *, #216, .T. ) ;
#103 = DIRECTION ( 'NONE',  ( -0.1736481776669254184, 0.000000000000000000, 0.9848077530122090195 ) ) ;
#104 = CARTESIAN_POINT ( 'NONE',  ( -8.197346038583082972, 2.020667218593133100E-15, -15.50000000000000000 ) ) ;
#105 = EDGE_CURVE ( 'NONE', #228, #301, #150, .T. ) ;
#106 = APPROVAL_STATUS ( 'not_yet_approved' ) ;
#107 = CARTESIAN_POINT ( 'NONE',  ( -36.70332301863295754, 0.000000000000000000, 0.000000000000000000 ) ) ;
#108 =( LENGTH_UNIT ( ) NAMED_UNIT ( * ) SI_UNIT ( .MILLI., .METRE. ) );
#109 = DIRECTION ( 'NONE',  ( 0.000000000000000000, 0.000000000000000000, 1.000000000000000000 ) ) ;
#110 = AXIS2_PLACEMENT_3D ( 'NONE', #148, #93, #65 ) ;
#111 = EDGE_CURVE ( 'NONE', #266, #3, #159, .T. ) ;
#112 = DIRECTION ( 'NONE',  ( 0.000000000000000000, 0.000000000000000000, 1.000000000000000000 ) ) ;
#113 = CARTESIAN_POINT ( 'NONE',  ( 9.749999999999994671, 0.000000000000000000, 0.000000000000000000 ) ) ;
#114 = APPROVAL_ROLE ( '' ) ;
#115 = DIRECTION ( 'NONE',  ( 1.000000000000000000, 0.000000000000000000, 0.000000000000000000 ) ) ;
#116 = ORIENTED_EDGE ( 'NONE', *, *, #381, .F. ) ;
#117 = DIRECTION ( 'NONE',  ( -1.000000000000000000, -0.000000000000000000, -0.000000000000000000 ) ) ;
#118 = ORIENTED_EDGE ( 'NONE', *, *, #138, .F. ) ;
#119 = DATE_AND_TIME ( #25, #97 ) ;
#120 = CARTESIAN_POINT ( 'NONE',  ( -36.70332301863295754, 0.000000000000000000, 0.000000000000000000 ) ) ;
#121 = EDGE_LOOP ( 'NONE', ( #62, #163 ) ) ;
#122 = CARTESIAN_POINT ( 'NONE',  ( -9.750000000000003553, 12.49999999999999822, 0.000000000000000000 ) ) ;
#123 = VECTOR ( 'NONE', #399, 1000.000000000000000 ) ;
#124 = EDGE_LOOP ( 'NONE', ( #118, #102, #236, #200 ) ) ;
#125 = AXIS2_PLACEMENT_3D ( 'NONE', #186, #21, #318 ) ;
#126 = DATE_AND_TIME ( #223, #202 ) ;
#127 = DIRECTION ( 'NONE',  ( -1.000000000000000000, -0.000000000000000000, -0.000000000000000000 ) ) ;
#128 = ADVANCED_FACE ( 'NONE', ( #181, #175 ), #246, .T. ) ;
#129 = VECTOR ( 'NONE', #117, 1000.000000000000000 ) ;
#130 =( GEOMETRIC_REPRESENTATION_CONTEXT ( 3 ) GLOBAL_UNCERTAINTY_ASSIGNED_CONTEXT ( ( #277 ) ) GLOBAL_UNIT_ASSIGNED_CONTEXT ( ( #108, #374, #209 ) ) REPRESENTATION_CONTEXT ( 'NONE', 'WORKASPACE' ) );
#131 = ORIENTED_EDGE ( 'NONE', *, *, #328, .T. ) ;
#132 = DIRECTION ( 'NONE',  ( -1.000000000000000000, -0.000000000000000000, -0.000000000000000000 ) ) ;
#133 = CARTESIAN_POINT ( 'NONE',  ( -8.550000000000002487, 2.143131898507868248E-15, -17.50000000000000000 ) ) ;
#134 = APPLICATION_CONTEXT ( 'configuration controlled 3d designs of mechanical parts and assemblies' ) ;
#135 = ORIENTED_EDGE ( 'NONE', *, *, #414, .T. ) ;
#136 = LINE ( 'NONE', #142, #304 ) ;
#137 = CC_DESIGN_APPROVAL ( #166, ( #72 ) ) ;
#138 = EDGE_CURVE ( 'NONE', #3, #151, #375, .T. ) ;
#139 = EDGE_LOOP ( 'NONE', ( #204, #153, #285, #282 ) ) ;
#140 = CARTESIAN_POINT ( 'NONE',  ( -8.550000000000002487, 0.000000000000000000, 0.000000000000000000 ) ) ;
#141 = CARTESIAN_POINT ( 'NONE',  ( -9.750000000000001776, 0.000000000000000000, 12.49999999999999822 ) ) ;
#142 = CARTESIAN_POINT ( 'NONE',  ( -36.70332301863295754, 0.000000000000000000, 12.50000000000000000 ) ) ;
#143 = DIRECTION ( 'NONE',  ( 1.000000000000000000, 0.000000000000000000, 0.000000000000000000 ) ) ;
#144 = ORIENTED_EDGE ( 'NONE', *, *, #157, .F. ) ;
#145 = PERSON_AND_ORGANIZATION ( #33, #232 ) ;
#146 = DIRECTION ( 'NONE',  ( 0.000000000000000000, 0.000000000000000000, 1.000000000000000000 ) ) ;
#147 = CYLINDRICAL_SURFACE ( 'NONE', #333, 15.00000000000000000 ) ;
#148 = CARTESIAN_POINT ( 'NONE',  ( -36.70332301863295754, 0.000000000000000000, 0.000000000000000000 ) ) ;
#149 = EDGE_CURVE ( 'NONE', #361, #325, #210, .T. ) ;
#150 = CIRCLE ( 'NONE', #6, 15.00000000000000000 ) ;
#151 = VERTEX_POINT ( 'NONE', #341 ) ;
#152 = DIRECTION ( 'NONE',  ( -1.000000000000000000, -0.000000000000000000, -0.000000000000000000 ) ) ;
#153 = ORIENTED_EDGE ( 'NONE', *, *, #322, .T. ) ;
#154 = APPROVAL_STATUS ( 'not_yet_approved' ) ;
#155 = DIRECTION ( 'NONE',  ( 0.000000000000000000, 0.000000000000000000, 1.000000000000000000 ) ) ;
#156 = ORIENTED_EDGE ( 'NONE', *, *, #105, .F. ) ;
#157 = EDGE_CURVE ( 'NONE', #303, #32, #231, .T. ) ;
#158 = DIRECTION ( 'NONE',  ( -0.1736481776669254184, 1.206041662501898854E-16, -0.9848077530122090195 ) ) ;
#159 = CIRCLE ( 'NONE', #70, 17.50000000000000000 ) ;
#160 = CONICAL_SURFACE ( 'NONE', #378, 17.50000000000000000, 1.396263401595468689 ) ;
#161 = ORIENTED_EDGE ( 'NONE', *, *, #111, .F. ) ;
#162 = AXIS2_PLACEMENT_3D ( 'NONE', #9, #174, #75 ) ;
#163 = ORIENTED_EDGE ( 'NONE', *, *, #297, .T. ) ;
#164 = DIRECTION ( 'NONE',  ( 0.000000000000000000, 0.000000000000000000, 1.000000000000000000 ) ) ;
#165 = ORIENTED_EDGE ( 'NONE', *, *, #38, .F. ) ;
#166 = APPROVAL ( #154, 'UNSPECIFIED' ) ;
#167 = CARTESIAN_POINT ( 'NONE',  ( -36.70332301863295754, 0.000000000000000000, 15.50000000000000000 ) ) ;
#168 = ORIENTED_EDGE ( 'NONE', *, *, #322, .F. ) ;
#169 = VECTOR ( 'NONE', #310, 1000.000000000000000 ) ;
#170 = DIRECTION ( 'NONE',  ( -1.000000000000000000, -0.000000000000000000, -0.000000000000000000 ) ) ;
#171 = APPROVAL_PERSON_ORGANIZATION ( #408, #271, #239 ) ;
#172 = DIRECTION ( 'NONE',  ( -1.000000000000000000, -0.000000000000000000, -0.000000000000000000 ) ) ;
#173 = FACE_OUTER_BOUND ( 'NONE', #384, .T. ) ;
#174 = DIRECTION ( 'NONE',  ( -1.000000000000000000, -0.000000000000000000, -0.000000000000000000 ) ) ;
#175 = FACE_OUTER_BOUND ( 'NONE', #394, .T. ) ;
#176 = VERTEX_POINT ( 'NONE', #207 ) ;
#177 = AXIS2_PLACEMENT_3D ( 'NONE', #61, #87, #420 ) ;
#178 = CYLINDRICAL_SURFACE ( 'NONE', #385, 17.50000000000000000 ) ;
#179 = CIRCLE ( 'NONE', #91, 12.50000000000000000 ) ;
#180 = APPROVAL_STATUS ( 'not_yet_approved' ) ;
#181 = FACE_BOUND ( 'NONE', #225, .T. ) ;
#182 = VERTEX_POINT ( 'NONE', #16 ) ;
#183 = COORDINATED_UNIVERSAL_TIME_OFFSET ( 1, 0, .AHEAD. ) ;
#184 = EDGE_CURVE ( 'NONE', #301, #74, #338, .T. ) ;
#185 = CARTESIAN_POINT ( 'NONE',  ( -9.750000000000001776, 0.000000000000000000, 0.000000000000000000 ) ) ;
#186 = CARTESIAN_POINT ( 'NONE',  ( 0.7499999999999937828, 0.000000000000000000, 0.000000000000000000 ) ) ;
#187 = VECTOR ( 'NONE', #170, 1000.000000000000000 ) ;
#188 = PERSON_AND_ORGANIZATION_ROLE ( 'creator' ) ;
#189 = CARTESIAN_POINT ( 'NONE',  ( 9.749999999999994671, 0.000000000000000000, 15.00000000000000000 ) ) ;
#190 = EDGE_CURVE ( 'NONE', #176, #151, #14, .T. ) ;
#191 = ORIENTED_EDGE ( 'NONE', *, *, #111, .T. ) ;
#192 = PERSON_AND_ORGANIZATION_ROLE ( 'design_supplier' ) ;
#193 = CARTESIAN_POINT ( 'NONE',  ( 0.7499999999999970024, 15.50000000000000000, 0.000000000000000000 ) ) ;
#194 = ORIENTED_EDGE ( 'NONE', *, *, #426, .T. ) ;
#195 = DIRECTION ( 'NONE',  ( 0.000000000000000000, 0.000000000000000000, 1.000000000000000000 ) ) ;
#196 = CIRCLE ( 'NONE', #257, 15.50000000000000000 ) ;
#197 = APPLICATION_CONTEXT ( 'configuration controlled 3d designs of mechanical parts and assemblies' ) ;
#198 = CC_DESIGN_SECURITY_CLASSIFICATION ( #72, ( #44 ) ) ;
#199 = CC_DESIGN_PERSON_AND_ORGANIZATION_ASSIGNMENT ( #354, #213, ( #17 ) ) ;
#200 = ORIENTED_EDGE ( 'NONE', *, *, #273, .F. ) ;
#201 = VECTOR ( 'NONE', #214, 1000.000000000000000 ) ;
#202 = LOCAL_TIME ( 22, 27, 29.00000000000000000, #226 ) ;
#203 = DIRECTION ( 'NONE',  ( -1.000000000000000000, -0.000000000000000000, -0.000000000000000000 ) ) ;
#204 = ORIENTED_EDGE ( 'NONE', *, *, #184, .F. ) ;
#205 = LINE ( 'NONE', #40, #7 ) ;
#206 = ORIENTED_EDGE ( 'NONE', *, *, #328, .F. ) ;
#207 = CARTESIAN_POINT ( 'NONE',  ( -9.750000000000001776, 0.000000000000000000, 17.50000000000000000 ) ) ;
#208 = DIRECTION ( 'NONE',  ( -1.000000000000000000, -0.000000000000000000, -0.000000000000000000 ) ) ;
#209 =( NAMED_UNIT ( * ) SI_UNIT ( $, .STERADIAN. ) SOLID_ANGLE_UNIT ( ) );
#210 = LINE ( 'NONE', #48, #169 ) ;
#211 = EDGE_LOOP ( 'NONE', ( #116, #265, #237, #334 ) ) ;
#212 = DIRECTION ( 'NONE',  ( -1.000000000000000000, -0.000000000000000000, -0.000000000000000000 ) ) ;
#213 = PERSON_AND_ORGANIZATION_ROLE ( 'creator' ) ;
#214 = DIRECTION ( 'NONE',  ( -1.000000000000000000, -0.000000000000000000, -0.000000000000000000 ) ) ;
#215 = AXIS2_PLACEMENT_3D ( 'NONE', #269, #308, #42 ) ;
#216 = EDGE_CURVE ( 'NONE', #3, #266, #367, .T. ) ;
#217 = APPROVAL_ROLE ( '' ) ;
#218 = CYLINDRICAL_SURFACE ( 'NONE', #423, 15.50000000000000000 ) ;
#219 = VERTEX_POINT ( 'NONE', #387 ) ;
#220 = PERSON_AND_ORGANIZATION ( #33, #232 ) ;
#221 = PLANE ( 'NONE',  #79 ) ;
#222 = EDGE_LOOP ( 'NONE', ( #22, #194, #135, #69 ) ) ;
#223 = CALENDAR_DATE ( 2024, 2, 9 ) ;
#224 = LINE ( 'NONE', #327, #67 ) ;
#225 = EDGE_LOOP ( 'NONE', ( #131, #393 ) ) ;
#226 = COORDINATED_UNIVERSAL_TIME_OFFSET ( 1, 0, .AHEAD. ) ;
#227 = DIRECTION ( 'NONE',  ( 0.000000000000000000, 0.000000000000000000, 1.000000000000000000 ) ) ;
#228 = VERTEX_POINT ( 'NONE', #189 ) ;
#229 = CARTESIAN_POINT ( 'NONE',  ( 9.749999999999994671, 1.836970198721029589E-15, -15.00000000000000000 ) ) ;
#230 = APPROVAL ( #180, 'UNSPECIFIED' ) ;
#231 = CIRCLE ( 'NONE', #276, 15.50000000000000000 ) ;
#232 = ORGANIZATION ( 'UNSPECIFIED', 'UNSPECIFIED', '' ) ;
#233 = CC_DESIGN_PERSON_AND_ORGANIZATION_ASSIGNMENT ( #145, #337, ( #264 ) ) ;
#234 = ORIENTED_EDGE ( 'NONE', *, *, #38, .T. ) ;
#235 = ADVANCED_FACE ( 'NONE', ( #28 ), #218, .T. ) ;
#236 = ORIENTED_EDGE ( 'NONE', *, *, #1, .T. ) ;
#237 = ORIENTED_EDGE ( 'NONE', *, *, #395, .T. ) ;
#238 = CYLINDRICAL_SURFACE ( 'NONE', #250, 15.00000000000000000 ) ;
#239 = APPROVAL_ROLE ( '' ) ;
#240 = DIRECTION ( 'NONE',  ( -1.000000000000000000, -0.000000000000000000, -0.000000000000000000 ) ) ;
#241 = VECTOR ( 'NONE', #429, 1000.000000000000000 ) ;
#242 = ADVANCED_FACE ( 'NONE', ( #56 ), #382, .T. ) ;
#243 = CONICAL_SURFACE ( 'NONE', #262, 17.50000000000000000, 1.396263401595468689 ) ;
#244 = CYLINDRICAL_SURFACE ( 'NONE', #215, 12.50000000000000000 ) ;
#245 = DIRECTION ( 'NONE',  ( 0.000000000000000000, 0.000000000000000000, -1.000000000000000000 ) ) ;
#246 = PLANE ( 'NONE',  #35 ) ;
#247 = FACE_OUTER_BOUND ( 'NONE', #255, .T. ) ;
#248 = ADVANCED_FACE ( 'NONE', ( #26 ), #147, .T. ) ;
#249 = COORDINATED_UNIVERSAL_TIME_OFFSET ( 1, 0, .AHEAD. ) ;
#250 = AXIS2_PLACEMENT_3D ( 'NONE', #107, #278, #146 ) ;
#251 = CARTESIAN_POINT ( 'NONE',  ( 0.7499999999999937828, 0.000000000000000000, 15.50000000000000000 ) ) ;
#252 = CARTESIAN_POINT ( 'NONE',  ( -36.70332301863295754, 0.000000000000000000, 0.000000000000000000 ) ) ;
#253 = DATE_AND_TIME ( #92, #314 ) ;
#254 = CARTESIAN_POINT ( 'NONE',  ( 9.749999999999994671, 0.000000000000000000, 0.000000000000000000 ) ) ;
#255 = EDGE_LOOP ( 'NONE', ( #428, #410, #293, #298 ) ) ;
#256 = CARTESIAN_POINT ( 'NONE',  ( 9.749999999999994671, 0.000000000000000000, 0.000000000000000000 ) ) ;
#257 = AXIS2_PLACEMENT_3D ( 'NONE', #340, #376, #11 ) ;
#258 = CC_DESIGN_APPROVAL ( #230, ( #44 ) ) ;
#259 = EDGE_LOOP ( 'NONE', ( #191, #357, #331, #5 ) ) ;
#260 = DIRECTION ( 'NONE',  ( 0.000000000000000000, 0.000000000000000000, 1.000000000000000000 ) ) ;
#261 = DESIGN_CONTEXT ( 'detailed design', #134, 'design' ) ;
#262 = AXIS2_PLACEMENT_3D ( 'NONE', #140, #272, #401 ) ;
#263 = ORIENTED_EDGE ( 'NONE', *, *, #273, .T. ) ;
#264 = PRODUCT ( '3D-LR-131-SE_30-25_17106560', '3D-LR-131-SE_30-25_17106560', '', ( #398 ) ) ;
#265 = ORIENTED_EDGE ( 'NONE', *, *, #52, .T. ) ;
#266 = VERTEX_POINT ( 'NONE', #88 ) ;
#267 = AXIS2_PLACEMENT_3D ( 'NONE', #290, #127, #227 ) ;
#268 = AXIS2_PLACEMENT_3D ( 'NONE', #10, #372, #274 ) ;
#269 = CARTESIAN_POINT ( 'NONE',  ( -36.70332301863295754, 0.000000000000000000, 0.000000000000000000 ) ) ;
#270 = LINE ( 'NONE', #307, #201 ) ;
#271 = APPROVAL ( #106, 'UNSPECIFIED' ) ;
#272 = DIRECTION ( 'NONE',  ( -1.000000000000000000, -0.000000000000000000, -0.000000000000000000 ) ) ;
#273 = EDGE_CURVE ( 'NONE', #151, #176, #391, .T. ) ;
#274 = DIRECTION ( 'NONE',  ( 0.000000000000000000, 0.000000000000000000, 1.000000000000000000 ) ) ;
#275 = CARTESIAN_POINT ( 'NONE',  ( -8.550000000000002487, 0.000000000000000000, 0.000000000000000000 ) ) ;
#276 = AXIS2_PLACEMENT_3D ( 'NONE', #20, #212, #82 ) ;
#277 = UNCERTAINTY_MEASURE_WITH_UNIT (LENGTH_MEASURE( 1.000000000000000082E-05 ), #108, 'distance_accuracy_value', 'NONE');
#278 = DIRECTION ( 'NONE',  ( -1.000000000000000000, -0.000000000000000000, -0.000000000000000000 ) ) ;
#279 = APPLICATION_PROTOCOL_DEFINITION ( 'international standard', 'config_control_design', 1994, #134 ) ;
#280 = EDGE_CURVE ( 'NONE', #361, #99, #397, .T. ) ;
#281 = DIRECTION ( 'NONE',  ( 0.000000000000000000, 0.000000000000000000, 1.000000000000000000 ) ) ;
#282 = ORIENTED_EDGE ( 'NONE', *, *, #297, .F. ) ;
#283 = CALENDAR_DATE ( 2024, 2, 9 ) ;
#284 = CYLINDRICAL_SURFACE ( 'NONE', #110, 15.50000000000000000 ) ;
#285 = ORIENTED_EDGE ( 'NONE', *, *, #19, .T. ) ;
#286 = DATE_AND_TIME ( #412, #330 ) ;
#287 = DIRECTION ( 'NONE',  ( -1.000000000000000000, -0.000000000000000000, -0.000000000000000000 ) ) ;
#288 = APPROVAL_PERSON_ORGANIZATION ( #349, #230, #114 ) ;
#289 = ORIENTED_EDGE ( 'NONE', *, *, #352, .T. ) ;
#290 = CARTESIAN_POINT ( 'NONE',  ( -36.70332301863295754, 0.000000000000000000, 0.000000000000000000 ) ) ;
#291 = PERSON_AND_ORGANIZATION ( #33, #232 ) ;
#292 = DIRECTION ( 'NONE',  ( 0.000000000000000000, 0.000000000000000000, 1.000000000000000000 ) ) ;
#293 = ORIENTED_EDGE ( 'NONE', *, *, #66, .T. ) ;
#294 = PERSON_AND_ORGANIZATION ( #33, #232 ) ;
#295 = DIRECTION ( 'NONE',  ( 0.000000000000000000, 0.000000000000000000, 1.000000000000000000 ) ) ;
#296 = AXIS2_PLACEMENT_3D ( 'NONE', #302, #4, #81 ) ;
#297 = EDGE_CURVE ( 'NONE', #74, #219, #339, .T. ) ;
#298 = ORIENTED_EDGE ( 'NONE', *, *, #388, .F. ) ;
#299 = AXIS2_PLACEMENT_3D ( 'NONE', #343, #240, #47 ) ;
#300 = EDGE_LOOP ( 'NONE', ( #165, #94 ) ) ;
#301 = VERTEX_POINT ( 'NONE', #229 ) ;
#302 = CARTESIAN_POINT ( 'NONE',  ( 0.000000000000000000, 0.000000000000000000, 0.000000000000000000 ) ) ;
#303 = VERTEX_POINT ( 'NONE', #350 ) ;
#304 = VECTOR ( 'NONE', #84, 1000.000000000000000 ) ;
#305 = CC_DESIGN_PERSON_AND_ORGANIZATION_ASSIGNMENT ( #291, #416, ( #72 ) ) ;
#306 = ADVANCED_FACE ( 'NONE', ( #380, #353 ), #221, .T. ) ;
#307 = CARTESIAN_POINT ( 'NONE',  ( -36.70332301863295754, 0.000000000000000000, 15.00000000000000000 ) ) ;
#308 = DIRECTION ( 'NONE',  ( -1.000000000000000000, -0.000000000000000000, -0.000000000000000000 ) ) ;
#309 = DIRECTION ( 'NONE',  ( -1.000000000000000000, -0.000000000000000000, -0.000000000000000000 ) ) ;
#310 = DIRECTION ( 'NONE',  ( -1.000000000000000000, -0.000000000000000000, -0.000000000000000000 ) ) ;
#311 = ORIENTED_EDGE ( 'NONE', *, *, #370, .F. ) ;
#312 = ADVANCED_FACE ( 'NONE', ( #362 ), #284, .T. ) ;
#313 = AXIS2_PLACEMENT_3D ( 'NONE', #185, #421, #195 ) ;
#314 = LOCAL_TIME ( 22, 27, 29.00000000000000000, #18 ) ;
#315 = CARTESIAN_POINT ( 'NONE',  ( -9.750000000000001776, 0.000000000000000000, 0.000000000000000000 ) ) ;
#316 = DATE_TIME_ROLE ( 'creation_date' ) ;
#317 = CARTESIAN_POINT ( 'NONE',  ( 9.749999999999996447, 15.00000000000000000, 0.000000000000000000 ) ) ;
#318 = DIRECTION ( 'NONE',  ( 0.000000000000000000, 0.000000000000000000, 1.000000000000000000 ) ) ;
#319 = CC_DESIGN_DATE_AND_TIME_ASSIGNMENT ( #60, #316, ( #17 ) ) ;
#320 = DIRECTION ( 'NONE',  ( 0.000000000000000000, 0.000000000000000000, 1.000000000000000000 ) ) ;
#321 = AXIS2_PLACEMENT_3D ( 'NONE', #193, #115, #89 ) ;
#322 = EDGE_CURVE ( 'NONE', #301, #228, #364, .T. ) ;
#323 = SECURITY_CLASSIFICATION_LEVEL ( 'unclassified' ) ;
#324 = CARTESIAN_POINT ( 'NONE',  ( -9.750000000000001776, 0.000000000000000000, 0.000000000000000000 ) ) ;
#325 = VERTEX_POINT ( 'NONE', #23 ) ;
#326 = ADVANCED_BREP_SHAPE_REPRESENTATION ( '3D-LR-131-SE_30-25_17106560', ( #407, #296 ), #130 ) ;
#327 = CARTESIAN_POINT ( 'NONE',  ( -8.550000000000002487, 2.143131898507868248E-15, -17.50000000000000000 ) ) ;
#328 = EDGE_CURVE ( 'NONE', #99, #361, #179, .T. ) ;
#329 = FACE_OUTER_BOUND ( 'NONE', #24, .T. ) ;
#330 = LOCAL_TIME ( 22, 27, 29.00000000000000000, #183 ) ;
#331 = ORIENTED_EDGE ( 'NONE', *, *, #190, .F. ) ;
#332 = LINE ( 'NONE', #37, #241 ) ;
#333 = AXIS2_PLACEMENT_3D ( 'NONE', #252, #95, #292 ) ;
#334 = ORIENTED_EDGE ( 'NONE', *, *, #426, .F. ) ;
#335 = ORIENTED_EDGE ( 'NONE', *, *, #414, .F. ) ;
#336 = ADVANCED_FACE ( 'NONE', ( #383, #329 ), #413, .T. ) ;
#337 = PERSON_AND_ORGANIZATION_ROLE ( 'design_owner' ) ;
#338 = LINE ( 'NONE', #43, #129 ) ;
#339 = CIRCLE ( 'NONE', #125, 15.00000000000000000 ) ;
#340 = CARTESIAN_POINT ( 'NONE',  ( 0.7499999999999937828, 0.000000000000000000, 0.000000000000000000 ) ) ;
#341 = CARTESIAN_POINT ( 'NONE',  ( -9.750000000000001776, 2.143131898507868248E-15, -17.50000000000000000 ) ) ;
#342 = DIRECTION ( 'NONE',  ( -1.000000000000000000, -0.000000000000000000, -0.000000000000000000 ) ) ;
#343 = CARTESIAN_POINT ( 'NONE',  ( -9.750000000000001776, 0.000000000000000000, 0.000000000000000000 ) ) ;
#344 = CIRCLE ( 'NONE', #162, 15.50000000000000000 ) ;
#345 = CIRCLE ( 'NONE', #268, 15.50000000000000000 ) ;
#346 = APPROVAL_DATE_TIME ( #286, #271 ) ;
#347 = CARTESIAN_POINT ( 'NONE',  ( -36.70332301863295754, 0.000000000000000000, 0.000000000000000000 ) ) ;
#348 = VERTEX_POINT ( 'NONE', #251 ) ;
#349 = PERSON_AND_ORGANIZATION ( #33, #232 ) ;
#350 = CARTESIAN_POINT ( 'NONE',  ( -8.197346038583082972, 0.000000000000000000, 15.50000000000000000 ) ) ;
#351 = CC_DESIGN_PERSON_AND_ORGANIZATION_ASSIGNMENT ( #294, #188, ( #44 ) ) ;
#352 = EDGE_CURVE ( 'NONE', #32, #3, #224, .T. ) ;
#353 = FACE_BOUND ( 'NONE', #300, .T. ) ;
#354 = PERSON_AND_ORGANIZATION ( #33, #232 ) ;
#355 = AXIS2_PLACEMENT_3D ( 'NONE', #36, #132, #164 ) ;
#356 = DIRECTION ( 'NONE',  ( -1.000000000000000000, -0.000000000000000000, -0.000000000000000000 ) ) ;
#357 = ORIENTED_EDGE ( 'NONE', *, *, #138, .T. ) ;
#358 = APPROVAL_DATE_TIME ( #253, #166 ) ;
#359 = DIRECTION ( 'NONE',  ( -1.000000000000000000, 0.000000000000000000, -0.000000000000000000 ) ) ;
#360 = ADVANCED_FACE ( 'NONE', ( #71 ), #160, .T. ) ;
#361 = VERTEX_POINT ( 'NONE', #98 ) ;
#362 = FACE_OUTER_BOUND ( 'NONE', #55, .T. ) ;
#363 = AXIS2_PLACEMENT_3D ( 'NONE', #347, #208, #409 ) ;
#364 = CIRCLE ( 'NONE', #424, 15.00000000000000000 ) ;
#365 = EDGE_LOOP ( 'NONE', ( #64, #263 ) ) ;
#366 = EDGE_LOOP ( 'NONE', ( #41, #418, #311, #39 ) ) ;
#367 = CIRCLE ( 'NONE', #177, 17.50000000000000000 ) ;
#368 = CC_DESIGN_APPROVAL ( #271, ( #17 ) ) ;
#369 = ORIENTED_EDGE ( 'NONE', *, *, #395, .F. ) ;
#370 = EDGE_CURVE ( 'NONE', #219, #74, #15, .T. ) ;
#371 = CARTESIAN_POINT ( 'NONE',  ( -36.70332301863295754, 0.000000000000000000, 0.000000000000000000 ) ) ;
#372 = DIRECTION ( 'NONE',  ( -1.000000000000000000, -0.000000000000000000, -0.000000000000000000 ) ) ;
#373 = DIRECTION ( 'NONE',  ( 0.000000000000000000, 0.000000000000000000, 1.000000000000000000 ) ) ;
#374 =( NAMED_UNIT ( * ) PLANE_ANGLE_UNIT ( ) SI_UNIT ( $, .RADIAN. ) );
#375 = LINE ( 'NONE', #80, #123 ) ;
#376 = DIRECTION ( 'NONE',  ( -1.000000000000000000, -0.000000000000000000, -0.000000000000000000 ) ) ;
#377 = CYLINDRICAL_SURFACE ( 'NONE', #363, 12.50000000000000000 ) ;
#378 = AXIS2_PLACEMENT_3D ( 'NONE', #2, #203, #68 ) ;
#379 = PERSON_AND_ORGANIZATION ( #33, #232 ) ;
#380 = FACE_OUTER_BOUND ( 'NONE', #365, .T. ) ;
#381 = EDGE_CURVE ( 'NONE', #182, #32, #205, .T. ) ;
#382 = CYLINDRICAL_SURFACE ( 'NONE', #267, 17.50000000000000000 ) ;
#383 = FACE_BOUND ( 'NONE', #121, .T. ) ;
#384 = EDGE_LOOP ( 'NONE', ( #422, #206, #73, #234 ) ) ;
#385 = AXIS2_PLACEMENT_3D ( 'NONE', #371, #172, #281 ) ;
#386 = LOCAL_TIME ( 22, 27, 29.00000000000000000, #249 ) ;
#387 = CARTESIAN_POINT ( 'NONE',  ( 0.7499999999999937828, 0.000000000000000000, 15.00000000000000000 ) ) ;
#388 = EDGE_CURVE ( 'NONE', #99, #100, #136, .T. ) ;
#389 = ORIENTED_EDGE ( 'NONE', *, *, #157, .T. ) ;
#390 = DIRECTION ( 'NONE',  ( -0.000000000000000000, 0.000000000000000000, 1.000000000000000000 ) ) ;
#391 = CIRCLE ( 'NONE', #29, 17.50000000000000000 ) ;
#392 = ADVANCED_FACE ( 'NONE', ( #173 ), #244, .F. ) ;
#393 = ORIENTED_EDGE ( 'NONE', *, *, #280, .T. ) ;
#394 = EDGE_LOOP ( 'NONE', ( #156, #168 ) ) ;
#395 = EDGE_CURVE ( 'NONE', #348, #303, #8, .T. ) ;
#396 = ORIENTED_EDGE ( 'NONE', *, *, #381, .T. ) ;
#397 = CIRCLE ( 'NONE', #101, 12.50000000000000000 ) ;
#398 = MECHANICAL_CONTEXT ( 'NONE', #197, 'mechanical' ) ;
#399 = DIRECTION ( 'NONE',  ( -1.000000000000000000, -0.000000000000000000, -0.000000000000000000 ) ) ;
#400 = APPLICATION_PROTOCOL_DEFINITION ( 'international standard', 'config_control_design', 1994, #197 ) ;
#401 = DIRECTION ( 'NONE',  ( 0.000000000000000000, 0.000000000000000000, 1.000000000000000000 ) ) ;
#402 = DIRECTION ( 'NONE',  ( -1.000000000000000000, -0.000000000000000000, -0.000000000000000000 ) ) ;
#403 = CIRCLE ( 'NONE', #78, 12.49999999999999822 ) ;
#404 = APPROVAL_PERSON_ORGANIZATION ( #220, #166, #217 ) ;
#405 = LINE ( 'NONE', #12, #51 ) ;
#406 = CARTESIAN_POINT ( 'NONE',  ( 9.749999999999994671, 0.000000000000000000, 12.50000000000000000 ) ) ;
#407 = MANIFOLD_SOLID_BREP ( 'Rotation1', #427 ) ;
#408 = PERSON_AND_ORGANIZATION ( #33, #232 ) ;
#409 = DIRECTION ( 'NONE',  ( 0.000000000000000000, 0.000000000000000000, 1.000000000000000000 ) ) ;
#410 = ORIENTED_EDGE ( 'NONE', *, *, #149, .T. ) ;
#411 = PRODUCT_RELATED_PRODUCT_CATEGORY ( 'detail', '', ( #264 ) ) ;
#412 = CALENDAR_DATE ( 2024, 2, 9 ) ;
#413 = PLANE ( 'NONE',  #321 ) ;
#414 = EDGE_CURVE ( 'NONE', #303, #266, #405, .T. ) ;
#415 = ORIENTED_EDGE ( 'NONE', *, *, #96, .F. ) ;
#416 = PERSON_AND_ORGANIZATION_ROLE ( 'classification_officer' ) ;
#417 = CARTESIAN_POINT ( 'NONE',  ( 9.749999999999994671, 0.000000000000000000, 0.000000000000000000 ) ) ;
#418 = ORIENTED_EDGE ( 'NONE', *, *, #184, .T. ) ;
#419 = COORDINATED_UNIVERSAL_TIME_OFFSET ( 1, 0, .AHEAD. ) ;
#420 = DIRECTION ( 'NONE',  ( 0.000000000000000000, 0.000000000000000000, 1.000000000000000000 ) ) ;
#421 = DIRECTION ( 'NONE',  ( -1.000000000000000000, -0.000000000000000000, -0.000000000000000000 ) ) ;
#422 = ORIENTED_EDGE ( 'NONE', *, *, #149, .F. ) ;
#423 = AXIS2_PLACEMENT_3D ( 'NONE', #120, #287, #295 ) ;
#424 = AXIS2_PLACEMENT_3D ( 'NONE', #254, #58, #320 ) ;
#425 = DIRECTION ( 'NONE',  ( -1.000000000000000000, -0.000000000000000000, -0.000000000000000000 ) ) ;
#426 = EDGE_CURVE ( 'NONE', #32, #303, #345, .T. ) ;
#427 = CLOSED_SHELL ( 'NONE', ( #248, #312, #360, #242, #83, #128, #392, #306, #76, #31, #235, #336, #46 ) ) ;
#428 = ORIENTED_EDGE ( 'NONE', *, *, #280, .F. ) ;
#429 = DIRECTION ( 'NONE',  ( -1.000000000000000000, -0.000000000000000000, -0.000000000000000000 ) ) ;
ENDSEC;
END-ISO-10303-21;
