ISO-10303-21;
HEADER;
FILE_DESCRIPTION (( 'STEP AP203' ),
    '1' );
FILE_NAME ('3D_R152_DN21.3_17305165.STEP',
    '2024-08-13T07:32:20',
    ( '' ),
    ( '' ),
    'SwSTEP 2.0',
    'SolidWorks 2024',
    '' );
FILE_SCHEMA (( 'CONFIG_CONTROL_DESIGN' ));
ENDSEC;

DATA;
#1 = APPROVAL_PERSON_ORGANIZATION ( #130, #153, #110 ) ;
#2 = FACE_OUTER_BOUND ( 'NONE', #185, .T. ) ;
#3 = DIRECTION ( 'NONE',  ( 0.000000000000000000, 0.000000000000000000, -1.000000000000000000 ) ) ;
#4 = PERSON ( 'UNSPECIFIED', 'UNSPECIFIED', 'UNSPECIFIED', ('UNSPECIFIED'), ('UNSPECIFIED'), ('UNSPECIFIED') ) ;
#5 = PERSON_AND_ORGANIZATION ( #4, #38 ) ;
#6 = APPLICATION_CONTEXT ( 'configuration controlled 3d designs of mechanical parts and assemblies' ) ;
#7 = CC_DESIGN_PERSON_AND_ORGANIZATION_ASSIGNMENT ( #5, #53, ( #126 ) ) ;
#8 = DATE_TIME_ROLE ( 'creation_date' ) ;
#9 = CIRCLE ( 'NONE', #31, 22.50000000000000355 ) ;
#10 = VERTEX_POINT ( 'NONE', #138 ) ;
#11 = ADVANCED_FACE ( 'NONE', ( #245 ), #116, .T. ) ;
#12 = CARTESIAN_POINT ( 'NONE',  ( 0.000000000000000000, 0.000000000000000000, 0.000000000000000000 ) ) ;
#13 = DIRECTION ( 'NONE',  ( 0.000000000000000000, 0.000000000000000000, -1.000000000000000000 ) ) ;
#14 = CC_DESIGN_APPROVAL ( #170, ( #126 ) ) ;
#15 = EDGE_CURVE ( 'NONE', #54, #226, #125, .T. ) ;
#16 = CARTESIAN_POINT ( 'NONE',  ( 0.000000000000000000, 6.000000000000000000, 0.000000000000000000 ) ) ;
#17 = PLANE ( 'NONE',  #163 ) ;
#18 = DIRECTION ( 'NONE',  ( 0.000000000000000000, 0.000000000000000000, 1.000000000000000000 ) ) ;
#19 = ADVANCED_FACE ( 'NONE', ( #168, #187 ), #17, .T. ) ;
#20 = APPLICATION_PROTOCOL_DEFINITION ( 'international standard', 'config_control_design', 1994, #6 ) ;
#21 = DIRECTION ( 'NONE',  ( 0.000000000000000000, 1.000000000000000000, 0.000000000000000000 ) ) ;
#22 = ORIENTED_EDGE ( 'NONE', *, *, #15, .T. ) ;
#23 = AXIS2_PLACEMENT_3D ( 'NONE', #12, #99, #80 ) ;
#24 = APPROVAL ( #69, 'UNSPECIFIED' ) ;
#25 = CARTESIAN_POINT ( 'NONE',  ( 5.425185320222774479E-15, 0.000000000000000000, 44.29999999999999716 ) ) ;
#26 = VERTEX_POINT ( 'NONE', #58 ) ;
#27 = COORDINATED_UNIVERSAL_TIME_OFFSET ( 1, 0, .AHEAD. ) ;
#28 = DATE_AND_TIME ( #73, #77 ) ;
#29 = PERSON_AND_ORGANIZATION ( #4, #38 ) ;
#30 = EDGE_CURVE ( 'NONE', #183, #10, #144, .T. ) ;
#31 = AXIS2_PLACEMENT_3D ( 'NONE', #161, #189, #142 ) ;
#32 = ORIENTED_EDGE ( 'NONE', *, *, #128, .T. ) ;
#33 = DIRECTION ( 'NONE',  ( -0.000000000000000000, -1.000000000000000000, -0.000000000000000000 ) ) ;
#34 = ORIENTED_EDGE ( 'NONE', *, *, #82, .F. ) ;
#35 = PRODUCT_RELATED_PRODUCT_CATEGORY ( 'detail', '', ( #175 ) ) ;
#36 = CARTESIAN_POINT ( 'NONE',  ( 2.755455298081545172E-15, 6.000000000000000000, 22.50000000000000355 ) ) ;
#37 = AXIS2_PLACEMENT_3D ( 'NONE', #100, #98, #154 ) ;
#38 = ORGANIZATION ( 'UNSPECIFIED', 'UNSPECIFIED', '' ) ;
#39 = CARTESIAN_POINT ( 'NONE',  ( 0.000000000000000000, 6.000000000000000000, 0.000000000000000000 ) ) ;
#40 = EDGE_CURVE ( 'NONE', #169, #10, #75, .T. ) ;
#41 =( NAMED_UNIT ( * ) SI_UNIT ( $, .STERADIAN. ) SOLID_ANGLE_UNIT ( ) );
#42 = CARTESIAN_POINT ( 'NONE',  ( 0.000000000000000000, 6.000000000000000000, 0.000000000000000000 ) ) ;
#43 = AXIS2_PLACEMENT_3D ( 'NONE', #158, #242, #78 ) ;
#44 = AXIS2_PLACEMENT_3D ( 'NONE', #122, #179, #83 ) ;
#45 = FACE_BOUND ( 'NONE', #225, .T. ) ;
#46 = EDGE_CURVE ( 'NONE', #10, #183, #117, .T. ) ;
#47 = EDGE_LOOP ( 'NONE', ( #160, #22, #108, #186 ) ) ;
#48 = AXIS2_PLACEMENT_3D ( 'NONE', #124, #210, #123 ) ;
#49 = PERSON_AND_ORGANIZATION_ROLE ( 'creator' ) ;
#50 = APPROVAL_ROLE ( '' ) ;
#51 = CALENDAR_DATE ( 2024, 13, 8 ) ;
#52 = EDGE_LOOP ( 'NONE', ( #115, #223 ) ) ;
#53 = PERSON_AND_ORGANIZATION_ROLE ( 'design_supplier' ) ;
#54 = VERTEX_POINT ( 'NONE', #172 ) ;
#55 = CC_DESIGN_SECURITY_CLASSIFICATION ( #118, ( #126 ) ) ;
#56 = ORIENTED_EDGE ( 'NONE', *, *, #74, .T. ) ;
#57 = CARTESIAN_POINT ( 'NONE',  ( 0.000000000000000000, 0.000000000000000000, -22.50000000000000355 ) ) ;
#58 = CARTESIAN_POINT ( 'NONE',  ( 2.755455298081545172E-15, 0.000000000000000000, 22.50000000000000355 ) ) ;
#59 = DIRECTION ( 'NONE',  ( 0.000000000000000000, 1.000000000000000000, 0.000000000000000000 ) ) ;
#60 = AXIS2_PLACEMENT_3D ( 'NONE', #171, #59, #199 ) ;
#61 = DIRECTION ( 'NONE',  ( 0.000000000000000000, 1.000000000000000000, 0.000000000000000000 ) ) ;
#62 = ADVANCED_FACE ( 'NONE', ( #139 ), #173, .F. ) ;
#63 = DIRECTION ( 'NONE',  ( 0.000000000000000000, 0.000000000000000000, 1.000000000000000000 ) ) ;
#64 = DIRECTION ( 'NONE',  ( 0.000000000000000000, 1.000000000000000000, 0.000000000000000000 ) ) ;
#65 = DIRECTION ( 'NONE',  ( -0.000000000000000000, -1.000000000000000000, -0.000000000000000000 ) ) ;
#66 = VERTEX_POINT ( 'NONE', #57 ) ;
#67 = APPROVAL_STATUS ( 'not_yet_approved' ) ;
#68 = EDGE_CURVE ( 'NONE', #235, #169, #72, .T. ) ;
#69 = APPROVAL_STATUS ( 'not_yet_approved' ) ;
#70 = APPROVAL_DATE_TIME ( #216, #24 ) ;
#71 = DATE_AND_TIME ( #111, #150 ) ;
#72 = CIRCLE ( 'NONE', #60, 44.29999999999999716 ) ;
#73 = CALENDAR_DATE ( 2024, 13, 8 ) ;
#74 = EDGE_CURVE ( 'NONE', #54, #26, #244, .T. ) ;
#75 = LINE ( 'NONE', #207, #219 ) ;
#76 = CC_DESIGN_DATE_AND_TIME_ASSIGNMENT ( #92, #8, ( #241 ) ) ;
#77 = LOCAL_TIME ( 9, 32, 20.00000000000000000, #146 ) ;
#78 = DIRECTION ( 'NONE',  ( 0.000000000000000000, 0.000000000000000000, 1.000000000000000000 ) ) ;
#79 = ORIENTED_EDGE ( 'NONE', *, *, #192, .T. ) ;
#80 = DIRECTION ( 'NONE',  ( 0.000000000000000000, 0.000000000000000000, 1.000000000000000000 ) ) ;
#81 = DIRECTION ( 'NONE',  ( -0.000000000000000000, -1.000000000000000000, -0.000000000000000000 ) ) ;
#82 = EDGE_CURVE ( 'NONE', #169, #235, #247, .T. ) ;
#83 = DIRECTION ( 'NONE',  ( 1.000000000000000000, 0.000000000000000000, 0.000000000000000000 ) ) ;
#84 = PERSON_AND_ORGANIZATION ( #4, #38 ) ;
#85 = ADVANCED_FACE ( 'NONE', ( #162, #45 ), #191, .F. ) ;
#86 = CARTESIAN_POINT ( 'NONE',  ( 0.000000000000000000, 6.000000000000000000, -22.50000000000000355 ) ) ;
#87 = LOCAL_TIME ( 9, 32, 20.00000000000000000, #239 ) ;
#88 = CARTESIAN_POINT ( 'NONE',  ( 0.000000000000000000, 6.000000000000000000, 0.000000000000000000 ) ) ;
#89 =( LENGTH_UNIT ( ) NAMED_UNIT ( * ) SI_UNIT ( .MILLI., .METRE. ) );
#90 = DESIGN_CONTEXT ( 'detailed design', #201, 'design' ) ;
#91 = CC_DESIGN_PERSON_AND_ORGANIZATION_ASSIGNMENT ( #29, #132, ( #241 ) ) ;
#92 = DATE_AND_TIME ( #51, #87 ) ;
#93 = VECTOR ( 'NONE', #119, 1000.000000000000000 ) ;
#94 = APPROVAL_DATE_TIME ( #28, #170 ) ;
#95 = EDGE_CURVE ( 'NONE', #226, #66, #105, .T. ) ;
#96 = COORDINATED_UNIVERSAL_TIME_OFFSET ( 1, 0, .AHEAD. ) ;
#97 = ORIENTED_EDGE ( 'NONE', *, *, #208, .T. ) ;
#98 = DIRECTION ( 'NONE',  ( 0.000000000000000000, 1.000000000000000000, 0.000000000000000000 ) ) ;
#99 = DIRECTION ( 'NONE',  ( 0.000000000000000000, 1.000000000000000000, 0.000000000000000000 ) ) ;
#100 = CARTESIAN_POINT ( 'NONE',  ( 0.000000000000000000, 0.000000000000000000, 0.000000000000000000 ) ) ;
#101 = DIRECTION ( 'NONE',  ( -0.000000000000000000, -1.000000000000000000, -0.000000000000000000 ) ) ;
#102 = DIRECTION ( 'NONE',  ( -0.000000000000000000, -1.000000000000000000, -0.000000000000000000 ) ) ;
#103 = CC_DESIGN_PERSON_AND_ORGANIZATION_ASSIGNMENT ( #177, #194, ( #175 ) ) ;
#104 = DIRECTION ( 'NONE',  ( -0.000000000000000000, -1.000000000000000000, -0.000000000000000000 ) ) ;
#105 = LINE ( 'NONE', #86, #106 ) ;
#106 = VECTOR ( 'NONE', #104, 1000.000000000000000 ) ;
#107 = LOCAL_TIME ( 9, 32, 20.00000000000000000, #96 ) ;
#108 = ORIENTED_EDGE ( 'NONE', *, *, #95, .T. ) ;
#109 = PERSON_AND_ORGANIZATION ( #4, #38 ) ;
#110 = APPROVAL_ROLE ( '' ) ;
#111 = CALENDAR_DATE ( 2024, 13, 8 ) ;
#112 = PERSON_AND_ORGANIZATION ( #4, #38 ) ;
#113 = ORIENTED_EDGE ( 'NONE', *, *, #208, .F. ) ;
#114 = DIRECTION ( 'NONE',  ( 0.000000000000000000, -0.000000000000000000, 1.000000000000000000 ) ) ;
#115 = ORIENTED_EDGE ( 'NONE', *, *, #46, .F. ) ;
#116 = CYLINDRICAL_SURFACE ( 'NONE', #232, 44.29999999999999716 ) ;
#117 = CIRCLE ( 'NONE', #37, 44.29999999999999716 ) ;
#118 = SECURITY_CLASSIFICATION ( '', '', #129 ) ;
#119 = DIRECTION ( 'NONE',  ( -0.000000000000000000, -1.000000000000000000, -0.000000000000000000 ) ) ;
#120 = ORIENTED_EDGE ( 'NONE', *, *, #221, .T. ) ;
#121 = MECHANICAL_CONTEXT ( 'NONE', #6, 'mechanical' ) ;
#122 = CARTESIAN_POINT ( 'NONE',  ( 0.000000000000000000, 0.000000000000000000, 0.000000000000000000 ) ) ;
#123 = DIRECTION ( 'NONE',  ( 0.000000000000000000, -0.000000000000000000, 1.000000000000000000 ) ) ;
#124 = CARTESIAN_POINT ( 'NONE',  ( 0.000000000000000000, 0.000000000000000000, 0.000000000000000000 ) ) ;
#125 = CIRCLE ( 'NONE', #43, 22.50000000000000355 ) ;
#126 = PRODUCT_DEFINITION_FORMATION_WITH_SPECIFIED_SOURCE ( 'ANY', '', #175, .NOT_KNOWN. ) ;
#127 = ORIENTED_EDGE ( 'NONE', *, *, #46, .T. ) ;
#128 = EDGE_CURVE ( 'NONE', #66, #26, #9, .T. ) ;
#129 = SECURITY_CLASSIFICATION_LEVEL ( 'unclassified' ) ;
#130 = PERSON_AND_ORGANIZATION ( #4, #38 ) ;
#131 = UNCERTAINTY_MEASURE_WITH_UNIT (LENGTH_MEASURE( 1.000000000000000082E-05 ), #89, 'distance_accuracy_value', 'NONE');
#132 = PERSON_AND_ORGANIZATION_ROLE ( 'creator' ) ;
#133 = ADVANCED_FACE ( 'NONE', ( #230 ), #167, .T. ) ;
#134 = COORDINATED_UNIVERSAL_TIME_OFFSET ( 1, 0, .AHEAD. ) ;
#135 = ORIENTED_EDGE ( 'NONE', *, *, #82, .T. ) ;
#136 = AXIS2_PLACEMENT_3D ( 'NONE', #88, #102, #3 ) ;
#137 = ORIENTED_EDGE ( 'NONE', *, *, #95, .F. ) ;
#138 = CARTESIAN_POINT ( 'NONE',  ( 0.000000000000000000, 0.000000000000000000, -44.29999999999999716 ) ) ;
#139 = FACE_OUTER_BOUND ( 'NONE', #47, .T. ) ;
#140 = CARTESIAN_POINT ( 'NONE',  ( 0.000000000000000000, 6.000000000000000000, 0.000000000000000000 ) ) ;
#141 = CARTESIAN_POINT ( 'NONE',  ( 5.425185320222774479E-15, 6.000000000000000000, 44.29999999999999716 ) ) ;
#142 = DIRECTION ( 'NONE',  ( 0.000000000000000000, 0.000000000000000000, 1.000000000000000000 ) ) ;
#143 = DIRECTION ( 'NONE',  ( -0.000000000000000000, -1.000000000000000000, -0.000000000000000000 ) ) ;
#144 = CIRCLE ( 'NONE', #23, 44.29999999999999716 ) ;
#145 = DIRECTION ( 'NONE',  ( 0.000000000000000000, 0.000000000000000000, -1.000000000000000000 ) ) ;
#146 = COORDINATED_UNIVERSAL_TIME_OFFSET ( 1, 0, .AHEAD. ) ;
#147 = CLOSED_SHELL ( 'NONE', ( #222, #133, #19, #85, #11, #62 ) ) ;
#148 = PERSON_AND_ORGANIZATION_ROLE ( 'classification_officer' ) ;
#149 = DATE_AND_TIME ( #217, #240 ) ;
#150 = LOCAL_TIME ( 9, 32, 20.00000000000000000, #27 ) ;
#151 = SHAPE_DEFINITION_REPRESENTATION ( #204, #195 ) ;
#152 = EDGE_LOOP ( 'NONE', ( #229, #234 ) ) ;
#153 = APPROVAL ( #197, 'UNSPECIFIED' ) ;
#154 = DIRECTION ( 'NONE',  ( 0.000000000000000000, 0.000000000000000000, 1.000000000000000000 ) ) ;
#155 = CC_DESIGN_APPROVAL ( #24, ( #241 ) ) ;
#156 = CARTESIAN_POINT ( 'NONE',  ( 0.000000000000000000, 6.000000000000000000, 0.000000000000000000 ) ) ;
#157 = ORIENTED_EDGE ( 'NONE', *, *, #40, .T. ) ;
#158 = CARTESIAN_POINT ( 'NONE',  ( 0.000000000000000000, 6.000000000000000000, 0.000000000000000000 ) ) ;
#159 = CIRCLE ( 'NONE', #211, 22.50000000000000355 ) ;
#160 = ORIENTED_EDGE ( 'NONE', *, *, #74, .F. ) ;
#161 = CARTESIAN_POINT ( 'NONE',  ( 0.000000000000000000, 0.000000000000000000, 0.000000000000000000 ) ) ;
#162 = FACE_OUTER_BOUND ( 'NONE', #52, .T. ) ;
#163 = AXIS2_PLACEMENT_3D ( 'NONE', #16, #184, #114 ) ;
#164 = CYLINDRICAL_SURFACE ( 'NONE', #136, 22.50000000000000355 ) ;
#165 = EDGE_LOOP ( 'NONE', ( #246, #97, #202, #220 ) ) ;
#166 = MANIFOLD_SOLID_BREP ( 'Aufsatz-Linear austragen1', #147 ) ;
#167 = CYLINDRICAL_SURFACE ( 'NONE', #227, 44.29999999999999716 ) ;
#168 = FACE_OUTER_BOUND ( 'NONE', #243, .T. ) ;
#169 = VERTEX_POINT ( 'NONE', #249 ) ;
#170 = APPROVAL ( #67, 'UNSPECIFIED' ) ;
#171 = CARTESIAN_POINT ( 'NONE',  ( 0.000000000000000000, 6.000000000000000000, 0.000000000000000000 ) ) ;
#172 = CARTESIAN_POINT ( 'NONE',  ( 2.755455298081545172E-15, 6.000000000000000000, 22.50000000000000355 ) ) ;
#173 = CYLINDRICAL_SURFACE ( 'NONE', #182, 22.50000000000000355 ) ;
#174 = APPROVAL_PERSON_ORGANIZATION ( #112, #170, #50 ) ;
#175 = PRODUCT ( '3D_R152_DN21.3_17305165', '3D_R152_DN21.3_17305165', '', ( #121 ) ) ;
#176 = CARTESIAN_POINT ( 'NONE',  ( 0.000000000000000000, 0.000000000000000000, 0.000000000000000000 ) ) ;
#177 = PERSON_AND_ORGANIZATION ( #4, #38 ) ;
#178 = CC_DESIGN_APPROVAL ( #153, ( #118 ) ) ;
#179 = DIRECTION ( 'NONE',  ( 0.000000000000000000, 0.000000000000000000, 1.000000000000000000 ) ) ;
#180 = EDGE_LOOP ( 'NONE', ( #113, #34, #157, #127 ) ) ;
#181 = CC_DESIGN_DATE_AND_TIME_ASSIGNMENT ( #149, #196, ( #118 ) ) ;
#182 = AXIS2_PLACEMENT_3D ( 'NONE', #156, #81, #224 ) ;
#183 = VERTEX_POINT ( 'NONE', #25 ) ;
#184 = DIRECTION ( 'NONE',  ( 0.000000000000000000, 1.000000000000000000, 0.000000000000000000 ) ) ;
#185 = EDGE_LOOP ( 'NONE', ( #120, #56, #205, #137 ) ) ;
#186 = ORIENTED_EDGE ( 'NONE', *, *, #192, .F. ) ;
#187 = FACE_BOUND ( 'NONE', #152, .T. ) ;
#188 = CC_DESIGN_PERSON_AND_ORGANIZATION_ASSIGNMENT ( #238, #148, ( #118 ) ) ;
#189 = DIRECTION ( 'NONE',  ( 0.000000000000000000, 1.000000000000000000, 0.000000000000000000 ) ) ;
#190 =( GEOMETRIC_REPRESENTATION_CONTEXT ( 3 ) GLOBAL_UNCERTAINTY_ASSIGNED_CONTEXT ( ( #131 ) ) GLOBAL_UNIT_ASSIGNED_CONTEXT ( ( #89, #213, #41 ) ) REPRESENTATION_CONTEXT ( 'NONE', 'WORKASPACE' ) );
#191 = PLANE ( 'NONE',  #48 ) ;
#192 = EDGE_CURVE ( 'NONE', #26, #66, #159, .T. ) ;
#193 = VECTOR ( 'NONE', #143, 1000.000000000000000 ) ;
#194 = PERSON_AND_ORGANIZATION_ROLE ( 'design_owner' ) ;
#195 = ADVANCED_BREP_SHAPE_REPRESENTATION ( '3D_R152_DN21.3_17305165', ( #166, #44 ), #190 ) ;
#196 = DATE_TIME_ROLE ( 'classification_date' ) ;
#197 = APPROVAL_STATUS ( 'not_yet_approved' ) ;
#198 = APPROVAL_DATE_TIME ( #71, #153 ) ;
#199 = DIRECTION ( 'NONE',  ( 0.000000000000000000, 0.000000000000000000, 1.000000000000000000 ) ) ;
#200 = AXIS2_PLACEMENT_3D ( 'NONE', #42, #21, #209 ) ;
#201 = APPLICATION_CONTEXT ( 'configuration controlled 3d designs of mechanical parts and assemblies' ) ;
#202 = ORIENTED_EDGE ( 'NONE', *, *, #30, .T. ) ;
#203 = ORIENTED_EDGE ( 'NONE', *, *, #68, .T. ) ;
#204 = PRODUCT_DEFINITION_SHAPE ( 'NONE', 'NONE',  #241 ) ;
#205 = ORIENTED_EDGE ( 'NONE', *, *, #128, .F. ) ;
#206 = AXIS2_PLACEMENT_3D ( 'NONE', #140, #61, #63 ) ;
#207 = CARTESIAN_POINT ( 'NONE',  ( 0.000000000000000000, 6.000000000000000000, -44.29999999999999716 ) ) ;
#208 = EDGE_CURVE ( 'NONE', #235, #183, #214, .T. ) ;
#209 = DIRECTION ( 'NONE',  ( 0.000000000000000000, 0.000000000000000000, 1.000000000000000000 ) ) ;
#210 = DIRECTION ( 'NONE',  ( 0.000000000000000000, 1.000000000000000000, 0.000000000000000000 ) ) ;
#211 = AXIS2_PLACEMENT_3D ( 'NONE', #176, #64, #18 ) ;
#212 = CARTESIAN_POINT ( 'NONE',  ( 0.000000000000000000, 6.000000000000000000, -22.50000000000000355 ) ) ;
#213 =( NAMED_UNIT ( * ) PLANE_ANGLE_UNIT ( ) SI_UNIT ( $, .RADIAN. ) );
#214 = LINE ( 'NONE', #141, #193 ) ;
#215 = CIRCLE ( 'NONE', #200, 22.50000000000000355 ) ;
#216 = DATE_AND_TIME ( #236, #107 ) ;
#217 = CALENDAR_DATE ( 2024, 13, 8 ) ;
#218 = APPROVAL_ROLE ( '' ) ;
#219 = VECTOR ( 'NONE', #101, 1000.000000000000000 ) ;
#220 = ORIENTED_EDGE ( 'NONE', *, *, #40, .F. ) ;
#221 = EDGE_CURVE ( 'NONE', #226, #54, #215, .T. ) ;
#222 = ADVANCED_FACE ( 'NONE', ( #2 ), #164, .F. ) ;
#223 = ORIENTED_EDGE ( 'NONE', *, *, #30, .F. ) ;
#224 = DIRECTION ( 'NONE',  ( 0.000000000000000000, 0.000000000000000000, -1.000000000000000000 ) ) ;
#225 = EDGE_LOOP ( 'NONE', ( #32, #79 ) ) ;
#226 = VERTEX_POINT ( 'NONE', #212 ) ;
#227 = AXIS2_PLACEMENT_3D ( 'NONE', #231, #65, #145 ) ;
#228 = APPROVAL_PERSON_ORGANIZATION ( #84, #24, #218 ) ;
#229 = ORIENTED_EDGE ( 'NONE', *, *, #221, .F. ) ;
#230 = FACE_OUTER_BOUND ( 'NONE', #165, .T. ) ;
#231 = CARTESIAN_POINT ( 'NONE',  ( 0.000000000000000000, 6.000000000000000000, 0.000000000000000000 ) ) ;
#232 = AXIS2_PLACEMENT_3D ( 'NONE', #39, #33, #13 ) ;
#233 = CARTESIAN_POINT ( 'NONE',  ( 5.425185320222774479E-15, 6.000000000000000000, 44.29999999999999716 ) ) ;
#234 = ORIENTED_EDGE ( 'NONE', *, *, #15, .F. ) ;
#235 = VERTEX_POINT ( 'NONE', #233 ) ;
#236 = CALENDAR_DATE ( 2024, 13, 8 ) ;
#237 = CC_DESIGN_PERSON_AND_ORGANIZATION_ASSIGNMENT ( #109, #49, ( #126 ) ) ;
#238 = PERSON_AND_ORGANIZATION ( #4, #38 ) ;
#239 = COORDINATED_UNIVERSAL_TIME_OFFSET ( 1, 0, .AHEAD. ) ;
#240 = LOCAL_TIME ( 9, 32, 20.00000000000000000, #134 ) ;
#241 = PRODUCT_DEFINITION ( 'UNKNOWN', '', #126, #90 ) ;
#242 = DIRECTION ( 'NONE',  ( 0.000000000000000000, 1.000000000000000000, 0.000000000000000000 ) ) ;
#243 = EDGE_LOOP ( 'NONE', ( #135, #203 ) ) ;
#244 = LINE ( 'NONE', #36, #93 ) ;
#245 = FACE_OUTER_BOUND ( 'NONE', #180, .T. ) ;
#246 = ORIENTED_EDGE ( 'NONE', *, *, #68, .F. ) ;
#247 = CIRCLE ( 'NONE', #206, 44.29999999999999716 ) ;
#248 = APPLICATION_PROTOCOL_DEFINITION ( 'international standard', 'config_control_design', 1994, #201 ) ;
#249 = CARTESIAN_POINT ( 'NONE',  ( 0.000000000000000000, 6.000000000000000000, -44.29999999999999716 ) ) ;
ENDSEC;
END-ISO-10303-21;
