ISO-10303-21;
HEADER;
/* Generated by software containing ST-Developer
 * from STEP Tools, Inc. (www.steptools.com) 
 */

FILE_DESCRIPTION(
/* description */ (''),
/* implementation_level */ '2;1');

FILE_NAME(
/* name */ 
'C:\\Users\\cad\\Desktop\\Zeichnungen neu von Ralph\\3D_Kupplung_R666-
PE\\3D_R666-PE-54-DN65_17113487.stp',
/* time_stamp */ '2021-06-18T14:26:52+02:00',
/* author */ ('cad'),
/* organization */ (''),
/* preprocessor_version */ 'ST-DEVELOPER v18.1',
/* originating_system */ 'Autodesk Inventor 2022',
/* authorisation */ '');

FILE_SCHEMA (('AUTOMOTIVE_DESIGN { 1 0 10303 214 3 1 1 }'));
ENDSEC;

DATA;
#10=MECHANICAL_DESIGN_GEOMETRIC_PRESENTATION_REPRESENTATION('',(#13),#503);
#11=SHAPE_REPRESENTATION_RELATIONSHIP('SRR','None',#510,#12);
#12=ADVANCED_BREP_SHAPE_REPRESENTATION('',(#14),#502);
#13=STYLED_ITEM('',(#519),#14);
#14=MANIFOLD_SOLID_BREP('Volumenk\X\F6rper1',#265);
#15=CONICAL_SURFACE('',#305,26.15,0.785398163397441);
#16=CONICAL_SURFACE('',#314,26.85,0.785398163397448);
#17=CONICAL_SURFACE('',#315,28.85,0.785398163397444);
#18=CONICAL_SURFACE('',#316,34.85,0.785398163397446);
#19=CONICAL_SURFACE('',#322,34.85,0.785398163397436);
#20=CONICAL_SURFACE('',#326,26.15,0.785398163397456);
#21=FACE_BOUND('',#72,.T.);
#22=FACE_BOUND('',#76,.T.);
#23=FACE_BOUND('',#79,.T.);
#24=FACE_BOUND('',#87,.T.);
#25=PLANE('',#293);
#26=PLANE('',#303);
#27=PLANE('',#309);
#28=PLANE('',#324);
#29=LINE('',#434,#39);
#30=LINE('',#451,#40);
#31=LINE('',#462,#41);
#32=LINE('',#474,#42);
#33=LINE('',#476,#43);
#34=LINE('',#478,#44);
#35=LINE('',#484,#45);
#36=LINE('',#490,#46);
#37=LINE('',#494,#47);
#38=LINE('',#499,#48);
#39=VECTOR('',#341,27.);
#40=VECTOR('',#362,29.);
#41=VECTOR('',#375,26.15);
#42=VECTOR('',#390,26.);
#43=VECTOR('',#393,26.85);
#44=VECTOR('',#396,28.85);
#45=VECTOR('',#403,34.85);
#46=VECTOR('',#410,35.);
#47=VECTOR('',#415,34.85);
#48=VECTOR('',#422,26.15);
#49=CYLINDRICAL_SURFACE('',#290,27.);
#50=CYLINDRICAL_SURFACE('',#300,29.);
#51=CYLINDRICAL_SURFACE('',#311,26.);
#52=CYLINDRICAL_SURFACE('',#319,35.);
#53=FACE_OUTER_BOUND('',#69,.T.);
#54=FACE_OUTER_BOUND('',#70,.T.);
#55=FACE_OUTER_BOUND('',#71,.T.);
#56=FACE_OUTER_BOUND('',#73,.T.);
#57=FACE_OUTER_BOUND('',#74,.T.);
#58=FACE_OUTER_BOUND('',#75,.T.);
#59=FACE_OUTER_BOUND('',#77,.T.);
#60=FACE_OUTER_BOUND('',#78,.T.);
#61=FACE_OUTER_BOUND('',#80,.T.);
#62=FACE_OUTER_BOUND('',#81,.T.);
#63=FACE_OUTER_BOUND('',#82,.T.);
#64=FACE_OUTER_BOUND('',#83,.T.);
#65=FACE_OUTER_BOUND('',#84,.T.);
#66=FACE_OUTER_BOUND('',#85,.T.);
#67=FACE_OUTER_BOUND('',#86,.T.);
#68=FACE_OUTER_BOUND('',#88,.T.);
#69=EDGE_LOOP('',(#175,#176,#177,#178,#179));
#70=EDGE_LOOP('',(#180,#181,#182,#183,#184,#185));
#71=EDGE_LOOP('',(#186));
#72=EDGE_LOOP('',(#187));
#73=EDGE_LOOP('',(#188,#189,#190,#191,#192));
#74=EDGE_LOOP('',(#193,#194,#195,#196,#197,#198));
#75=EDGE_LOOP('',(#199));
#76=EDGE_LOOP('',(#200));
#77=EDGE_LOOP('',(#201,#202,#203,#204,#205));
#78=EDGE_LOOP('',(#206));
#79=EDGE_LOOP('',(#207));
#80=EDGE_LOOP('',(#208,#209,#210,#211,#212,#213));
#81=EDGE_LOOP('',(#214,#215,#216,#217,#218));
#82=EDGE_LOOP('',(#219,#220,#221,#222,#223));
#83=EDGE_LOOP('',(#224,#225,#226,#227,#228));
#84=EDGE_LOOP('',(#229,#230,#231,#232,#233,#234));
#85=EDGE_LOOP('',(#235,#236,#237,#238,#239));
#86=EDGE_LOOP('',(#240));
#87=EDGE_LOOP('',(#241));
#88=EDGE_LOOP('',(#242,#243,#244,#245,#246));
#89=CIRCLE('',#286,27.);
#90=CIRCLE('',#287,0.8);
#91=CIRCLE('',#288,27.8);
#92=CIRCLE('',#289,27.);
#93=CIRCLE('',#291,27.);
#94=CIRCLE('',#292,27.);
#95=CIRCLE('',#294,28.7);
#96=CIRCLE('',#296,29.);
#97=CIRCLE('',#297,0.8);
#98=CIRCLE('',#298,29.8);
#99=CIRCLE('',#299,29.);
#100=CIRCLE('',#301,29.);
#101=CIRCLE('',#302,29.);
#102=CIRCLE('',#304,34.7);
#103=CIRCLE('',#306,26.3);
#104=CIRCLE('',#307,26.);
#105=CIRCLE('',#308,26.);
#106=CIRCLE('',#310,26.7);
#107=CIRCLE('',#312,26.);
#108=CIRCLE('',#313,26.);
#109=CIRCLE('',#317,35.);
#110=CIRCLE('',#318,35.);
#111=CIRCLE('',#320,35.);
#112=CIRCLE('',#321,35.);
#113=CIRCLE('',#323,34.7);
#114=CIRCLE('',#325,26.3);
#115=VERTEX_POINT('',#425);
#116=VERTEX_POINT('',#426);
#117=VERTEX_POINT('',#428);
#118=VERTEX_POINT('',#433);
#119=VERTEX_POINT('',#435);
#120=VERTEX_POINT('',#439);
#121=VERTEX_POINT('',#442);
#122=VERTEX_POINT('',#443);
#123=VERTEX_POINT('',#445);
#124=VERTEX_POINT('',#450);
#125=VERTEX_POINT('',#452);
#126=VERTEX_POINT('',#456);
#127=VERTEX_POINT('',#459);
#128=VERTEX_POINT('',#461);
#129=VERTEX_POINT('',#463);
#130=VERTEX_POINT('',#467);
#131=VERTEX_POINT('',#470);
#132=VERTEX_POINT('',#471);
#133=VERTEX_POINT('',#480);
#134=VERTEX_POINT('',#481);
#135=VERTEX_POINT('',#486);
#136=VERTEX_POINT('',#487);
#137=VERTEX_POINT('',#492);
#138=VERTEX_POINT('',#496);
#139=EDGE_CURVE('',#115,#116,#89,.T.);
#140=EDGE_CURVE('',#116,#117,#90,.T.);
#141=EDGE_CURVE('',#117,#117,#91,.T.);
#142=EDGE_CURVE('',#116,#115,#92,.T.);
#143=EDGE_CURVE('',#115,#118,#29,.T.);
#144=EDGE_CURVE('',#119,#118,#93,.T.);
#145=EDGE_CURVE('',#118,#119,#94,.T.);
#146=EDGE_CURVE('',#120,#120,#95,.T.);
#147=EDGE_CURVE('',#121,#122,#96,.T.);
#148=EDGE_CURVE('',#122,#123,#97,.T.);
#149=EDGE_CURVE('',#123,#123,#98,.T.);
#150=EDGE_CURVE('',#122,#121,#99,.T.);
#151=EDGE_CURVE('',#121,#124,#30,.T.);
#152=EDGE_CURVE('',#125,#124,#100,.T.);
#153=EDGE_CURVE('',#124,#125,#101,.T.);
#154=EDGE_CURVE('',#126,#126,#102,.T.);
#155=EDGE_CURVE('',#127,#127,#103,.T.);
#156=EDGE_CURVE('',#127,#128,#31,.T.);
#157=EDGE_CURVE('',#128,#129,#104,.T.);
#158=EDGE_CURVE('',#129,#128,#105,.T.);
#159=EDGE_CURVE('',#130,#130,#106,.T.);
#160=EDGE_CURVE('',#131,#132,#107,.T.);
#161=EDGE_CURVE('',#132,#131,#108,.T.);
#162=EDGE_CURVE('',#132,#129,#32,.T.);
#163=EDGE_CURVE('',#119,#130,#33,.T.);
#164=EDGE_CURVE('',#125,#120,#34,.T.);
#165=EDGE_CURVE('',#133,#134,#109,.T.);
#166=EDGE_CURVE('',#134,#133,#110,.T.);
#167=EDGE_CURVE('',#133,#126,#35,.T.);
#168=EDGE_CURVE('',#135,#136,#111,.T.);
#169=EDGE_CURVE('',#136,#135,#112,.T.);
#170=EDGE_CURVE('',#136,#134,#36,.T.);
#171=EDGE_CURVE('',#137,#137,#113,.T.);
#172=EDGE_CURVE('',#137,#135,#37,.T.);
#173=EDGE_CURVE('',#138,#138,#114,.T.);
#174=EDGE_CURVE('',#131,#138,#38,.T.);
#175=ORIENTED_EDGE('',*,*,#139,.T.);
#176=ORIENTED_EDGE('',*,*,#140,.T.);
#177=ORIENTED_EDGE('',*,*,#141,.T.);
#178=ORIENTED_EDGE('',*,*,#140,.F.);
#179=ORIENTED_EDGE('',*,*,#142,.T.);
#180=ORIENTED_EDGE('',*,*,#139,.F.);
#181=ORIENTED_EDGE('',*,*,#143,.T.);
#182=ORIENTED_EDGE('',*,*,#144,.F.);
#183=ORIENTED_EDGE('',*,*,#145,.F.);
#184=ORIENTED_EDGE('',*,*,#143,.F.);
#185=ORIENTED_EDGE('',*,*,#142,.F.);
#186=ORIENTED_EDGE('',*,*,#146,.F.);
#187=ORIENTED_EDGE('',*,*,#141,.F.);
#188=ORIENTED_EDGE('',*,*,#147,.T.);
#189=ORIENTED_EDGE('',*,*,#148,.T.);
#190=ORIENTED_EDGE('',*,*,#149,.T.);
#191=ORIENTED_EDGE('',*,*,#148,.F.);
#192=ORIENTED_EDGE('',*,*,#150,.T.);
#193=ORIENTED_EDGE('',*,*,#147,.F.);
#194=ORIENTED_EDGE('',*,*,#151,.T.);
#195=ORIENTED_EDGE('',*,*,#152,.F.);
#196=ORIENTED_EDGE('',*,*,#153,.F.);
#197=ORIENTED_EDGE('',*,*,#151,.F.);
#198=ORIENTED_EDGE('',*,*,#150,.F.);
#199=ORIENTED_EDGE('',*,*,#154,.F.);
#200=ORIENTED_EDGE('',*,*,#149,.F.);
#201=ORIENTED_EDGE('',*,*,#155,.T.);
#202=ORIENTED_EDGE('',*,*,#156,.T.);
#203=ORIENTED_EDGE('',*,*,#157,.T.);
#204=ORIENTED_EDGE('',*,*,#158,.T.);
#205=ORIENTED_EDGE('',*,*,#156,.F.);
#206=ORIENTED_EDGE('',*,*,#159,.F.);
#207=ORIENTED_EDGE('',*,*,#155,.F.);
#208=ORIENTED_EDGE('',*,*,#160,.F.);
#209=ORIENTED_EDGE('',*,*,#161,.F.);
#210=ORIENTED_EDGE('',*,*,#162,.T.);
#211=ORIENTED_EDGE('',*,*,#157,.F.);
#212=ORIENTED_EDGE('',*,*,#158,.F.);
#213=ORIENTED_EDGE('',*,*,#162,.F.);
#214=ORIENTED_EDGE('',*,*,#144,.T.);
#215=ORIENTED_EDGE('',*,*,#145,.T.);
#216=ORIENTED_EDGE('',*,*,#163,.T.);
#217=ORIENTED_EDGE('',*,*,#159,.T.);
#218=ORIENTED_EDGE('',*,*,#163,.F.);
#219=ORIENTED_EDGE('',*,*,#152,.T.);
#220=ORIENTED_EDGE('',*,*,#153,.T.);
#221=ORIENTED_EDGE('',*,*,#164,.T.);
#222=ORIENTED_EDGE('',*,*,#146,.T.);
#223=ORIENTED_EDGE('',*,*,#164,.F.);
#224=ORIENTED_EDGE('',*,*,#165,.T.);
#225=ORIENTED_EDGE('',*,*,#166,.T.);
#226=ORIENTED_EDGE('',*,*,#167,.T.);
#227=ORIENTED_EDGE('',*,*,#154,.T.);
#228=ORIENTED_EDGE('',*,*,#167,.F.);
#229=ORIENTED_EDGE('',*,*,#168,.F.);
#230=ORIENTED_EDGE('',*,*,#169,.F.);
#231=ORIENTED_EDGE('',*,*,#170,.T.);
#232=ORIENTED_EDGE('',*,*,#165,.F.);
#233=ORIENTED_EDGE('',*,*,#166,.F.);
#234=ORIENTED_EDGE('',*,*,#170,.F.);
#235=ORIENTED_EDGE('',*,*,#171,.T.);
#236=ORIENTED_EDGE('',*,*,#172,.T.);
#237=ORIENTED_EDGE('',*,*,#168,.T.);
#238=ORIENTED_EDGE('',*,*,#169,.T.);
#239=ORIENTED_EDGE('',*,*,#172,.F.);
#240=ORIENTED_EDGE('',*,*,#171,.F.);
#241=ORIENTED_EDGE('',*,*,#173,.F.);
#242=ORIENTED_EDGE('',*,*,#160,.T.);
#243=ORIENTED_EDGE('',*,*,#161,.T.);
#244=ORIENTED_EDGE('',*,*,#174,.T.);
#245=ORIENTED_EDGE('',*,*,#173,.T.);
#246=ORIENTED_EDGE('',*,*,#174,.F.);
#247=TOROIDAL_SURFACE('',#285,27.8,0.8);
#248=TOROIDAL_SURFACE('',#295,29.8,0.8);
#249=ADVANCED_FACE('',(#53),#247,.F.);
#250=ADVANCED_FACE('',(#54),#49,.T.);
#251=ADVANCED_FACE('',(#55,#21),#25,.T.);
#252=ADVANCED_FACE('',(#56),#248,.F.);
#253=ADVANCED_FACE('',(#57),#50,.T.);
#254=ADVANCED_FACE('',(#58,#22),#26,.T.);
#255=ADVANCED_FACE('',(#59),#15,.F.);
#256=ADVANCED_FACE('',(#60,#23),#27,.T.);
#257=ADVANCED_FACE('',(#61),#51,.F.);
#258=ADVANCED_FACE('',(#62),#16,.T.);
#259=ADVANCED_FACE('',(#63),#17,.T.);
#260=ADVANCED_FACE('',(#64),#18,.T.);
#261=ADVANCED_FACE('',(#65),#52,.T.);
#262=ADVANCED_FACE('',(#66),#19,.T.);
#263=ADVANCED_FACE('',(#67,#24),#28,.T.);
#264=ADVANCED_FACE('',(#68),#20,.F.);
#265=CLOSED_SHELL('',(#249,#250,#251,#252,#253,#254,#255,#256,#257,#258,
#259,#260,#261,#262,#263,#264));
#266=DERIVED_UNIT_ELEMENT(#268,1.);
#267=DERIVED_UNIT_ELEMENT(#505,-3.);
#268=(
MASS_UNIT()
NAMED_UNIT(*)
SI_UNIT($,.GRAM.)
);
#269=DERIVED_UNIT((#266,#267));
#270=MEASURE_REPRESENTATION_ITEM('density measure',
POSITIVE_RATIO_MEASURE(1.),#269);
#271=PROPERTY_DEFINITION_REPRESENTATION(#276,#273);
#272=PROPERTY_DEFINITION_REPRESENTATION(#277,#274);
#273=REPRESENTATION('material name',(#275),#502);
#274=REPRESENTATION('density',(#270),#502);
#275=DESCRIPTIVE_REPRESENTATION_ITEM('Generisch','Generisch');
#276=PROPERTY_DEFINITION('material property','material name',#512);
#277=PROPERTY_DEFINITION('material property','density of part',#512);
#278=DATE_TIME_ROLE('creation_date');
#279=APPLIED_DATE_AND_TIME_ASSIGNMENT(#280,#278,(#512));
#280=DATE_AND_TIME(#281,#282);
#281=CALENDAR_DATE(2021,18,6);
#282=LOCAL_TIME(0,0,0.,#283);
#283=COORDINATED_UNIVERSAL_TIME_OFFSET(0,0,.BEHIND.);
#284=AXIS2_PLACEMENT_3D('placement',#423,#327,#328);
#285=AXIS2_PLACEMENT_3D('',#424,#329,#330);
#286=AXIS2_PLACEMENT_3D('',#427,#331,#332);
#287=AXIS2_PLACEMENT_3D('',#429,#333,#334);
#288=AXIS2_PLACEMENT_3D('',#430,#335,#336);
#289=AXIS2_PLACEMENT_3D('',#431,#337,#338);
#290=AXIS2_PLACEMENT_3D('',#432,#339,#340);
#291=AXIS2_PLACEMENT_3D('',#436,#342,#343);
#292=AXIS2_PLACEMENT_3D('',#437,#344,#345);
#293=AXIS2_PLACEMENT_3D('',#438,#346,#347);
#294=AXIS2_PLACEMENT_3D('',#440,#348,#349);
#295=AXIS2_PLACEMENT_3D('',#441,#350,#351);
#296=AXIS2_PLACEMENT_3D('',#444,#352,#353);
#297=AXIS2_PLACEMENT_3D('',#446,#354,#355);
#298=AXIS2_PLACEMENT_3D('',#447,#356,#357);
#299=AXIS2_PLACEMENT_3D('',#448,#358,#359);
#300=AXIS2_PLACEMENT_3D('',#449,#360,#361);
#301=AXIS2_PLACEMENT_3D('',#453,#363,#364);
#302=AXIS2_PLACEMENT_3D('',#454,#365,#366);
#303=AXIS2_PLACEMENT_3D('',#455,#367,#368);
#304=AXIS2_PLACEMENT_3D('',#457,#369,#370);
#305=AXIS2_PLACEMENT_3D('',#458,#371,#372);
#306=AXIS2_PLACEMENT_3D('',#460,#373,#374);
#307=AXIS2_PLACEMENT_3D('',#464,#376,#377);
#308=AXIS2_PLACEMENT_3D('',#465,#378,#379);
#309=AXIS2_PLACEMENT_3D('',#466,#380,#381);
#310=AXIS2_PLACEMENT_3D('',#468,#382,#383);
#311=AXIS2_PLACEMENT_3D('',#469,#384,#385);
#312=AXIS2_PLACEMENT_3D('',#472,#386,#387);
#313=AXIS2_PLACEMENT_3D('',#473,#388,#389);
#314=AXIS2_PLACEMENT_3D('',#475,#391,#392);
#315=AXIS2_PLACEMENT_3D('',#477,#394,#395);
#316=AXIS2_PLACEMENT_3D('',#479,#397,#398);
#317=AXIS2_PLACEMENT_3D('',#482,#399,#400);
#318=AXIS2_PLACEMENT_3D('',#483,#401,#402);
#319=AXIS2_PLACEMENT_3D('',#485,#404,#405);
#320=AXIS2_PLACEMENT_3D('',#488,#406,#407);
#321=AXIS2_PLACEMENT_3D('',#489,#408,#409);
#322=AXIS2_PLACEMENT_3D('',#491,#411,#412);
#323=AXIS2_PLACEMENT_3D('',#493,#413,#414);
#324=AXIS2_PLACEMENT_3D('',#495,#416,#417);
#325=AXIS2_PLACEMENT_3D('',#497,#418,#419);
#326=AXIS2_PLACEMENT_3D('',#498,#420,#421);
#327=DIRECTION('axis',(0.,0.,1.));
#328=DIRECTION('refdir',(1.,0.,0.));
#329=DIRECTION('center_axis',(1.,0.,0.));
#330=DIRECTION('ref_axis',(0.,0.,-1.));
#331=DIRECTION('center_axis',(1.,0.,0.));
#332=DIRECTION('ref_axis',(0.,-1.,1.83697019872103E-16));
#333=DIRECTION('center_axis',(0.,-1.,-1.22464679914735E-16));
#334=DIRECTION('ref_axis',(0.,-1.22464679914735E-16,1.));
#335=DIRECTION('center_axis',(-1.,0.,0.));
#336=DIRECTION('ref_axis',(0.,-1.,1.83697019872103E-16));
#337=DIRECTION('center_axis',(1.,0.,0.));
#338=DIRECTION('ref_axis',(0.,-1.,1.83697019872103E-16));
#339=DIRECTION('center_axis',(1.,0.,0.));
#340=DIRECTION('ref_axis',(0.,1.,0.));
#341=DIRECTION('',(-1.,0.,0.));
#342=DIRECTION('center_axis',(-1.,0.,0.));
#343=DIRECTION('ref_axis',(0.,-1.,0.));
#344=DIRECTION('center_axis',(-1.,0.,0.));
#345=DIRECTION('ref_axis',(0.,-1.,0.));
#346=DIRECTION('center_axis',(-1.,0.,0.));
#347=DIRECTION('ref_axis',(0.,0.,1.));
#348=DIRECTION('center_axis',(1.,0.,0.));
#349=DIRECTION('ref_axis',(0.,-1.,0.));
#350=DIRECTION('center_axis',(1.,0.,0.));
#351=DIRECTION('ref_axis',(0.,0.,-1.));
#352=DIRECTION('center_axis',(1.,0.,0.));
#353=DIRECTION('ref_axis',(0.,-1.,1.83697019872103E-16));
#354=DIRECTION('center_axis',(0.,-1.,-1.22464679914735E-16));
#355=DIRECTION('ref_axis',(0.,-1.22464679914735E-16,1.));
#356=DIRECTION('center_axis',(-1.,0.,0.));
#357=DIRECTION('ref_axis',(0.,-1.,1.83697019872103E-16));
#358=DIRECTION('center_axis',(1.,0.,0.));
#359=DIRECTION('ref_axis',(0.,-1.,1.83697019872103E-16));
#360=DIRECTION('center_axis',(1.,0.,0.));
#361=DIRECTION('ref_axis',(0.,1.,0.));
#362=DIRECTION('',(-1.,0.,0.));
#363=DIRECTION('center_axis',(-1.,0.,0.));
#364=DIRECTION('ref_axis',(0.,-1.,0.));
#365=DIRECTION('center_axis',(-1.,0.,0.));
#366=DIRECTION('ref_axis',(0.,-1.,0.));
#367=DIRECTION('center_axis',(-1.,0.,0.));
#368=DIRECTION('ref_axis',(0.,0.,1.));
#369=DIRECTION('center_axis',(1.,0.,0.));
#370=DIRECTION('ref_axis',(0.,-1.,0.));
#371=DIRECTION('center_axis',(-1.,0.,0.));
#372=DIRECTION('ref_axis',(0.,-1.,0.));
#373=DIRECTION('center_axis',(-1.,0.,0.));
#374=DIRECTION('ref_axis',(0.,-1.,0.));
#375=DIRECTION('',(0.707106781186553,-0.707106781186542,8.65956056235487E-17));
#376=DIRECTION('center_axis',(1.,0.,0.));
#377=DIRECTION('ref_axis',(0.,-1.,0.));
#378=DIRECTION('center_axis',(1.,0.,0.));
#379=DIRECTION('ref_axis',(0.,-1.,0.));
#380=DIRECTION('center_axis',(-1.,0.,0.));
#381=DIRECTION('ref_axis',(0.,0.,1.));
#382=DIRECTION('center_axis',(1.,0.,0.));
#383=DIRECTION('ref_axis',(0.,-1.,0.));
#384=DIRECTION('center_axis',(1.,0.,0.));
#385=DIRECTION('ref_axis',(0.,1.,0.));
#386=DIRECTION('center_axis',(-1.,0.,0.));
#387=DIRECTION('ref_axis',(0.,-1.,0.));
#388=DIRECTION('center_axis',(-1.,0.,0.));
#389=DIRECTION('ref_axis',(0.,-1.,0.));
#390=DIRECTION('',(-1.,0.,0.));
#391=DIRECTION('center_axis',(1.,0.,0.));
#392=DIRECTION('ref_axis',(0.,-1.,0.));
#393=DIRECTION('',(-0.707106781186547,-0.707106781186547,-8.65956056235493E-17));
#394=DIRECTION('center_axis',(1.,0.,0.));
#395=DIRECTION('ref_axis',(0.,-1.,0.));
#396=DIRECTION('',(-0.70710678118655,-0.707106781186545,-8.6595605623549E-17));
#397=DIRECTION('center_axis',(1.,0.,0.));
#398=DIRECTION('ref_axis',(0.,-1.,0.));
#399=DIRECTION('center_axis',(-1.,0.,0.));
#400=DIRECTION('ref_axis',(0.,-1.,0.));
#401=DIRECTION('center_axis',(-1.,0.,0.));
#402=DIRECTION('ref_axis',(0.,-1.,0.));
#403=DIRECTION('',(-0.70710678118655,-0.707106781186546,-8.65956056235491E-17));
#404=DIRECTION('center_axis',(1.,0.,0.));
#405=DIRECTION('ref_axis',(0.,1.,0.));
#406=DIRECTION('center_axis',(1.,0.,0.));
#407=DIRECTION('ref_axis',(0.,-1.,0.));
#408=DIRECTION('center_axis',(1.,0.,0.));
#409=DIRECTION('ref_axis',(0.,-1.,0.));
#410=DIRECTION('',(-1.,0.,0.));
#411=DIRECTION('center_axis',(-1.,0.,0.));
#412=DIRECTION('ref_axis',(0.,-1.,0.));
#413=DIRECTION('center_axis',(-1.,0.,0.));
#414=DIRECTION('ref_axis',(0.,-1.,0.));
#415=DIRECTION('',(-0.707106781186556,0.707106781186539,8.65956056235483E-17));
#416=DIRECTION('center_axis',(1.,0.,0.));
#417=DIRECTION('ref_axis',(0.,0.,-1.));
#418=DIRECTION('center_axis',(1.,0.,0.));
#419=DIRECTION('ref_axis',(0.,-1.,0.));
#420=DIRECTION('center_axis',(1.,0.,0.));
#421=DIRECTION('ref_axis',(0.,-1.,0.));
#422=DIRECTION('',(0.707106781186542,0.707106781186553,-8.659560562355E-17));
#423=CARTESIAN_POINT('',(0.,0.,0.));
#424=CARTESIAN_POINT('Origin',(-8.80000000000003,0.,0.));
#425=CARTESIAN_POINT('',(-8.80000000000003,-27.,-3.30654635769785E-15));
#426=CARTESIAN_POINT('',(-8.80000000000003,-3.30654635769785E-15,27.));
#427=CARTESIAN_POINT('Origin',(-8.80000000000003,0.,0.));
#428=CARTESIAN_POINT('',(-8.00000000000002,-3.40451810162964E-15,27.8));
#429=CARTESIAN_POINT('Origin',(-8.80000000000003,-3.40451810162964E-15,
27.8));
#430=CARTESIAN_POINT('Origin',(-8.00000000000002,0.,0.));
#431=CARTESIAN_POINT('Origin',(-8.80000000000003,0.,0.));
#432=CARTESIAN_POINT('Origin',(-37.5,0.,0.));
#433=CARTESIAN_POINT('',(-66.7,-27.,-3.30654635769785E-15));
#434=CARTESIAN_POINT('',(-37.5,-27.,-3.30654635769785E-15));
#435=CARTESIAN_POINT('',(-66.7,27.,-3.30654635769785E-15));
#436=CARTESIAN_POINT('Origin',(-66.7,0.,0.));
#437=CARTESIAN_POINT('Origin',(-66.7,0.,0.));
#438=CARTESIAN_POINT('Origin',(-8.00000000000002,29.,0.));
#439=CARTESIAN_POINT('',(-8.00000000000002,28.7,3.5147363135529E-15));
#440=CARTESIAN_POINT('Origin',(-8.00000000000002,0.,0.));
#441=CARTESIAN_POINT('Origin',(-4.80000000000003,0.,0.));
#442=CARTESIAN_POINT('',(-4.80000000000003,-29.,-3.55147571752732E-15));
#443=CARTESIAN_POINT('',(-4.80000000000003,-3.55147571752732E-15,29.));
#444=CARTESIAN_POINT('Origin',(-4.80000000000003,0.,0.));
#445=CARTESIAN_POINT('',(-4.00000000000003,-3.64944746145911E-15,29.8));
#446=CARTESIAN_POINT('Origin',(-4.80000000000003,-3.64944746145911E-15,
29.8));
#447=CARTESIAN_POINT('Origin',(-4.00000000000003,0.,0.));
#448=CARTESIAN_POINT('Origin',(-4.80000000000003,0.,0.));
#449=CARTESIAN_POINT('Origin',(-6.00000000000002,0.,0.));
#450=CARTESIAN_POINT('',(-7.70000000000002,-29.,-3.55147571752732E-15));
#451=CARTESIAN_POINT('',(-6.00000000000002,-29.,-3.55147571752732E-15));
#452=CARTESIAN_POINT('',(-7.70000000000002,29.,-3.55147571752732E-15));
#453=CARTESIAN_POINT('Origin',(-7.70000000000002,0.,0.));
#454=CARTESIAN_POINT('Origin',(-7.70000000000002,0.,0.));
#455=CARTESIAN_POINT('Origin',(-4.00000000000003,35.,0.));
#456=CARTESIAN_POINT('',(-4.00000000000003,34.7,4.24952439304132E-15));
#457=CARTESIAN_POINT('Origin',(-4.00000000000003,0.,0.));
#458=CARTESIAN_POINT('Origin',(-66.85,0.,0.));
#459=CARTESIAN_POINT('',(-67.,26.3,-3.22082108175754E-15));
#460=CARTESIAN_POINT('Origin',(-67.,0.,0.));
#461=CARTESIAN_POINT('',(-66.7,26.,3.18408167778312E-15));
#462=CARTESIAN_POINT('',(-66.85,26.15,-3.20245137977033E-15));
#463=CARTESIAN_POINT('',(-66.7,-26.,-3.18408167778312E-15));
#464=CARTESIAN_POINT('Origin',(-66.7,0.,0.));
#465=CARTESIAN_POINT('Origin',(-66.7,0.,0.));
#466=CARTESIAN_POINT('Origin',(-67.,27.,0.));
#467=CARTESIAN_POINT('',(-67.,26.7,3.26980695372343E-15));
#468=CARTESIAN_POINT('Origin',(-67.,0.,0.));
#469=CARTESIAN_POINT('Origin',(-33.5,0.,0.));
#470=CARTESIAN_POINT('',(-0.30000000000002,26.,-3.18408167778312E-15));
#471=CARTESIAN_POINT('',(-0.30000000000002,-26.,-3.18408167778312E-15));
#472=CARTESIAN_POINT('Origin',(-0.30000000000002,0.,0.));
#473=CARTESIAN_POINT('Origin',(-0.30000000000002,0.,0.));
#474=CARTESIAN_POINT('',(-33.5,-26.,-3.18408167778312E-15));
#475=CARTESIAN_POINT('Origin',(-66.85,0.,0.));
#476=CARTESIAN_POINT('',(-66.85,26.85,3.28817665571064E-15));
#477=CARTESIAN_POINT('Origin',(-7.85000000000002,0.,0.));
#478=CARTESIAN_POINT('',(-7.85000000000002,28.85,3.53310601554011E-15));
#479=CARTESIAN_POINT('Origin',(-3.85000000000003,0.,0.));
#480=CARTESIAN_POINT('',(-3.70000000000003,35.,-4.28626379701574E-15));
#481=CARTESIAN_POINT('',(-3.70000000000003,-35.,-4.28626379701574E-15));
#482=CARTESIAN_POINT('Origin',(-3.70000000000003,0.,0.));
#483=CARTESIAN_POINT('Origin',(-3.70000000000003,0.,0.));
#484=CARTESIAN_POINT('',(-3.85000000000003,34.85,4.26789409502853E-15));
#485=CARTESIAN_POINT('Origin',(-2.00000000000003,0.,0.));
#486=CARTESIAN_POINT('',(-0.300000000000028,35.,4.28626379701574E-15));
#487=CARTESIAN_POINT('',(-0.300000000000028,-35.,-4.28626379701574E-15));
#488=CARTESIAN_POINT('Origin',(-0.300000000000028,0.,0.));
#489=CARTESIAN_POINT('Origin',(-0.300000000000028,0.,0.));
#490=CARTESIAN_POINT('',(-2.00000000000003,-35.,-4.28626379701574E-15));
#491=CARTESIAN_POINT('Origin',(-0.150000000000025,0.,0.));
#492=CARTESIAN_POINT('',(-2.22044604925031E-14,34.7,-4.24952439304132E-15));
#493=CARTESIAN_POINT('Origin',(-2.22044604925031E-14,0.,0.));
#494=CARTESIAN_POINT('',(-0.150000000000025,34.85,4.26789409502853E-15));
#495=CARTESIAN_POINT('Origin',(-2.22044604925031E-14,26.,0.));
#496=CARTESIAN_POINT('',(-2.22044604925031E-14,26.3,3.22082108175754E-15));
#497=CARTESIAN_POINT('Origin',(-2.22044604925031E-14,0.,0.));
#498=CARTESIAN_POINT('Origin',(-0.150000000000021,0.,0.));
#499=CARTESIAN_POINT('',(-0.150000000000021,26.15,-3.20245137977033E-15));
#500=UNCERTAINTY_MEASURE_WITH_UNIT(LENGTH_MEASURE(0.01),#504,
'DISTANCE_ACCURACY_VALUE',
'Maximum model space distance between geometric entities at asserted c
onnectivities');
#501=UNCERTAINTY_MEASURE_WITH_UNIT(LENGTH_MEASURE(0.01),#504,
'DISTANCE_ACCURACY_VALUE',
'Maximum model space distance between geometric entities at asserted c
onnectivities');
#502=(
GEOMETRIC_REPRESENTATION_CONTEXT(3)
GLOBAL_UNCERTAINTY_ASSIGNED_CONTEXT((#500))
GLOBAL_UNIT_ASSIGNED_CONTEXT((#504,#506,#507))
REPRESENTATION_CONTEXT('','3D')
);
#503=(
GEOMETRIC_REPRESENTATION_CONTEXT(3)
GLOBAL_UNCERTAINTY_ASSIGNED_CONTEXT((#501))
GLOBAL_UNIT_ASSIGNED_CONTEXT((#504,#506,#507))
REPRESENTATION_CONTEXT('','3D')
);
#504=(
LENGTH_UNIT()
NAMED_UNIT(*)
SI_UNIT(.MILLI.,.METRE.)
);
#505=(
LENGTH_UNIT()
NAMED_UNIT(*)
SI_UNIT(.CENTI.,.METRE.)
);
#506=(
NAMED_UNIT(*)
PLANE_ANGLE_UNIT()
SI_UNIT($,.RADIAN.)
);
#507=(
NAMED_UNIT(*)
SI_UNIT($,.STERADIAN.)
SOLID_ANGLE_UNIT()
);
#508=SHAPE_DEFINITION_REPRESENTATION(#509,#510);
#509=PRODUCT_DEFINITION_SHAPE('',$,#512);
#510=SHAPE_REPRESENTATION('',(#284),#502);
#511=PRODUCT_DEFINITION_CONTEXT('part definition',#516,'design');
#512=PRODUCT_DEFINITION('3D_R666-PE-54-DN65_17113487',
'3D_R666-PE-54-DN65_17113487',#513,#511);
#513=PRODUCT_DEFINITION_FORMATION('',$,#518);
#514=PRODUCT_RELATED_PRODUCT_CATEGORY('3D_R666-PE-54-DN65_17113487',
'3D_R666-PE-54-DN65_17113487',(#518));
#515=APPLICATION_PROTOCOL_DEFINITION('international standard',
'automotive_design',2009,#516);
#516=APPLICATION_CONTEXT(
'Core Data for Automotive Mechanical Design Process');
#517=PRODUCT_CONTEXT('part definition',#516,'mechanical');
#518=PRODUCT('3D_R666-PE-54-DN65_17113487',
'3D_R666-PE-54-DN65_17113487',$,(#517));
#519=PRESENTATION_STYLE_ASSIGNMENT((#520));
#520=SURFACE_STYLE_USAGE(.BOTH.,#523);
#521=SURFACE_STYLE_RENDERING_WITH_PROPERTIES($,#527,(#522));
#522=SURFACE_STYLE_TRANSPARENT(0.);
#523=SURFACE_SIDE_STYLE('',(#524,#521));
#524=SURFACE_STYLE_FILL_AREA(#525);
#525=FILL_AREA_STYLE('',(#526));
#526=FILL_AREA_STYLE_COLOUR('',#527);
#527=COLOUR_RGB('',0.749019607843137,0.749019607843137,0.749019607843137);
ENDSEC;
END-ISO-10303-21;
