ISO-10303-21;
HEADER;
FILE_DESCRIPTION (( 'STEP AP203' ),
    '1' );
FILE_NAME ('3D_R175_DN20x2_17336150.STEP',
    '2024-07-18T09:58:42',
    ( '' ),
    ( '' ),
    'SwSTEP 2.0',
    'SolidWorks 2024',
    '' );
FILE_SCHEMA (( 'CONFIG_CONTROL_DESIGN' ));
ENDSEC;

DATA;
#1 = APPROVAL_STATUS ( 'not_yet_approved' ) ;
#2 = PRODUCT_RELATED_PRODUCT_CATEGORY ( 'detail', '', ( #278 ) ) ;
#3 = ORIENTED_EDGE ( 'NONE', *, *, #181, .T. ) ;
#4 = APPROVAL_PERSON_ORGANIZATION ( #71, #149, #64 ) ;
#5 = CIRCLE ( 'NONE', #157, 9.692307692307691624 ) ;
#6 = CARTESIAN_POINT ( 'NONE',  ( 9.000000000000000000, 8.380831519646861238, 1.102182119232617517E-15 ) ) ;
#7 = SPHERICAL_SURFACE ( 'NONE', #315, 14.00000000000000178 ) ;
#8 = DIRECTION ( 'NONE',  ( -1.000000000000000000, 0.000000000000000000, 0.000000000000000000 ) ) ;
#9 = DIRECTION ( 'NONE',  ( 1.000000000000000000, 0.000000000000000000, 1.224646799147353454E-16 ) ) ;
#10 = APPROVAL_DATE_TIME ( #17, #149 ) ;
#11 = FACE_OUTER_BOUND ( 'NONE', #80, .T. ) ;
#12 = CARTESIAN_POINT ( 'NONE',  ( -9.692307692307689848, 9.102433944235155394, 0.000000000000000000 ) ) ;
#13 = EDGE_CURVE ( 'NONE', #302, #279, #251, .T. ) ;
#14 = CARTESIAN_POINT ( 'NONE',  ( 9.621753706924962533E-16, 8.380831519646747552, 0.000000000000000000 ) ) ;
#15 = EDGE_CURVE ( 'NONE', #168, #302, #140, .T. ) ;
#16 = EDGE_LOOP ( 'NONE', ( #235, #138, #191, #87 ) ) ;
#17 = DATE_AND_TIME ( #257, #50 ) ;
#18 = CARTESIAN_POINT ( 'NONE',  ( 8.000000000000001776, 7.944271909999272907, 9.797174393178825657E-16 ) ) ;
#19 = EDGE_CURVE ( 'NONE', #162, #170, #248, .T. ) ;
#20 = CARTESIAN_POINT ( 'NONE',  ( 10.00000000000000178, 8.380831519646747552, 1.224646799147353256E-15 ) ) ;
#21 = FACE_OUTER_BOUND ( 'NONE', #196, .T. ) ;
#22 = ADVANCED_FACE ( 'NONE', ( #311 ), #7, .T. ) ;
#23 = APPLICATION_PROTOCOL_DEFINITION ( 'international standard', 'config_control_design', 1994, #182 ) ;
#24 = APPROVAL_STATUS ( 'not_yet_approved' ) ;
#25 = APPLICATION_PROTOCOL_DEFINITION ( 'international standard', 'config_control_design', 1994, #326 ) ;
#26 = APPROVAL_PERSON_ORGANIZATION ( #303, #104, #354 ) ;
#27 = AXIS2_PLACEMENT_3D ( 'NONE', #229, #307, #62 ) ;
#28 = DIRECTION ( 'NONE',  ( -1.224646799147353207E-16, 5.629680630014033300E-34, 1.000000000000000000 ) ) ;
#29 = EDGE_LOOP ( 'NONE', ( #143, #110 ) ) ;
#30 = ORIENTED_EDGE ( 'NONE', *, *, #213, .T. ) ;
#31 = PERSON_AND_ORGANIZATION ( #117, #294 ) ;
#32 = ADVANCED_FACE ( 'NONE', ( #120 ), #199, .F. ) ;
#33 = AXIS2_PLACEMENT_3D ( 'NONE', #39, #124, #291 ) ;
#34 = DESIGN_CONTEXT ( 'detailed design', #326, 'design' ) ;
#35 = CARTESIAN_POINT ( 'NONE',  ( 1.387778780781445676E-14, 2817.965330118411202, 0.000000000000000000 ) ) ;
#36 = SECURITY_CLASSIFICATION ( '', '', #85 ) ;
#37 = ORIENTED_EDGE ( 'NONE', *, *, #49, .F. ) ;
#38 = FACE_OUTER_BOUND ( 'NONE', #84, .T. ) ;
#39 = CARTESIAN_POINT ( 'NONE',  ( 9.601685135480615201E-16, 7.944271909999272907, 0.000000000000000000 ) ) ;
#40 = DIRECTION ( 'NONE',  ( 4.596983092540343816E-18, 1.000000000000000000, -0.000000000000000000 ) ) ;
#41 = ORIENTED_EDGE ( 'NONE', *, *, #250, .T. ) ;
#42 = PLANE ( 'NONE',  #82 ) ;
#43 = ORIENTED_EDGE ( 'NONE', *, *, #277, .T. ) ;
#44 = CARTESIAN_POINT ( 'NONE',  ( -9.999999999999998224, 4.596983092540343816E-17, 0.000000000000000000 ) ) ;
#45 = DIRECTION ( 'NONE',  ( -1.000000000000000000, 0.000000000000000000, 0.000000000000000000 ) ) ;
#46 = DIRECTION ( 'NONE',  ( 1.000000000000000000, -4.596983092540343816E-18, 0.000000000000000000 ) ) ;
#47 = DIRECTION ( 'NONE',  ( 1.000000000000000000, 0.000000000000000000, 0.000000000000000000 ) ) ;
#48 = DIRECTION ( 'NONE',  ( 0.000000000000000000, 0.000000000000000000, 1.000000000000000000 ) ) ;
#49 = EDGE_CURVE ( 'NONE', #58, #168, #348, .T. ) ;
#50 = LOCAL_TIME ( 11, 58, 42.00000000000000000, #175 ) ;
#51 = ORIENTED_EDGE ( 'NONE', *, *, #243, .T. ) ;
#52 = CLOSED_SHELL ( 'NONE', ( #292, #66, #22, #132, #164, #273, #134, #183, #347, #142, #32 ) ) ;
#53 = AXIS2_PLACEMENT_3D ( 'NONE', #322, #48, #47 ) ;
#54 = ORIENTED_EDGE ( 'NONE', *, *, #333, .T. ) ;
#55 = APPROVAL_ROLE ( '' ) ;
#56 = EDGE_LOOP ( 'NONE', ( #259, #54, #137 ) ) ;
#57 = AXIS2_PLACEMENT_3D ( 'NONE', #151, #63, #174 ) ;
#58 = VERTEX_POINT ( 'NONE', #314 ) ;
#59 = ORIENTED_EDGE ( 'NONE', *, *, #128, .T. ) ;
#60 = CYLINDRICAL_SURFACE ( 'NONE', #231, 8.000000000000000000 ) ;
#61 = LOCAL_TIME ( 11, 58, 42.00000000000000000, #327 ) ;
#62 = DIRECTION ( 'NONE',  ( -1.000000000000000000, 4.596983092540343816E-18, 0.000000000000000000 ) ) ;
#63 = DIRECTION ( 'NONE',  ( 4.596983092540343816E-18, 1.000000000000000000, -0.000000000000000000 ) ) ;
#64 = APPROVAL_ROLE ( '' ) ;
#65 = DIRECTION ( 'NONE',  ( 1.000000000000000000, -4.596983092540343816E-18, 0.000000000000000000 ) ) ;
#66 = ADVANCED_FACE ( 'NONE', ( #282 ), #60, .F. ) ;
#67 = DIRECTION ( 'NONE',  ( -1.000000000000000000, 0.000000000000000000, 0.000000000000000000 ) ) ;
#68 = CARTESIAN_POINT ( 'NONE',  ( 9.236488298952508525E-16, 0.000000000000000000, 0.000000000000000000 ) ) ;
#69 = DIRECTION ( 'NONE',  ( 4.596983092540343816E-18, 1.000000000000000000, -0.000000000000000000 ) ) ;
#70 = CC_DESIGN_PERSON_AND_ORGANIZATION_ASSIGNMENT ( #31, #276, ( #36 ) ) ;
#71 = PERSON_AND_ORGANIZATION ( #117, #294 ) ;
#72 = AXIS2_PLACEMENT_3D ( 'NONE', #153, #285, #129 ) ;
#73 = CYLINDRICAL_SURFACE ( 'NONE', #335, 10.00000000000000000 ) ;
#74 = DIRECTION ( 'NONE',  ( -1.000000000000000000, 0.000000000000000000, 0.000000000000000000 ) ) ;
#75 = CARTESIAN_POINT ( 'NONE',  ( 9.236488298952508525E-16, 0.000000000000000000, 0.000000000000000000 ) ) ;
#76 = CALENDAR_DATE ( 2024, 18, 7 ) ;
#77 = DIRECTION ( 'NONE',  ( -0.000000000000000000, 0.000000000000000000, -1.000000000000000000 ) ) ;
#78 = EDGE_CURVE ( 'NONE', #249, #162, #172, .T. ) ;
#79 = LINE ( 'NONE', #188, #218 ) ;
#80 = EDGE_LOOP ( 'NONE', ( #233, #112, #43, #227 ) ) ;
#81 = AXIS2_PLACEMENT_3D ( 'NONE', #178, #234, #155 ) ;
#82 = AXIS2_PLACEMENT_3D ( 'NONE', #236, #125, #65 ) ;
#83 = DATE_TIME_ROLE ( 'creation_date' ) ;
#84 = EDGE_LOOP ( 'NONE', ( #41, #165, #37, #90 ) ) ;
#85 = SECURITY_CLASSIFICATION_LEVEL ( 'unclassified' ) ;
#86 = CC_DESIGN_PERSON_AND_ORGANIZATION_ASSIGNMENT ( #205, #312, ( #260 ) ) ;
#87 = ORIENTED_EDGE ( 'NONE', *, *, #19, .T. ) ;
#88 = ORIENTED_EDGE ( 'NONE', *, *, #181, .F. ) ;
#89 = AXIS2_PLACEMENT_3D ( 'NONE', #14, #283, #101 ) ;
#90 = ORIENTED_EDGE ( 'NONE', *, *, #243, .F. ) ;
#91 = CARTESIAN_POINT ( 'NONE',  ( 1.224646799147354440E-15, -1.000000000000002665, 0.000000000000000000 ) ) ;
#92 = ORIENTED_EDGE ( 'NONE', *, *, #49, .T. ) ;
#93 = AXIS2_PLACEMENT_3D ( 'NONE', #349, #211, #290 ) ;
#94 = AXIS2_PLACEMENT_3D ( 'NONE', #91, #343, #177 ) ;
#95 = DIRECTION ( 'NONE',  ( 4.596983092540343816E-18, 1.000000000000000000, -0.000000000000000000 ) ) ;
#96 = ORIENTED_EDGE ( 'NONE', *, *, #13, .F. ) ;
#97 = DIRECTION ( 'NONE',  ( -1.000000000000000000, 0.000000000000000000, 0.000000000000000000 ) ) ;
#98 = CARTESIAN_POINT ( 'NONE',  ( 1.224646799147354440E-15, -1.000000000000002665, 0.000000000000000000 ) ) ;
#99 = LINE ( 'NONE', #202, #340 ) ;
#100 = CC_DESIGN_APPROVAL ( #104, ( #247 ) ) ;
#101 = DIRECTION ( 'NONE',  ( -1.000000000000000000, 0.000000000000000000, 0.000000000000000000 ) ) ;
#102 = CIRCLE ( 'NONE', #115, 9.692307692307691624 ) ;
#103 = LOCAL_TIME ( 11, 58, 42.00000000000000000, #287 ) ;
#104 = APPROVAL ( #24, 'UNSPECIFIED' ) ;
#105 = DIRECTION ( 'NONE',  ( 0.000000000000000000, 0.000000000000000000, 1.000000000000000000 ) ) ;
#106 = EDGE_CURVE ( 'NONE', #113, #179, #342, .T. ) ;
#107 = PERSON_AND_ORGANIZATION ( #117, #294 ) ;
#108 = CC_DESIGN_PERSON_AND_ORGANIZATION_ASSIGNMENT ( #272, #270, ( #278 ) ) ;
#109 = DIRECTION ( 'NONE',  ( 1.000000000000000000, 0.000000000000000000, 1.224646799147353207E-16 ) ) ;
#110 = ORIENTED_EDGE ( 'NONE', *, *, #106, .F. ) ;
#111 = DATE_AND_TIME ( #135, #130 ) ;
#112 = ORIENTED_EDGE ( 'NONE', *, *, #131, .T. ) ;
#113 = VERTEX_POINT ( 'NONE', #284 ) ;
#114 = VECTOR ( 'NONE', #325, 1000.000000000000000 ) ;
#115 = AXIS2_PLACEMENT_3D ( 'NONE', #313, #95, #45 ) ;
#116 = VERTEX_POINT ( 'NONE', #12 ) ;
#117 = PERSON ( 'UNSPECIFIED', 'UNSPECIFIED', 'UNSPECIFIED', ('UNSPECIFIED'), ('UNSPECIFIED'), ('UNSPECIFIED') ) ;
#118 = DIRECTION ( 'NONE',  ( 4.596983092540343816E-18, 1.000000000000000000, -0.000000000000000000 ) ) ;
#119 = CARTESIAN_POINT ( 'NONE',  ( 1.387778780781445676E-14, 2817.965330118411202, 0.000000000000000000 ) ) ;
#120 = FACE_OUTER_BOUND ( 'NONE', #334, .T. ) ;
#121 = CIRCLE ( 'NONE', #358, 12.00000000000000178 ) ;
#122 = VECTOR ( 'NONE', #126, 1000.000000000000000 ) ;
#123 = FACE_OUTER_BOUND ( 'NONE', #16, .T. ) ;
#124 = DIRECTION ( 'NONE',  ( 4.596983092540353060E-18, 1.000000000000000000, -0.000000000000000000 ) ) ;
#125 = DIRECTION ( 'NONE',  ( -4.596983092540343816E-18, -1.000000000000000000, 0.000000000000000000 ) ) ;
#126 = DIRECTION ( 'NONE',  ( 4.596983092540343816E-18, 1.000000000000000000, -0.000000000000000000 ) ) ;
#127 = FACE_OUTER_BOUND ( 'NONE', #29, .T. ) ;
#128 = EDGE_CURVE ( 'NONE', #170, #162, #197, .T. ) ;
#129 = DIRECTION ( 'NONE',  ( -1.000000000000000000, 0.000000000000000000, 0.000000000000000000 ) ) ;
#130 = LOCAL_TIME ( 11, 58, 42.00000000000000000, #194 ) ;
#131 = EDGE_CURVE ( 'NONE', #168, #58, #321, .T. ) ;
#132 = ADVANCED_FACE ( 'NONE', ( #255 ), #152, .T. ) ;
#133 =( NAMED_UNIT ( * ) PLANE_ANGLE_UNIT ( ) SI_UNIT ( $, .RADIAN. ) );
#134 = ADVANCED_FACE ( 'NONE', ( #206 ), #73, .T. ) ;
#135 = CALENDAR_DATE ( 2024, 18, 7 ) ;
#136 = DIRECTION ( 'NONE',  ( -1.000000000000000000, 0.000000000000000000, 0.000000000000000000 ) ) ;
#137 = ORIENTED_EDGE ( 'NONE', *, *, #323, .F. ) ;
#138 = ORIENTED_EDGE ( 'NONE', *, *, #301, .F. ) ;
#139 = LOCAL_TIME ( 11, 58, 42.00000000000000000, #223 ) ;
#140 = CIRCLE ( 'NONE', #242, 1.000000000000000888 ) ;
#141 = ORIENTED_EDGE ( 'NONE', *, *, #333, .F. ) ;
#142 = ADVANCED_FACE ( 'NONE', ( #123 ), #341, .F. ) ;
#143 = ORIENTED_EDGE ( 'NONE', *, *, #250, .F. ) ;
#144 = CC_DESIGN_DATE_AND_TIME_ASSIGNMENT ( #160, #83, ( #260 ) ) ;
#145 = ORIENTED_EDGE ( 'NONE', *, *, #323, .T. ) ;
#146 = AXIS2_PLACEMENT_3D ( 'NONE', #317, #258, #288 ) ;
#147 = DIRECTION ( 'NONE',  ( 4.596983092540343816E-18, 1.000000000000000000, -0.000000000000000000 ) ) ;
#148 = ORIENTED_EDGE ( 'NONE', *, *, #78, .F. ) ;
#149 = APPROVAL ( #263, 'UNSPECIFIED' ) ;
#150 = DIRECTION ( 'NONE',  ( 4.596983092540343816E-18, 1.000000000000000000, -0.000000000000000000 ) ) ;
#151 = CARTESIAN_POINT ( 'NONE',  ( 9.236488298952508525E-16, 0.000000000000000000, 0.000000000000000000 ) ) ;
#152 = TOROIDAL_SURFACE ( 'NONE', #27, 8.999999999999998224, 1.000000000000001332 ) ;
#153 = CARTESIAN_POINT ( 'NONE',  ( -8.999999999999996447, 8.380831519646861238, 0.000000000000000000 ) ) ;
#154 = CARTESIAN_POINT ( 'NONE',  ( 1.224646799147354440E-15, -1.000000000000002665, 0.000000000000000000 ) ) ;
#155 = DIRECTION ( 'NONE',  ( -1.000000000000000000, 4.596983092540343816E-18, 0.000000000000000000 ) ) ;
#156 = CARTESIAN_POINT ( 'NONE',  ( 5.450225167694265180E-16, 11.00000000000000000, 0.000000000000000000 ) ) ;
#157 = AXIS2_PLACEMENT_3D ( 'NONE', #264, #238, #309 ) ;
#158 = CARTESIAN_POINT ( 'NONE',  ( 1.224646799147354440E-15, -1.000000000000002665, 0.000000000000000000 ) ) ;
#159 = AXIS2_PLACEMENT_3D ( 'NONE', #98, #252, #256 ) ;
#160 = DATE_AND_TIME ( #219, #103 ) ;
#161 = CIRCLE ( 'NONE', #72, 1.000000000000000888 ) ;
#162 = VERTEX_POINT ( 'NONE', #173 ) ;
#163 = APPROVAL_DATE_TIME ( #111, #104 ) ;
#164 = ADVANCED_FACE ( 'NONE', ( #38 ), #346, .T. ) ;
#165 = ORIENTED_EDGE ( 'NONE', *, *, #304, .T. ) ;
#166 = CALENDAR_DATE ( 2024, 18, 7 ) ;
#167 = EDGE_CURVE ( 'NONE', #116, #302, #102, .T. ) ;
#168 = VERTEX_POINT ( 'NONE', #20 ) ;
#169 = MANIFOLD_SOLID_BREP ( 'Wandung1', #52 ) ;
#170 = VERTEX_POINT ( 'NONE', #18 ) ;
#171 = EDGE_LOOP ( 'NONE', ( #356, #30 ) ) ;
#172 = LINE ( 'NONE', #262, #122 ) ;
#173 = CARTESIAN_POINT ( 'NONE',  ( -7.999999999999998224, 7.944271909999272907, 0.000000000000000000 ) ) ;
#174 = DIRECTION ( 'NONE',  ( -1.000000000000000000, 4.596983092540343816E-18, 0.000000000000000000 ) ) ;
#175 = COORDINATED_UNIVERSAL_TIME_OFFSET ( 1, 0, .AHEAD. ) ;
#176 = FACE_OUTER_BOUND ( 'NONE', #56, .T. ) ;
#177 = DIRECTION ( 'NONE',  ( -1.000000000000000000, 0.000000000000000000, 0.000000000000000000 ) ) ;
#178 = CARTESIAN_POINT ( 'NONE',  ( 1.734723475976807094E-15, 8.380831519646861238, 0.000000000000000000 ) ) ;
#179 = VERTEX_POINT ( 'NONE', #44 ) ;
#180 = CIRCLE ( 'NONE', #230, 8.000000000000000000 ) ;
#181 = EDGE_CURVE ( 'NONE', #116, #279, #267, .T. ) ;
#182 = APPLICATION_CONTEXT ( 'configuration controlled 3d designs of mechanical parts and assemblies' ) ;
#183 = ADVANCED_FACE ( 'NONE', ( #11 ), #189, .T. ) ;
#184 = AXIS2_PLACEMENT_3D ( 'NONE', #119, #265, #97 ) ;
#185 = DIRECTION ( 'NONE',  ( 4.596983092540343816E-18, 1.000000000000000000, -0.000000000000000000 ) ) ;
#186 = CARTESIAN_POINT ( 'NONE',  ( -7.999999999999998224, 3.677586474032275053E-17, 0.000000000000000000 ) ) ;
#187 = DIRECTION ( 'NONE',  ( -1.000000000000000000, 0.000000000000000000, 0.000000000000000000 ) ) ;
#188 = CARTESIAN_POINT ( 'NONE',  ( 10.00000000000001421, 2817.965330118411202, 1.224646799147353256E-15 ) ) ;
#189 = TOROIDAL_SURFACE ( 'NONE', #81, 8.999999999999998224, 1.000000000000001332 ) ;
#190 = CIRCLE ( 'NONE', #93, 10.00000000000000000 ) ;
#191 = ORIENTED_EDGE ( 'NONE', *, *, #78, .T. ) ;
#192 = APPROVAL_DATE_TIME ( #324, #310 ) ;
#193 = ORIENTED_EDGE ( 'NONE', *, *, #13, .T. ) ;
#194 = COORDINATED_UNIVERSAL_TIME_OFFSET ( 1, 0, .AHEAD. ) ;
#195 = EDGE_CURVE ( 'NONE', #302, #116, #5, .T. ) ;
#196 = EDGE_LOOP ( 'NONE', ( #96, #308, #3 ) ) ;
#197 = CIRCLE ( 'NONE', #33, 8.000000000000000000 ) ;
#198 = ORIENTED_EDGE ( 'NONE', *, *, #19, .F. ) ;
#199 = SPHERICAL_SURFACE ( 'NONE', #94, 12.00000000000000178 ) ;
#200 = FACE_BOUND ( 'NONE', #171, .T. ) ;
#201 = CARTESIAN_POINT ( 'NONE',  ( 9.621753706924962533E-16, 8.380831519646747552, 0.000000000000000000 ) ) ;
#202 = CARTESIAN_POINT ( 'NONE',  ( -9.999999999999985789, 2817.965330118411202, 0.000000000000000000 ) ) ;
#203 = DIRECTION ( 'NONE',  ( -1.224646799147353207E-16, 5.629680630014033300E-34, 1.000000000000000000 ) ) ;
#204 = ADVANCED_BREP_SHAPE_REPRESENTATION ( '3D_R175_DN20x2_17336150', ( #169, #53 ), #271 ) ;
#205 = PERSON_AND_ORGANIZATION ( #117, #294 ) ;
#206 = FACE_OUTER_BOUND ( 'NONE', #336, .T. ) ;
#207 = VERTEX_POINT ( 'NONE', #156 ) ;
#208 = DIRECTION ( 'NONE',  ( 1.000000000000000000, -4.596983092540343816E-18, 0.000000000000000000 ) ) ;
#209 = AXIS2_PLACEMENT_3D ( 'NONE', #355, #105, #212 ) ;
#210 = AXIS2_PLACEMENT_3D ( 'NONE', #75, #353, #46 ) ;
#211 = DIRECTION ( 'NONE',  ( 4.596983092540343816E-18, 1.000000000000000000, -0.000000000000000000 ) ) ;
#212 = DIRECTION ( 'NONE',  ( -1.000000000000000000, 0.000000000000000000, 0.000000000000000000 ) ) ;
#213 = EDGE_CURVE ( 'NONE', #332, #249, #180, .T. ) ;
#214 = PERSON_AND_ORGANIZATION_ROLE ( 'design_supplier' ) ;
#215 = CARTESIAN_POINT ( 'NONE',  ( 9.692307692307693401, 9.102433944235155394, 1.205806079160471032E-15 ) ) ;
#216 = PERSON_AND_ORGANIZATION ( #117, #294 ) ;
#217 = LINE ( 'NONE', #244, #114 ) ;
#218 = VECTOR ( 'NONE', #241, 1000.000000000000000 ) ;
#219 = CALENDAR_DATE ( 2024, 18, 7 ) ;
#220 = UNCERTAINTY_MEASURE_WITH_UNIT (LENGTH_MEASURE( 1.000000000000000082E-05 ), #318, 'distance_accuracy_value', 'NONE');
#221 = PRODUCT_DEFINITION_SHAPE ( 'NONE', 'NONE',  #260 ) ;
#222 = EDGE_LOOP ( 'NONE', ( #306, #193, #88 ) ) ;
#223 = COORDINATED_UNIVERSAL_TIME_OFFSET ( 1, 0, .AHEAD. ) ;
#224 = ORIENTED_EDGE ( 'NONE', *, *, #15, .T. ) ;
#225 = ORIENTED_EDGE ( 'NONE', *, *, #213, .F. ) ;
#226 = AXIS2_PLACEMENT_3D ( 'NONE', #344, #150, #74 ) ;
#227 = ORIENTED_EDGE ( 'NONE', *, *, #195, .F. ) ;
#228 = ORIENTED_EDGE ( 'NONE', *, *, #131, .F. ) ;
#229 = CARTESIAN_POINT ( 'NONE',  ( 1.734723475976807094E-15, 8.380831519646861238, 0.000000000000000000 ) ) ;
#230 = AXIS2_PLACEMENT_3D ( 'NONE', #68, #147, #208 ) ;
#231 = AXIS2_PLACEMENT_3D ( 'NONE', #35, #69, #338 ) ;
#232 = CARTESIAN_POINT ( 'NONE',  ( 1.387778780781445676E-14, 2817.965330118411202, 0.000000000000000000 ) ) ;
#233 = ORIENTED_EDGE ( 'NONE', *, *, #15, .F. ) ;
#234 = DIRECTION ( 'NONE',  ( 4.596983092540343816E-18, 1.000000000000000000, -0.000000000000000000 ) ) ;
#235 = ORIENTED_EDGE ( 'NONE', *, *, #320, .F. ) ;
#236 = CARTESIAN_POINT ( 'NONE',  ( -1.056612677655089051E-34, -2.298491546270171600E-17, 0.000000000000000000 ) ) ;
#237 = AXIS2_PLACEMENT_3D ( 'NONE', #296, #268, #136 ) ;
#238 = DIRECTION ( 'NONE',  ( 4.596983092540343816E-18, 1.000000000000000000, -0.000000000000000000 ) ) ;
#239 = CC_DESIGN_DATE_AND_TIME_ASSIGNMENT ( #269, #295, ( #36 ) ) ;
#240 = MECHANICAL_CONTEXT ( 'NONE', #182, 'mechanical' ) ;
#241 = DIRECTION ( 'NONE',  ( 4.596983092540343816E-18, 1.000000000000000000, -0.000000000000000000 ) ) ;
#242 = AXIS2_PLACEMENT_3D ( 'NONE', #6, #203, #9 ) ;
#243 = EDGE_CURVE ( 'NONE', #179, #58, #99, .T. ) ;
#244 = CARTESIAN_POINT ( 'NONE',  ( 8.000000000000014211, 2817.965330118411202, 9.797174393178825657E-16 ) ) ;
#245 = ORIENTED_EDGE ( 'NONE', *, *, #320, .T. ) ;
#246 = ORIENTED_EDGE ( 'NONE', *, *, #106, .T. ) ;
#247 = PRODUCT_DEFINITION_FORMATION_WITH_SPECIFIED_SOURCE ( 'ANY', '', #278, .NOT_KNOWN. ) ;
#248 = CIRCLE ( 'NONE', #359, 8.000000000000000000 ) ;
#249 = VERTEX_POINT ( 'NONE', #186 ) ;
#250 = EDGE_CURVE ( 'NONE', #179, #113, #190, .T. ) ;
#251 = CIRCLE ( 'NONE', #159, 14.00000000000000178 ) ;
#252 = DIRECTION ( 'NONE',  ( -1.224646799147353207E-16, 5.629680630014033300E-34, 1.000000000000000000 ) ) ;
#253 = CC_DESIGN_APPROVAL ( #149, ( #260 ) ) ;
#254 = DIRECTION ( 'NONE',  ( -1.000000000000000000, 0.000000000000000000, 0.000000000000000000 ) ) ;
#255 = FACE_OUTER_BOUND ( 'NONE', #299, .T. ) ;
#256 = DIRECTION ( 'NONE',  ( 1.000000000000000000, 0.000000000000000000, 1.224646799147353207E-16 ) ) ;
#257 = CALENDAR_DATE ( 2024, 18, 7 ) ;
#258 = DIRECTION ( 'NONE',  ( -0.000000000000000000, 0.000000000000000000, -1.000000000000000000 ) ) ;
#259 = ORIENTED_EDGE ( 'NONE', *, *, #128, .F. ) ;
#260 = PRODUCT_DEFINITION ( 'UNKNOWN', '', #247, #34 ) ;
#261 = CARTESIAN_POINT ( 'NONE',  ( 4.317518030397718479E-16, 13.00000000000000000, 0.000000000000000000 ) ) ;
#262 = CARTESIAN_POINT ( 'NONE',  ( -7.999999999999986677, 2817.965330118411202, 0.000000000000000000 ) ) ;
#263 = APPROVAL_STATUS ( 'not_yet_approved' ) ;
#264 = CARTESIAN_POINT ( 'NONE',  ( 9.654925648378657808E-16, 9.102433944235155394, 0.000000000000000000 ) ) ;
#265 = DIRECTION ( 'NONE',  ( 4.596983092540343816E-18, 1.000000000000000000, -0.000000000000000000 ) ) ;
#266 = CC_DESIGN_APPROVAL ( #310, ( #36 ) ) ;
#267 = CIRCLE ( 'NONE', #146, 14.00000000000000178 ) ;
#268 = DIRECTION ( 'NONE',  ( 0.000000000000000000, 0.000000000000000000, 1.000000000000000000 ) ) ;
#269 = DATE_AND_TIME ( #76, #139 ) ;
#270 = PERSON_AND_ORGANIZATION_ROLE ( 'design_owner' ) ;
#271 =( GEOMETRIC_REPRESENTATION_CONTEXT ( 3 ) GLOBAL_UNCERTAINTY_ASSIGNED_CONTEXT ( ( #220 ) ) GLOBAL_UNIT_ASSIGNED_CONTEXT ( ( #318, #133, #350 ) ) REPRESENTATION_CONTEXT ( 'NONE', 'WORKASPACE' ) );
#272 = PERSON_AND_ORGANIZATION ( #117, #294 ) ;
#273 = ADVANCED_FACE ( 'NONE', ( #200, #127 ), #42, .T. ) ;
#274 = CIRCLE ( 'NONE', #210, 8.000000000000000000 ) ;
#275 = ORIENTED_EDGE ( 'NONE', *, *, #167, .F. ) ;
#276 = PERSON_AND_ORGANIZATION_ROLE ( 'classification_officer' ) ;
#277 = EDGE_CURVE ( 'NONE', #58, #116, #161, .T. ) ;
#278 = PRODUCT ( '3D_R175_DN20x2_17336150', '3D_R175_DN20x2_17336150', '', ( #240 ) ) ;
#279 = VERTEX_POINT ( 'NONE', #261 ) ;
#280 = DIRECTION ( 'NONE',  ( 4.596983092540353060E-18, 1.000000000000000000, -0.000000000000000000 ) ) ;
#281 = AXIS2_PLACEMENT_3D ( 'NONE', #201, #118, #254 ) ;
#282 = FACE_OUTER_BOUND ( 'NONE', #289, .T. ) ;
#283 = DIRECTION ( 'NONE',  ( 4.596983092540343816E-18, 1.000000000000000000, -0.000000000000000000 ) ) ;
#284 = CARTESIAN_POINT ( 'NONE',  ( 10.00000000000000178, -4.596983092540343816E-17, 1.224646799147353256E-15 ) ) ;
#285 = DIRECTION ( 'NONE',  ( -0.000000000000000000, 0.000000000000000000, -1.000000000000000000 ) ) ;
#286 = CARTESIAN_POINT ( 'NONE',  ( 9.601685135480615201E-16, 7.944271909999272907, 0.000000000000000000 ) ) ;
#287 = COORDINATED_UNIVERSAL_TIME_OFFSET ( 1, 0, .AHEAD. ) ;
#288 = DIRECTION ( 'NONE',  ( -1.000000000000000000, 0.000000000000000000, 0.000000000000000000 ) ) ;
#289 = EDGE_LOOP ( 'NONE', ( #225, #245, #59, #148 ) ) ;
#290 = DIRECTION ( 'NONE',  ( -1.000000000000000000, 4.596983092540343816E-18, 0.000000000000000000 ) ) ;
#291 = DIRECTION ( 'NONE',  ( 1.000000000000000000, 0.000000000000000000, 0.000000000000000000 ) ) ;
#292 = ADVANCED_FACE ( 'NONE', ( #176 ), #351, .F. ) ;
#293 = CARTESIAN_POINT ( 'NONE',  ( 8.000000000000001776, -3.677586474032275053E-17, 9.797174393178825657E-16 ) ) ;
#294 = ORGANIZATION ( 'UNSPECIFIED', 'UNSPECIFIED', '' ) ;
#295 = DATE_TIME_ROLE ( 'classification_date' ) ;
#296 = CARTESIAN_POINT ( 'NONE',  ( 1.224646799147354440E-15, -1.000000000000002665, 0.000000000000000000 ) ) ;
#297 = CC_DESIGN_PERSON_AND_ORGANIZATION_ASSIGNMENT ( #216, #214, ( #247 ) ) ;
#298 = SPHERICAL_SURFACE ( 'NONE', #209, 14.00000000000000178 ) ;
#299 = EDGE_LOOP ( 'NONE', ( #92, #224, #275, #357 ) ) ;
#300 = APPROVAL_PERSON_ORGANIZATION ( #329, #310, #55 ) ;
#301 = EDGE_CURVE ( 'NONE', #249, #332, #274, .T. ) ;
#302 = VERTEX_POINT ( 'NONE', #215 ) ;
#303 = PERSON_AND_ORGANIZATION ( #117, #294 ) ;
#304 = EDGE_CURVE ( 'NONE', #113, #168, #79, .T. ) ;
#305 = ORIENTED_EDGE ( 'NONE', *, *, #304, .F. ) ;
#306 = ORIENTED_EDGE ( 'NONE', *, *, #167, .T. ) ;
#307 = DIRECTION ( 'NONE',  ( 4.596983092540343816E-18, 1.000000000000000000, -0.000000000000000000 ) ) ;
#308 = ORIENTED_EDGE ( 'NONE', *, *, #195, .T. ) ;
#309 = DIRECTION ( 'NONE',  ( -1.000000000000000000, 0.000000000000000000, 0.000000000000000000 ) ) ;
#310 = APPROVAL ( #1, 'UNSPECIFIED' ) ;
#311 = FACE_OUTER_BOUND ( 'NONE', #222, .T. ) ;
#312 = PERSON_AND_ORGANIZATION_ROLE ( 'creator' ) ;
#313 = CARTESIAN_POINT ( 'NONE',  ( 9.654925648378657808E-16, 9.102433944235155394, 0.000000000000000000 ) ) ;
#314 = CARTESIAN_POINT ( 'NONE',  ( -9.999999999999998224, 8.380831519646747552, 0.000000000000000000 ) ) ;
#315 = AXIS2_PLACEMENT_3D ( 'NONE', #154, #337, #67 ) ;
#316 = CIRCLE ( 'NONE', #328, 12.00000000000000178 ) ;
#317 = CARTESIAN_POINT ( 'NONE',  ( 1.224646799147354440E-15, -1.000000000000002665, 0.000000000000000000 ) ) ;
#318 =( LENGTH_UNIT ( ) NAMED_UNIT ( * ) SI_UNIT ( .MILLI., .METRE. ) );
#319 = CARTESIAN_POINT ( 'NONE',  ( 1.224646799147354440E-15, -1.000000000000002665, 0.000000000000000000 ) ) ;
#320 = EDGE_CURVE ( 'NONE', #332, #170, #217, .T. ) ;
#321 = CIRCLE ( 'NONE', #89, 10.00000000000000000 ) ;
#322 = CARTESIAN_POINT ( 'NONE',  ( 0.000000000000000000, 0.000000000000000000, 0.000000000000000000 ) ) ;
#323 = EDGE_CURVE ( 'NONE', #162, #207, #316, .T. ) ;
#324 = DATE_AND_TIME ( #166, #61 ) ;
#325 = DIRECTION ( 'NONE',  ( 4.596983092540343816E-18, 1.000000000000000000, -0.000000000000000000 ) ) ;
#326 = APPLICATION_CONTEXT ( 'configuration controlled 3d designs of mechanical parts and assemblies' ) ;
#327 = COORDINATED_UNIVERSAL_TIME_OFFSET ( 1, 0, .AHEAD. ) ;
#328 = AXIS2_PLACEMENT_3D ( 'NONE', #319, #77, #187 ) ;
#329 = PERSON_AND_ORGANIZATION ( #117, #294 ) ;
#330 = CC_DESIGN_SECURITY_CLASSIFICATION ( #36, ( #247 ) ) ;
#331 = PERSON_AND_ORGANIZATION_ROLE ( 'creator' ) ;
#332 = VERTEX_POINT ( 'NONE', #293 ) ;
#333 = EDGE_CURVE ( 'NONE', #170, #207, #121, .T. ) ;
#334 = EDGE_LOOP ( 'NONE', ( #141, #198, #145 ) ) ;
#335 = AXIS2_PLACEMENT_3D ( 'NONE', #232, #40, #8 ) ;
#336 = EDGE_LOOP ( 'NONE', ( #305, #246, #51, #228 ) ) ;
#337 = DIRECTION ( 'NONE',  ( 0.000000000000000000, 0.000000000000000000, 1.000000000000000000 ) ) ;
#338 = DIRECTION ( 'NONE',  ( -1.000000000000000000, 0.000000000000000000, 0.000000000000000000 ) ) ;
#339 = CC_DESIGN_PERSON_AND_ORGANIZATION_ASSIGNMENT ( #107, #331, ( #247 ) ) ;
#340 = VECTOR ( 'NONE', #185, 1000.000000000000000 ) ;
#341 = CYLINDRICAL_SURFACE ( 'NONE', #226, 8.000000000000000000 ) ;
#342 = CIRCLE ( 'NONE', #57, 10.00000000000000000 ) ;
#343 = DIRECTION ( 'NONE',  ( 0.000000000000000000, 0.000000000000000000, 1.000000000000000000 ) ) ;
#344 = CARTESIAN_POINT ( 'NONE',  ( 1.387778780781445676E-14, 2817.965330118411202, 0.000000000000000000 ) ) ;
#345 = DIRECTION ( 'NONE',  ( 1.000000000000000000, 0.000000000000000000, 0.000000000000000000 ) ) ;
#346 = CYLINDRICAL_SURFACE ( 'NONE', #184, 10.00000000000000000 ) ;
#347 = ADVANCED_FACE ( 'NONE', ( #21 ), #298, .T. ) ;
#348 = CIRCLE ( 'NONE', #281, 10.00000000000000000 ) ;
#349 = CARTESIAN_POINT ( 'NONE',  ( 9.236488298952508525E-16, 0.000000000000000000, 0.000000000000000000 ) ) ;
#350 =( NAMED_UNIT ( * ) SI_UNIT ( $, .STERADIAN. ) SOLID_ANGLE_UNIT ( ) );
#351 = SPHERICAL_SURFACE ( 'NONE', #237, 12.00000000000000178 ) ;
#352 = SHAPE_DEFINITION_REPRESENTATION ( #221, #204 ) ;
#353 = DIRECTION ( 'NONE',  ( 4.596983092540343816E-18, 1.000000000000000000, -0.000000000000000000 ) ) ;
#354 = APPROVAL_ROLE ( '' ) ;
#355 = CARTESIAN_POINT ( 'NONE',  ( 1.224646799147354440E-15, -1.000000000000002665, 0.000000000000000000 ) ) ;
#356 = ORIENTED_EDGE ( 'NONE', *, *, #301, .T. ) ;
#357 = ORIENTED_EDGE ( 'NONE', *, *, #277, .F. ) ;
#358 = AXIS2_PLACEMENT_3D ( 'NONE', #158, #28, #109 ) ;
#359 = AXIS2_PLACEMENT_3D ( 'NONE', #286, #280, #345 ) ;
ENDSEC;
END-ISO-10303-21;
