ISO-10303-21;
HEADER;
FILE_DESCRIPTION (( 'STEP AP203' ),
    '1' );
FILE_NAME ('3D_R243_104_17386650.STEP',
    '2024-08-06T10:10:47',
    ( '' ),
    ( '' ),
    'SwSTEP 2.0',
    'SolidWorks 2024',
    '' );
FILE_SCHEMA (( 'CONFIG_CONTROL_DESIGN' ));
ENDSEC;

DATA;
#1 = CARTESIAN_POINT ( 'NONE',  ( 0.000000000000000000, 4.000000000000000000, 0.000000000000000000 ) ) ;
#2 = PERSON ( 'UNSPECIFIED', 'UNSPECIFIED', 'UNSPECIFIED', ('UNSPECIFIED'), ('UNSPECIFIED'), ('UNSPECIFIED') ) ;
#3 = CC_DESIGN_PERSON_AND_ORGANIZATION_ASSIGNMENT ( #79, #92, ( #167 ) ) ;
#4 = FACE_BOUND ( 'NONE', #186, .T. ) ;
#5 = DIRECTION ( 'NONE',  ( 0.000000000000000000, 0.000000000000000000, 1.000000000000000000 ) ) ;
#6 = PERSON_AND_ORGANIZATION_ROLE ( 'creator' ) ;
#7 = CARTESIAN_POINT ( 'NONE',  ( 0.000000000000000000, 4.000000000000000000, 0.000000000000000000 ) ) ;
#8 = AXIS2_PLACEMENT_3D ( 'NONE', #49, #12, #117 ) ;
#9 = DATE_TIME_ROLE ( 'classification_date' ) ;
#10 = CARTESIAN_POINT ( 'NONE',  ( 1.019518460290171371E-14, 4.000000000000000000, 83.24999999999998579 ) ) ;
#11 = ORIENTED_EDGE ( 'NONE', *, *, #50, .F. ) ;
#12 = DIRECTION ( 'NONE',  ( 0.000000000000000000, 1.000000000000000000, 0.000000000000000000 ) ) ;
#13 = CC_DESIGN_PERSON_AND_ORGANIZATION_ASSIGNMENT ( #134, #236, ( #75 ) ) ;
#14 = DATE_AND_TIME ( #234, #118 ) ;
#15 = CYLINDRICAL_SURFACE ( 'NONE', #39, 83.24999999999998579 ) ;
#16 = CIRCLE ( 'NONE', #17, 83.24999999999998579 ) ;
#17 = AXIS2_PLACEMENT_3D ( 'NONE', #71, #172, #27 ) ;
#18 = CALENDAR_DATE ( 2024, 6, 8 ) ;
#19 = VERTEX_POINT ( 'NONE', #10 ) ;
#20 = ADVANCED_FACE ( 'NONE', ( #122 ), #15, .T. ) ;
#21 = DIRECTION ( 'NONE',  ( -0.000000000000000000, -1.000000000000000000, -0.000000000000000000 ) ) ;
#22 = ORIENTED_EDGE ( 'NONE', *, *, #58, .F. ) ;
#23 = APPLICATION_CONTEXT ( 'configuration controlled 3d designs of mechanical parts and assemblies' ) ;
#24 = CARTESIAN_POINT ( 'NONE',  ( 0.000000000000000000, 4.000000000000000000, -83.24999999999998579 ) ) ;
#25 = CIRCLE ( 'NONE', #76, 53.25000000000000000 ) ;
#26 =( LENGTH_UNIT ( ) NAMED_UNIT ( * ) SI_UNIT ( .MILLI., .METRE. ) );
#27 = DIRECTION ( 'NONE',  ( 0.000000000000000000, 0.000000000000000000, 1.000000000000000000 ) ) ;
#28 = DATE_TIME_ROLE ( 'creation_date' ) ;
#29 = ORIENTED_EDGE ( 'NONE', *, *, #90, .F. ) ;
#30 = LOCAL_TIME ( 12, 10, 47.00000000000000000, #88 ) ;
#31 = CARTESIAN_POINT ( 'NONE',  ( 6.521244205459656106E-15, 0.000000000000000000, 53.25000000000000000 ) ) ;
#32 = EDGE_CURVE ( 'NONE', #138, #176, #98, .T. ) ;
#33 = DIRECTION ( 'NONE',  ( -0.000000000000000000, -1.000000000000000000, -0.000000000000000000 ) ) ;
#34 = PERSON_AND_ORGANIZATION ( #2, #141 ) ;
#35 = ORIENTED_EDGE ( 'NONE', *, *, #204, .T. ) ;
#36 = CARTESIAN_POINT ( 'NONE',  ( 6.521244205459656106E-15, 4.000000000000000000, 53.25000000000000000 ) ) ;
#37 = APPLICATION_CONTEXT ( 'configuration controlled 3d designs of mechanical parts and assemblies' ) ;
#38 = FACE_BOUND ( 'NONE', #67, .T. ) ;
#39 = AXIS2_PLACEMENT_3D ( 'NONE', #7, #106, #240 ) ;
#40 = PERSON_AND_ORGANIZATION ( #2, #141 ) ;
#41 = EDGE_CURVE ( 'NONE', #47, #130, #16, .T. ) ;
#42 = CARTESIAN_POINT ( 'NONE',  ( 1.019518460290171371E-14, 4.000000000000000000, 83.24999999999998579 ) ) ;
#43 = APPROVAL_STATUS ( 'not_yet_approved' ) ;
#44 = DIRECTION ( 'NONE',  ( 0.000000000000000000, -0.000000000000000000, 1.000000000000000000 ) ) ;
#45 = ORIENTED_EDGE ( 'NONE', *, *, #129, .T. ) ;
#46 = AXIS2_PLACEMENT_3D ( 'NONE', #221, #154, #242 ) ;
#47 = VERTEX_POINT ( 'NONE', #158 ) ;
#48 = APPROVAL_ROLE ( '' ) ;
#49 = CARTESIAN_POINT ( 'NONE',  ( 0.000000000000000000, 4.000000000000000000, 0.000000000000000000 ) ) ;
#50 = EDGE_CURVE ( 'NONE', #19, #225, #109, .T. ) ;
#51 = ADVANCED_BREP_SHAPE_REPRESENTATION ( '3D_R243_104_17386650', ( #216, #235 ), #125 ) ;
#52 = AXIS2_PLACEMENT_3D ( 'NONE', #96, #192, #44 ) ;
#53 = PERSON_AND_ORGANIZATION_ROLE ( 'classification_officer' ) ;
#54 = ORIENTED_EDGE ( 'NONE', *, *, #83, .F. ) ;
#55 = EDGE_LOOP ( 'NONE', ( #233, #170, #196, #155 ) ) ;
#56 = APPROVAL ( #43, 'UNSPECIFIED' ) ;
#57 = CC_DESIGN_APPROVAL ( #56, ( #160 ) ) ;
#58 = EDGE_CURVE ( 'NONE', #225, #130, #69, .T. ) ;
#59 =( NAMED_UNIT ( * ) SI_UNIT ( $, .STERADIAN. ) SOLID_ANGLE_UNIT ( ) );
#60 = CARTESIAN_POINT ( 'NONE',  ( 6.521244205459656106E-15, 4.000000000000000000, 53.25000000000000000 ) ) ;
#61 = ADVANCED_FACE ( 'NONE', ( #151 ), #199, .T. ) ;
#62 = DIRECTION ( 'NONE',  ( 0.000000000000000000, 0.000000000000000000, 1.000000000000000000 ) ) ;
#63 = LOCAL_TIME ( 12, 10, 47.00000000000000000, #68 ) ;
#64 = CARTESIAN_POINT ( 'NONE',  ( 0.000000000000000000, 4.000000000000000000, 0.000000000000000000 ) ) ;
#65 = CC_DESIGN_DATE_AND_TIME_ASSIGNMENT ( #200, #28, ( #160 ) ) ;
#66 = DATE_AND_TIME ( #119, #30 ) ;
#67 = EDGE_LOOP ( 'NONE', ( #102, #45 ) ) ;
#68 = COORDINATED_UNIVERSAL_TIME_OFFSET ( 1, 0, .AHEAD. ) ;
#69 = LINE ( 'NONE', #81, #87 ) ;
#70 = CC_DESIGN_PERSON_AND_ORGANIZATION_ASSIGNMENT ( #137, #6, ( #160 ) ) ;
#71 = CARTESIAN_POINT ( 'NONE',  ( 0.000000000000000000, 0.000000000000000000, 0.000000000000000000 ) ) ;
#72 = APPROVAL_ROLE ( '' ) ;
#73 = ORIENTED_EDGE ( 'NONE', *, *, #224, .T. ) ;
#74 = ORIENTED_EDGE ( 'NONE', *, *, #243, .F. ) ;
#75 = PRODUCT_DEFINITION_FORMATION_WITH_SPECIFIED_SOURCE ( 'ANY', '', #167, .NOT_KNOWN. ) ;
#76 = AXIS2_PLACEMENT_3D ( 'NONE', #136, #104, #156 ) ;
#77 = DIRECTION ( 'NONE',  ( -0.000000000000000000, -1.000000000000000000, -0.000000000000000000 ) ) ;
#78 = ORIENTED_EDGE ( 'NONE', *, *, #32, .F. ) ;
#79 = PERSON_AND_ORGANIZATION ( #2, #141 ) ;
#80 = LINE ( 'NONE', #60, #181 ) ;
#81 = CARTESIAN_POINT ( 'NONE',  ( 0.000000000000000000, 4.000000000000000000, -83.24999999999998579 ) ) ;
#82 = AXIS2_PLACEMENT_3D ( 'NONE', #1, #77, #145 ) ;
#83 = EDGE_CURVE ( 'NONE', #176, #86, #25, .T. ) ;
#84 = PERSON_AND_ORGANIZATION ( #2, #141 ) ;
#85 = DIRECTION ( 'NONE',  ( -0.000000000000000000, -1.000000000000000000, -0.000000000000000000 ) ) ;
#86 = VERTEX_POINT ( 'NONE', #31 ) ;
#87 = VECTOR ( 'NONE', #120, 1000.000000000000000 ) ;
#88 = COORDINATED_UNIVERSAL_TIME_OFFSET ( 1, 0, .AHEAD. ) ;
#89 = CARTESIAN_POINT ( 'NONE',  ( 0.000000000000000000, 4.000000000000000000, -53.25000000000000000 ) ) ;
#90 = EDGE_CURVE ( 'NONE', #148, #138, #214, .T. ) ;
#91 = SECURITY_CLASSIFICATION ( '', '', #103 ) ;
#92 = PERSON_AND_ORGANIZATION_ROLE ( 'design_owner' ) ;
#93 = CYLINDRICAL_SURFACE ( 'NONE', #82, 53.25000000000000000 ) ;
#94 = APPLICATION_PROTOCOL_DEFINITION ( 'international standard', 'config_control_design', 1994, #23 ) ;
#95 = PRODUCT_DEFINITION_SHAPE ( 'NONE', 'NONE',  #160 ) ;
#96 = CARTESIAN_POINT ( 'NONE',  ( 0.000000000000000000, 0.000000000000000000, 0.000000000000000000 ) ) ;
#97 = CIRCLE ( 'NONE', #206, 83.24999999999998579 ) ;
#98 = LINE ( 'NONE', #89, #191 ) ;
#99 = APPROVAL_STATUS ( 'not_yet_approved' ) ;
#100 = ORIENTED_EDGE ( 'NONE', *, *, #163, .F. ) ;
#101 = CIRCLE ( 'NONE', #107, 53.25000000000000000 ) ;
#102 = ORIENTED_EDGE ( 'NONE', *, *, #83, .T. ) ;
#103 = SECURITY_CLASSIFICATION_LEVEL ( 'unclassified' ) ;
#104 = DIRECTION ( 'NONE',  ( 0.000000000000000000, 1.000000000000000000, 0.000000000000000000 ) ) ;
#105 = PERSON_AND_ORGANIZATION_ROLE ( 'design_supplier' ) ;
#106 = DIRECTION ( 'NONE',  ( -0.000000000000000000, -1.000000000000000000, -0.000000000000000000 ) ) ;
#107 = AXIS2_PLACEMENT_3D ( 'NONE', #139, #223, #121 ) ;
#108 = DIRECTION ( 'NONE',  ( 0.000000000000000000, -0.000000000000000000, 1.000000000000000000 ) ) ;
#109 = CIRCLE ( 'NONE', #46, 83.24999999999998579 ) ;
#110 = APPROVAL_ROLE ( '' ) ;
#111 = FACE_OUTER_BOUND ( 'NONE', #55, .T. ) ;
#112 = CC_DESIGN_DATE_AND_TIME_ASSIGNMENT ( #171, #9, ( #91 ) ) ;
#113 = DIRECTION ( 'NONE',  ( -0.000000000000000000, -1.000000000000000000, -0.000000000000000000 ) ) ;
#114 = DESIGN_CONTEXT ( 'detailed design', #37, 'design' ) ;
#115 = EDGE_LOOP ( 'NONE', ( #100, #188 ) ) ;
#116 = APPROVAL_STATUS ( 'not_yet_approved' ) ;
#117 = DIRECTION ( 'NONE',  ( 0.000000000000000000, 0.000000000000000000, 1.000000000000000000 ) ) ;
#118 = LOCAL_TIME ( 12, 10, 47.00000000000000000, #215 ) ;
#119 = CALENDAR_DATE ( 2024, 6, 8 ) ;
#120 = DIRECTION ( 'NONE',  ( -0.000000000000000000, -1.000000000000000000, -0.000000000000000000 ) ) ;
#121 = DIRECTION ( 'NONE',  ( 0.000000000000000000, 0.000000000000000000, 1.000000000000000000 ) ) ;
#122 = FACE_OUTER_BOUND ( 'NONE', #190, .T. ) ;
#123 = APPROVAL ( #99, 'UNSPECIFIED' ) ;
#124 = DIRECTION ( 'NONE',  ( 0.000000000000000000, 0.000000000000000000, 1.000000000000000000 ) ) ;
#125 =( GEOMETRIC_REPRESENTATION_CONTEXT ( 3 ) GLOBAL_UNCERTAINTY_ASSIGNED_CONTEXT ( ( #238 ) ) GLOBAL_UNIT_ASSIGNED_CONTEXT ( ( #26, #232, #59 ) ) REPRESENTATION_CONTEXT ( 'NONE', 'WORKASPACE' ) );
#126 = DIRECTION ( 'NONE',  ( 0.000000000000000000, 1.000000000000000000, 0.000000000000000000 ) ) ;
#127 = LOCAL_TIME ( 12, 10, 47.00000000000000000, #185 ) ;
#128 = FACE_OUTER_BOUND ( 'NONE', #135, .T. ) ;
#129 = EDGE_CURVE ( 'NONE', #86, #176, #101, .T. ) ;
#130 = VERTEX_POINT ( 'NONE', #201 ) ;
#131 = DIRECTION ( 'NONE',  ( 0.000000000000000000, 0.000000000000000000, -1.000000000000000000 ) ) ;
#132 = PERSON_AND_ORGANIZATION ( #2, #141 ) ;
#133 = AXIS2_PLACEMENT_3D ( 'NONE', #239, #33, #177 ) ;
#134 = PERSON_AND_ORGANIZATION ( #2, #141 ) ;
#135 = EDGE_LOOP ( 'NONE', ( #35, #179 ) ) ;
#136 = CARTESIAN_POINT ( 'NONE',  ( 0.000000000000000000, 0.000000000000000000, 0.000000000000000000 ) ) ;
#137 = PERSON_AND_ORGANIZATION ( #2, #141 ) ;
#138 = VERTEX_POINT ( 'NONE', #226 ) ;
#139 = CARTESIAN_POINT ( 'NONE',  ( 0.000000000000000000, 0.000000000000000000, 0.000000000000000000 ) ) ;
#140 = ORIENTED_EDGE ( 'NONE', *, *, #163, .T. ) ;
#141 = ORGANIZATION ( 'UNSPECIFIED', 'UNSPECIFIED', '' ) ;
#142 = PLANE ( 'NONE',  #52 ) ;
#143 = APPROVAL ( #116, 'UNSPECIFIED' ) ;
#144 = MECHANICAL_CONTEXT ( 'NONE', #23, 'mechanical' ) ;
#145 = DIRECTION ( 'NONE',  ( 0.000000000000000000, 0.000000000000000000, -1.000000000000000000 ) ) ;
#146 = CC_DESIGN_SECURITY_CLASSIFICATION ( #91, ( #75 ) ) ;
#147 = CARTESIAN_POINT ( 'NONE',  ( 0.000000000000000000, 4.000000000000000000, 0.000000000000000000 ) ) ;
#148 = VERTEX_POINT ( 'NONE', #36 ) ;
#149 = CARTESIAN_POINT ( 'NONE',  ( 0.000000000000000000, 0.000000000000000000, -53.25000000000000000 ) ) ;
#150 = COORDINATED_UNIVERSAL_TIME_OFFSET ( 1, 0, .AHEAD. ) ;
#151 = FACE_OUTER_BOUND ( 'NONE', #210, .T. ) ;
#152 = CIRCLE ( 'NONE', #184, 83.24999999999998579 ) ;
#153 = APPROVAL_DATE_TIME ( #241, #56 ) ;
#154 = DIRECTION ( 'NONE',  ( 0.000000000000000000, 1.000000000000000000, 0.000000000000000000 ) ) ;
#155 = ORIENTED_EDGE ( 'NONE', *, *, #129, .F. ) ;
#156 = DIRECTION ( 'NONE',  ( 0.000000000000000000, 0.000000000000000000, 1.000000000000000000 ) ) ;
#157 = LOCAL_TIME ( 12, 10, 47.00000000000000000, #150 ) ;
#158 = CARTESIAN_POINT ( 'NONE',  ( 1.019518460290171371E-14, 0.000000000000000000, 83.24999999999998579 ) ) ;
#159 = CC_DESIGN_APPROVAL ( #123, ( #75 ) ) ;
#160 = PRODUCT_DEFINITION ( 'UNKNOWN', '', #75, #114 ) ;
#161 = CIRCLE ( 'NONE', #228, 53.25000000000000000 ) ;
#162 = LINE ( 'NONE', #42, #246 ) ;
#163 = EDGE_CURVE ( 'NONE', #130, #47, #152, .T. ) ;
#164 = FACE_OUTER_BOUND ( 'NONE', #237, .T. ) ;
#165 = ORIENTED_EDGE ( 'NONE', *, *, #243, .T. ) ;
#166 = CARTESIAN_POINT ( 'NONE',  ( 0.000000000000000000, 4.000000000000000000, 0.000000000000000000 ) ) ;
#167 = PRODUCT ( '3D_R243_104_17386650', '3D_R243_104_17386650', '', ( #144 ) ) ;
#168 = CARTESIAN_POINT ( 'NONE',  ( 0.000000000000000000, 0.000000000000000000, 0.000000000000000000 ) ) ;
#169 = SHAPE_DEFINITION_REPRESENTATION ( #95, #51 ) ;
#170 = ORIENTED_EDGE ( 'NONE', *, *, #90, .T. ) ;
#171 = DATE_AND_TIME ( #218, #63 ) ;
#172 = DIRECTION ( 'NONE',  ( 0.000000000000000000, 1.000000000000000000, 0.000000000000000000 ) ) ;
#173 = APPROVAL_PERSON_ORGANIZATION ( #40, #56, #110 ) ;
#174 = ADVANCED_FACE ( 'NONE', ( #205, #38 ), #142, .F. ) ;
#175 = CALENDAR_DATE ( 2024, 6, 8 ) ;
#176 = VERTEX_POINT ( 'NONE', #149 ) ;
#177 = DIRECTION ( 'NONE',  ( 0.000000000000000000, 0.000000000000000000, -1.000000000000000000 ) ) ;
#178 = PERSON_AND_ORGANIZATION ( #2, #141 ) ;
#179 = ORIENTED_EDGE ( 'NONE', *, *, #50, .T. ) ;
#180 = ADVANCED_FACE ( 'NONE', ( #164 ), #207, .F. ) ;
#181 = VECTOR ( 'NONE', #113, 1000.000000000000000 ) ;
#182 = CARTESIAN_POINT ( 'NONE',  ( 0.000000000000000000, 0.000000000000000000, 0.000000000000000000 ) ) ;
#183 = DIRECTION ( 'NONE',  ( 0.000000000000000000, 1.000000000000000000, 0.000000000000000000 ) ) ;
#184 = AXIS2_PLACEMENT_3D ( 'NONE', #182, #227, #124 ) ;
#185 = COORDINATED_UNIVERSAL_TIME_OFFSET ( 1, 0, .AHEAD. ) ;
#186 = EDGE_LOOP ( 'NONE', ( #74, #29 ) ) ;
#187 = DIRECTION ( 'NONE',  ( -0.000000000000000000, -1.000000000000000000, -0.000000000000000000 ) ) ;
#188 = ORIENTED_EDGE ( 'NONE', *, *, #41, .F. ) ;
#189 = PLANE ( 'NONE',  #208 ) ;
#190 = EDGE_LOOP ( 'NONE', ( #217, #213, #219, #140 ) ) ;
#191 = VECTOR ( 'NONE', #85, 1000.000000000000000 ) ;
#192 = DIRECTION ( 'NONE',  ( 0.000000000000000000, 1.000000000000000000, 0.000000000000000000 ) ) ;
#193 = CC_DESIGN_PERSON_AND_ORGANIZATION_ASSIGNMENT ( #34, #105, ( #75 ) ) ;
#194 = ORIENTED_EDGE ( 'NONE', *, *, #41, .T. ) ;
#195 = PRODUCT_RELATED_PRODUCT_CATEGORY ( 'detail', '', ( #167 ) ) ;
#196 = ORIENTED_EDGE ( 'NONE', *, *, #32, .T. ) ;
#197 = APPROVAL_PERSON_ORGANIZATION ( #132, #123, #72 ) ;
#198 = APPROVAL_DATE_TIME ( #14, #143 ) ;
#199 = CYLINDRICAL_SURFACE ( 'NONE', #133, 83.24999999999998579 ) ;
#200 = DATE_AND_TIME ( #175, #157 ) ;
#201 = CARTESIAN_POINT ( 'NONE',  ( 0.000000000000000000, 0.000000000000000000, -83.24999999999998579 ) ) ;
#202 = ADVANCED_FACE ( 'NONE', ( #128, #4 ), #189, .T. ) ;
#203 = CLOSED_SHELL ( 'NONE', ( #180, #61, #202, #174, #20, #248 ) ) ;
#204 = EDGE_CURVE ( 'NONE', #225, #19, #97, .T. ) ;
#205 = FACE_OUTER_BOUND ( 'NONE', #115, .T. ) ;
#206 = AXIS2_PLACEMENT_3D ( 'NONE', #166, #183, #62 ) ;
#207 = CYLINDRICAL_SURFACE ( 'NONE', #247, 53.25000000000000000 ) ;
#208 = AXIS2_PLACEMENT_3D ( 'NONE', #147, #126, #108 ) ;
#209 = DIRECTION ( 'NONE',  ( 0.000000000000000000, 1.000000000000000000, 0.000000000000000000 ) ) ;
#210 = EDGE_LOOP ( 'NONE', ( #11, #73, #194, #22 ) ) ;
#211 = EDGE_CURVE ( 'NONE', #148, #86, #80, .T. ) ;
#212 = CARTESIAN_POINT ( 'NONE',  ( 0.000000000000000000, 4.000000000000000000, 0.000000000000000000 ) ) ;
#213 = ORIENTED_EDGE ( 'NONE', *, *, #204, .F. ) ;
#214 = CIRCLE ( 'NONE', #8, 53.25000000000000000 ) ;
#215 = COORDINATED_UNIVERSAL_TIME_OFFSET ( 1, 0, .AHEAD. ) ;
#216 = MANIFOLD_SOLID_BREP ( 'Aufsatz-Linear austragen1', #203 ) ;
#217 = ORIENTED_EDGE ( 'NONE', *, *, #224, .F. ) ;
#218 = CALENDAR_DATE ( 2024, 6, 8 ) ;
#219 = ORIENTED_EDGE ( 'NONE', *, *, #58, .T. ) ;
#220 = APPROVAL_DATE_TIME ( #66, #123 ) ;
#221 = CARTESIAN_POINT ( 'NONE',  ( 0.000000000000000000, 4.000000000000000000, 0.000000000000000000 ) ) ;
#222 = CC_DESIGN_APPROVAL ( #143, ( #91 ) ) ;
#223 = DIRECTION ( 'NONE',  ( 0.000000000000000000, 1.000000000000000000, 0.000000000000000000 ) ) ;
#224 = EDGE_CURVE ( 'NONE', #19, #47, #162, .T. ) ;
#225 = VERTEX_POINT ( 'NONE', #24 ) ;
#226 = CARTESIAN_POINT ( 'NONE',  ( 0.000000000000000000, 4.000000000000000000, -53.25000000000000000 ) ) ;
#227 = DIRECTION ( 'NONE',  ( 0.000000000000000000, 1.000000000000000000, 0.000000000000000000 ) ) ;
#228 = AXIS2_PLACEMENT_3D ( 'NONE', #212, #209, #249 ) ;
#229 = APPLICATION_PROTOCOL_DEFINITION ( 'international standard', 'config_control_design', 1994, #37 ) ;
#230 = APPROVAL_PERSON_ORGANIZATION ( #84, #143, #48 ) ;
#231 = DIRECTION ( 'NONE',  ( 1.000000000000000000, 0.000000000000000000, 0.000000000000000000 ) ) ;
#232 =( NAMED_UNIT ( * ) PLANE_ANGLE_UNIT ( ) SI_UNIT ( $, .RADIAN. ) );
#233 = ORIENTED_EDGE ( 'NONE', *, *, #211, .F. ) ;
#234 = CALENDAR_DATE ( 2024, 6, 8 ) ;
#235 = AXIS2_PLACEMENT_3D ( 'NONE', #168, #5, #231 ) ;
#236 = PERSON_AND_ORGANIZATION_ROLE ( 'creator' ) ;
#237 = EDGE_LOOP ( 'NONE', ( #165, #244, #54, #78 ) ) ;
#238 = UNCERTAINTY_MEASURE_WITH_UNIT (LENGTH_MEASURE( 1.000000000000000082E-05 ), #26, 'distance_accuracy_value', 'NONE');
#239 = CARTESIAN_POINT ( 'NONE',  ( 0.000000000000000000, 4.000000000000000000, 0.000000000000000000 ) ) ;
#240 = DIRECTION ( 'NONE',  ( 0.000000000000000000, 0.000000000000000000, -1.000000000000000000 ) ) ;
#241 = DATE_AND_TIME ( #18, #127 ) ;
#242 = DIRECTION ( 'NONE',  ( 0.000000000000000000, 0.000000000000000000, 1.000000000000000000 ) ) ;
#243 = EDGE_CURVE ( 'NONE', #138, #148, #161, .T. ) ;
#244 = ORIENTED_EDGE ( 'NONE', *, *, #211, .T. ) ;
#245 = CC_DESIGN_PERSON_AND_ORGANIZATION_ASSIGNMENT ( #178, #53, ( #91 ) ) ;
#246 = VECTOR ( 'NONE', #21, 1000.000000000000000 ) ;
#247 = AXIS2_PLACEMENT_3D ( 'NONE', #64, #187, #131 ) ;
#248 = ADVANCED_FACE ( 'NONE', ( #111 ), #93, .F. ) ;
#249 = DIRECTION ( 'NONE',  ( 0.000000000000000000, 0.000000000000000000, 1.000000000000000000 ) ) ;
ENDSEC;
END-ISO-10303-21;
