ISO-10303-21;
HEADER;
FILE_DESCRIPTION (( 'STEP AP203' ),
    '1' );
FILE_NAME ('3D_R1650_17.2x1.6_17353100.STEP',
    '2024-08-03T07:32:20',
    ( '' ),
    ( '' ),
    'SwSTEP 2.0',
    'SolidWorks 2024',
    '' );
FILE_SCHEMA (( 'CONFIG_CONTROL_DESIGN' ));
ENDSEC;

DATA;
#1 = APPROVAL_STATUS ( 'not_yet_approved' ) ;
#2 = CALENDAR_DATE ( 2024, 3, 8 ) ;
#3 = EDGE_LOOP ( 'NONE', ( #82, #214 ) ) ;
#4 = COORDINATED_UNIVERSAL_TIME_OFFSET ( 1, 0, .AHEAD. ) ;
#5 = CARTESIAN_POINT ( 'NONE',  ( 0.000000000000000000, 0.000000000000000000, 0.000000000000000000 ) ) ;
#6 = CIRCLE ( 'NONE', #42, 18.44999999999999574 ) ;
#7 = APPROVAL_STATUS ( 'not_yet_approved' ) ;
#8 = CC_DESIGN_PERSON_AND_ORGANIZATION_ASSIGNMENT ( #237, #105, ( #95 ) ) ;
#9 = ORIENTED_EDGE ( 'NONE', *, *, #132, .F. ) ;
#10 = PERSON_AND_ORGANIZATION ( #35, #248 ) ;
#11 = FACE_OUTER_BOUND ( 'NONE', #219, .T. ) ;
#12 = VERTEX_POINT ( 'NONE', #119 ) ;
#13 = APPROVAL_PERSON_ORGANIZATION ( #174, #202, #59 ) ;
#14 = ORIENTED_EDGE ( 'NONE', *, *, #192, .T. ) ;
#15 = FACE_OUTER_BOUND ( 'NONE', #185, .T. ) ;
#16 = DIRECTION ( 'NONE',  ( 0.000000000000000000, 0.000000000000000000, 1.000000000000000000 ) ) ;
#17 =( GEOMETRIC_REPRESENTATION_CONTEXT ( 3 ) GLOBAL_UNCERTAINTY_ASSIGNED_CONTEXT ( ( #250 ) ) GLOBAL_UNIT_ASSIGNED_CONTEXT ( ( #246, #205, #188 ) ) REPRESENTATION_CONTEXT ( 'NONE', 'WORKASPACE' ) );
#18 = FACE_BOUND ( 'NONE', #3, .T. ) ;
#19 = ADVANCED_FACE ( 'NONE', ( #11 ), #20, .T. ) ;
#20 = TOROIDAL_SURFACE ( 'NONE', #193, 27.49999999999999289, 10.64999999999999858 ) ;
#21 = EDGE_LOOP ( 'NONE', ( #64, #154 ) ) ;
#22 = CIRCLE ( 'NONE', #94, 10.64999999999999680 ) ;
#23 = SECURITY_CLASSIFICATION_LEVEL ( 'unclassified' ) ;
#24 = PERSON_AND_ORGANIZATION_ROLE ( 'creator' ) ;
#25 = DATE_AND_TIME ( #220, #78 ) ;
#26 = CARTESIAN_POINT ( 'NONE',  ( -25.84475285236842268, 0.000000000000000000, -25.84475285236818110 ) ) ;
#27 = CC_DESIGN_APPROVAL ( #33, ( #31 ) ) ;
#28 = ORIENTED_EDGE ( 'NONE', *, *, #110, .T. ) ;
#29 = ORIENTED_EDGE ( 'NONE', *, *, #40, .T. ) ;
#30 = DIRECTION ( 'NONE',  ( 1.000000000000000000, 0.000000000000000000, 2.775557561562891351E-16 ) ) ;
#31 = PRODUCT_DEFINITION_FORMATION_WITH_SPECIFIED_SOURCE ( 'ANY', '', #161, .NOT_KNOWN. ) ;
#32 = DIRECTION ( 'NONE',  ( -2.220446049250313574E-16, 0.000000000000000000, 1.000000000000000000 ) ) ;
#33 = APPROVAL ( #7, 'UNSPECIFIED' ) ;
#34 = DIRECTION ( 'NONE',  ( 0.000000000000000000, 0.000000000000000000, 1.000000000000000000 ) ) ;
#35 = PERSON ( 'UNSPECIFIED', 'UNSPECIFIED', 'UNSPECIFIED', ('UNSPECIFIED'), ('UNSPECIFIED'), ('UNSPECIFIED') ) ;
#36 = CC_DESIGN_PERSON_AND_ORGANIZATION_ASSIGNMENT ( #163, #24, ( #31 ) ) ;
#37 = PERSON_AND_ORGANIZATION ( #35, #248 ) ;
#38 = TOROIDAL_SURFACE ( 'NONE', #213, 27.49999999999999289, 10.64999999999999858 ) ;
#39 = ORIENTED_EDGE ( 'NONE', *, *, #40, .F. ) ;
#40 = EDGE_CURVE ( 'NONE', #123, #235, #61, .T. ) ;
#41 = DIRECTION ( 'NONE',  ( 1.000000000000000000, 0.000000000000000000, 0.000000000000000000 ) ) ;
#42 = AXIS2_PLACEMENT_3D ( 'NONE', #133, #109, #222 ) ;
#43 = CARTESIAN_POINT ( 'NONE',  ( 0.000000000000000000, 0.000000000000000000, 0.000000000000000000 ) ) ;
#44 = CALENDAR_DATE ( 2024, 3, 8 ) ;
#45 = CARTESIAN_POINT ( 'NONE',  ( -27.49999999999999289, 0.000000000000000000, -1.734723475976807094E-15 ) ) ;
#46 = SHAPE_DEFINITION_REPRESENTATION ( #236, #73 ) ;
#47 = ORIENTED_EDGE ( 'NONE', *, *, #175, .F. ) ;
#48 = LOCAL_TIME ( 9, 32, 20.00000000000000000, #240 ) ;
#49 = PLANE ( 'NONE',  #229 ) ;
#50 = DIRECTION ( 'NONE',  ( 0.000000000000000000, 1.000000000000000000, 0.000000000000000000 ) ) ;
#51 = DIRECTION ( 'NONE',  ( 0.000000000000000000, 1.000000000000000000, 0.000000000000000000 ) ) ;
#52 = AXIS2_PLACEMENT_3D ( 'NONE', #5, #102, #215 ) ;
#53 = ADVANCED_FACE ( 'NONE', ( #178, #199 ), #49, .T. ) ;
#54 = CARTESIAN_POINT ( 'NONE',  ( -19.44543648263014646, 0.000000000000000000, -19.44543648262995816 ) ) ;
#55 = CARTESIAN_POINT ( 'NONE',  ( -19.44543648263014290, 0.000000000000000000, -19.44543648262996172 ) ) ;
#56 = CARTESIAN_POINT ( 'NONE',  ( 0.000000000000000000, -1.304248841091931063E-15, 0.000000000000000000 ) ) ;
#57 = AXIS2_PLACEMENT_3D ( 'NONE', #227, #207, #111 ) ;
#58 = AXIS2_PLACEMENT_3D ( 'NONE', #55, #131, #168 ) ;
#59 = APPROVAL_ROLE ( '' ) ;
#60 = PERSON_AND_ORGANIZATION ( #35, #248 ) ;
#61 = CIRCLE ( 'NONE', #208, 9.049999999999998934 ) ;
#62 = EDGE_LOOP ( 'NONE', ( #233, #253, #216, #100 ) ) ;
#63 = APPROVAL_DATE_TIME ( #25, #65 ) ;
#64 = ORIENTED_EDGE ( 'NONE', *, *, #146, .T. ) ;
#65 = APPROVAL ( #177, 'UNSPECIFIED' ) ;
#66 = DATE_AND_TIME ( #2, #48 ) ;
#67 = CARTESIAN_POINT ( 'NONE',  ( -18.44999999999999574, 0.000000000000000000, -4.096722960866828265E-15 ) ) ;
#68 = DIRECTION ( 'NONE',  ( 0.000000000000000000, 0.000000000000000000, 1.000000000000000000 ) ) ;
#69 = DATE_AND_TIME ( #44, #107 ) ;
#70 = CC_DESIGN_PERSON_AND_ORGANIZATION_ASSIGNMENT ( #120, #126, ( #31 ) ) ;
#71 = FACE_OUTER_BOUND ( 'NONE', #184, .T. ) ;
#72 = ORIENTED_EDGE ( 'NONE', *, *, #249, .T. ) ;
#73 = ADVANCED_BREP_SHAPE_REPRESENTATION ( '3D_R1650_17.2x1.6_17353100', ( #124, #211 ), #17 ) ;
#74 = DIRECTION ( 'NONE',  ( 1.000000000000000000, 0.000000000000000000, 2.220446049250313081E-16 ) ) ;
#75 = CARTESIAN_POINT ( 'NONE',  ( -19.44543648263014646, 0.000000000000000000, -19.44543648262995816 ) ) ;
#76 = DIRECTION ( 'NONE',  ( -0.7071067811865442421, 0.000000000000000000, 0.7071067811865509034 ) ) ;
#77 = ADVANCED_FACE ( 'NONE', ( #125 ), #91, .F. ) ;
#78 = LOCAL_TIME ( 9, 32, 20.00000000000000000, #198 ) ;
#79 = DATE_TIME_ROLE ( 'creation_date' ) ;
#80 = CALENDAR_DATE ( 2024, 3, 8 ) ;
#81 = AXIS2_PLACEMENT_3D ( 'NONE', #144, #50, #108 ) ;
#82 = ORIENTED_EDGE ( 'NONE', *, *, #172, .T. ) ;
#83 = PERSON_AND_ORGANIZATION_ROLE ( 'classification_officer' ) ;
#84 = VERTEX_POINT ( 'NONE', #26 ) ;
#85 = ORIENTED_EDGE ( 'NONE', *, *, #110, .F. ) ;
#86 = ADVANCED_FACE ( 'NONE', ( #71 ), #206, .F. ) ;
#87 = CIRCLE ( 'NONE', #153, 16.84999999999999787 ) ;
#88 = DIRECTION ( 'NONE',  ( -2.775557561562891351E-16, 0.000000000000000000, 1.000000000000000000 ) ) ;
#89 = DIRECTION ( 'NONE',  ( 0.000000000000000000, 1.000000000000000000, 0.000000000000000000 ) ) ;
#90 = DIRECTION ( 'NONE',  ( 1.000000000000000000, 0.000000000000000000, 2.775557561562891844E-16 ) ) ;
#91 = TOROIDAL_SURFACE ( 'NONE', #81, 27.49999999999999289, 9.049999999999997158 ) ;
#92 = DIRECTION ( 'NONE',  ( -0.7071067811865442421, 0.000000000000000000, 0.7071067811865509034 ) ) ;
#93 = CARTESIAN_POINT ( 'NONE',  ( -26.97612370226691070, 0.000000000000000000, -26.97612370226664780 ) ) ;
#94 = AXIS2_PLACEMENT_3D ( 'NONE', #45, #182, #238 ) ;
#95 = PRODUCT_DEFINITION ( 'UNKNOWN', '', #31, #112 ) ;
#96 = APPLICATION_PROTOCOL_DEFINITION ( 'international standard', 'config_control_design', 1994, #218 ) ;
#97 = AXIS2_PLACEMENT_3D ( 'NONE', #43, #89, #167 ) ;
#98 = ORIENTED_EDGE ( 'NONE', *, *, #181, .T. ) ;
#99 = COORDINATED_UNIVERSAL_TIME_OFFSET ( 1, 0, .AHEAD. ) ;
#100 = ORIENTED_EDGE ( 'NONE', *, *, #192, .F. ) ;
#101 = APPROVAL_DATE_TIME ( #196, #33 ) ;
#102 = DIRECTION ( 'NONE',  ( 0.000000000000000000, 1.000000000000000000, 0.000000000000000000 ) ) ;
#103 = ORIENTED_EDGE ( 'NONE', *, *, #181, .F. ) ;
#104 = ORIENTED_EDGE ( 'NONE', *, *, #122, .F. ) ;
#105 = PERSON_AND_ORGANIZATION_ROLE ( 'creator' ) ;
#106 = VERTEX_POINT ( 'NONE', #187 ) ;
#107 = LOCAL_TIME ( 9, 32, 20.00000000000000000, #242 ) ;
#108 = DIRECTION ( 'NONE',  ( 0.000000000000000000, 0.000000000000000000, 1.000000000000000000 ) ) ;
#109 = DIRECTION ( 'NONE',  ( 0.000000000000000000, 1.000000000000000000, 0.000000000000000000 ) ) ;
#110 = EDGE_CURVE ( 'NONE', #173, #241, #134, .T. ) ;
#111 = DIRECTION ( 'NONE',  ( 0.7071067811865509034, 0.000000000000000000, 0.7071067811865442421 ) ) ;
#112 = DESIGN_CONTEXT ( 'detailed design', #218, 'design' ) ;
#113 = DIRECTION ( 'NONE',  ( 0.000000000000000000, 0.000000000000000000, 1.000000000000000000 ) ) ;
#114 = CC_DESIGN_SECURITY_CLASSIFICATION ( #155, ( #31 ) ) ;
#115 = CIRCLE ( 'NONE', #232, 10.64999999999999858 ) ;
#116 = PERSON_AND_ORGANIZATION_ROLE ( 'design_owner' ) ;
#117 = AXIS2_PLACEMENT_3D ( 'NONE', #75, #252, #151 ) ;
#118 = CALENDAR_DATE ( 2024, 3, 8 ) ;
#119 = CARTESIAN_POINT ( 'NONE',  ( -11.91474926299338222, -1.304248841091930866E-15, -11.91474926299326142 ) ) ;
#120 = PERSON_AND_ORGANIZATION ( #35, #248 ) ;
#121 = ORIENTED_EDGE ( 'NONE', *, *, #146, .F. ) ;
#122 = EDGE_CURVE ( 'NONE', #241, #197, #22, .T. ) ;
#123 = VERTEX_POINT ( 'NONE', #67 ) ;
#124 = MANIFOLD_SOLID_BREP ( 'Wandung1', #176 ) ;
#125 = FACE_OUTER_BOUND ( 'NONE', #62, .T. ) ;
#126 = PERSON_AND_ORGANIZATION_ROLE ( 'design_supplier' ) ;
#127 = DIRECTION ( 'NONE',  ( -2.220446049250313574E-16, 0.000000000000000000, 1.000000000000000000 ) ) ;
#128 = CIRCLE ( 'NONE', #195, 9.049999999999998934 ) ;
#129 = CARTESIAN_POINT ( 'NONE',  ( -27.49999999999999289, 0.000000000000000000, -1.734723475976807094E-15 ) ) ;
#130 = APPLICATION_PROTOCOL_DEFINITION ( 'international standard', 'config_control_design', 1994, #244 ) ;
#131 = DIRECTION ( 'NONE',  ( -0.7071067811865442421, 0.000000000000000000, 0.7071067811865509034 ) ) ;
#132 = EDGE_CURVE ( 'NONE', #173, #12, #115, .T. ) ;
#133 = CARTESIAN_POINT ( 'NONE',  ( 0.000000000000000000, -1.108305353228354392E-15, 0.000000000000000000 ) ) ;
#134 = CIRCLE ( 'NONE', #52, 38.14999999999999147 ) ;
#135 = DIRECTION ( 'NONE',  ( 0.000000000000000000, 1.000000000000000000, 0.000000000000000000 ) ) ;
#136 = MECHANICAL_CONTEXT ( 'NONE', #244, 'mechanical' ) ;
#137 = CC_DESIGN_DATE_AND_TIME_ASSIGNMENT ( #183, #79, ( #95 ) ) ;
#138 = LOCAL_TIME ( 9, 32, 20.00000000000000000, #99 ) ;
#139 = DIRECTION ( 'NONE',  ( 0.000000000000000000, 0.000000000000000000, 1.000000000000000000 ) ) ;
#140 = LOCAL_TIME ( 9, 32, 20.00000000000000000, #4 ) ;
#141 = CC_DESIGN_PERSON_AND_ORGANIZATION_ASSIGNMENT ( #37, #116, ( #161 ) ) ;
#142 = CARTESIAN_POINT ( 'NONE',  ( -19.44543648263014646, 0.000000000000000000, -19.44543648262995816 ) ) ;
#143 = APPROVAL_ROLE ( '' ) ;
#144 = CARTESIAN_POINT ( 'NONE',  ( 0.000000000000000000, 0.000000000000000000, 0.000000000000000000 ) ) ;
#145 = DIRECTION ( 'NONE',  ( 0.7071067811865507924, 0.000000000000000000, 0.7071067811865443531 ) ) ;
#146 = EDGE_CURVE ( 'NONE', #197, #241, #169, .T. ) ;
#147 = ORIENTED_EDGE ( 'NONE', *, *, #172, .F. ) ;
#148 = CIRCLE ( 'NONE', #180, 10.64999999999999858 ) ;
#149 = CIRCLE ( 'NONE', #58, 9.049999999999997158 ) ;
#150 = FACE_OUTER_BOUND ( 'NONE', #203, .T. ) ;
#151 = DIRECTION ( 'NONE',  ( 0.7071067811865507924, 0.000000000000000000, 0.7071067811865441310 ) ) ;
#152 = CARTESIAN_POINT ( 'NONE',  ( -27.49999999999999289, 0.000000000000000000, -6.106226635438360972E-15 ) ) ;
#153 = AXIS2_PLACEMENT_3D ( 'NONE', #56, #226, #113 ) ;
#154 = ORIENTED_EDGE ( 'NONE', *, *, #122, .T. ) ;
#155 = SECURITY_CLASSIFICATION ( '', '', #23 ) ;
#156 = ADVANCED_FACE ( 'NONE', ( #18, #150 ), #170, .F. ) ;
#157 = APPROVAL_ROLE ( '' ) ;
#158 = CIRCLE ( 'NONE', #186, 36.54999999999999005 ) ;
#159 = EDGE_LOOP ( 'NONE', ( #39, #47 ) ) ;
#160 = PERSON_AND_ORGANIZATION ( #35, #248 ) ;
#161 = PRODUCT ( '3D_R1650_17.2x1.6_17353100', '3D_R1650_17.2x1.6_17353100', '', ( #136 ) ) ;
#162 = CARTESIAN_POINT ( 'NONE',  ( -27.49999999999999289, 0.000000000000000000, -1.734723475976807094E-15 ) ) ;
#163 = PERSON_AND_ORGANIZATION ( #35, #248 ) ;
#164 = ORIENTED_EDGE ( 'NONE', *, *, #249, .F. ) ;
#165 = AXIS2_PLACEMENT_3D ( 'NONE', #129, #225, #90 ) ;
#166 = CC_DESIGN_PERSON_AND_ORGANIZATION_ASSIGNMENT ( #60, #83, ( #155 ) ) ;
#167 = DIRECTION ( 'NONE',  ( 0.000000000000000000, 0.000000000000000000, 1.000000000000000000 ) ) ;
#168 = DIRECTION ( 'NONE',  ( 0.7071067811865509034, 0.000000000000000000, 0.7071067811865442421 ) ) ;
#169 = CIRCLE ( 'NONE', #165, 10.64999999999999680 ) ;
#170 = PLANE ( 'NONE',  #117 ) ;
#171 = CARTESIAN_POINT ( 'NONE',  ( 0.000000000000000000, 0.000000000000000000, 0.000000000000000000 ) ) ;
#172 = EDGE_CURVE ( 'NONE', #106, #84, #224, .T. ) ;
#173 = VERTEX_POINT ( 'NONE', #93 ) ;
#174 = PERSON_AND_ORGANIZATION ( #35, #248 ) ;
#175 = EDGE_CURVE ( 'NONE', #235, #123, #128, .T. ) ;
#176 = CLOSED_SHELL ( 'NONE', ( #77, #19, #239, #53, #156, #86 ) ) ;
#177 = APPROVAL_STATUS ( 'not_yet_approved' ) ;
#178 = FACE_BOUND ( 'NONE', #159, .T. ) ;
#179 = APPROVAL_DATE_TIME ( #69, #202 ) ;
#180 = AXIS2_PLACEMENT_3D ( 'NONE', #54, #92, #145 ) ;
#181 = EDGE_CURVE ( 'NONE', #12, #197, #87, .T. ) ;
#182 = DIRECTION ( 'NONE',  ( -2.220446049250313574E-16, 0.000000000000000000, 1.000000000000000000 ) ) ;
#183 = DATE_AND_TIME ( #118, #140 ) ;
#184 = EDGE_LOOP ( 'NONE', ( #194, #147, #14, #29 ) ) ;
#185 = EDGE_LOOP ( 'NONE', ( #85, #204, #98, #104 ) ) ;
#186 = AXIS2_PLACEMENT_3D ( 'NONE', #230, #135, #34 ) ;
#187 = CARTESIAN_POINT ( 'NONE',  ( -13.04612011289185958, -1.108305353228354392E-15, -13.04612011289173523 ) ) ;
#188 =( NAMED_UNIT ( * ) SI_UNIT ( $, .STERADIAN. ) SOLID_ANGLE_UNIT ( ) );
#189 = CARTESIAN_POINT ( 'NONE',  ( -36.54999999999999005, 0.000000000000000000, -8.115730310009893679E-15 ) ) ;
#190 = APPROVAL_PERSON_ORGANIZATION ( #10, #65, #157 ) ;
#191 = DIRECTION ( 'NONE',  ( 0.7071067811865507924, 0.000000000000000000, 0.7071067811865443531 ) ) ;
#192 = EDGE_CURVE ( 'NONE', #106, #123, #6, .T. ) ;
#193 = AXIS2_PLACEMENT_3D ( 'NONE', #221, #243, #68 ) ;
#194 = ORIENTED_EDGE ( 'NONE', *, *, #217, .F. ) ;
#195 = AXIS2_PLACEMENT_3D ( 'NONE', #152, #32, #74 ) ;
#196 = DATE_AND_TIME ( #80, #138 ) ;
#197 = VERTEX_POINT ( 'NONE', #209 ) ;
#198 = COORDINATED_UNIVERSAL_TIME_OFFSET ( 1, 0, .AHEAD. ) ;
#199 = FACE_OUTER_BOUND ( 'NONE', #21, .T. ) ;
#200 = APPROVAL_PERSON_ORGANIZATION ( #160, #33, #143 ) ;
#201 = DIRECTION ( 'NONE',  ( 1.000000000000000000, 0.000000000000000000, 2.220446049250313081E-16 ) ) ;
#202 = APPROVAL ( #1, 'UNSPECIFIED' ) ;
#203 = EDGE_LOOP ( 'NONE', ( #164, #9 ) ) ;
#204 = ORIENTED_EDGE ( 'NONE', *, *, #132, .T. ) ;
#205 =( NAMED_UNIT ( * ) PLANE_ANGLE_UNIT ( ) SI_UNIT ( $, .RADIAN. ) );
#206 = TOROIDAL_SURFACE ( 'NONE', #97, 27.49999999999999289, 9.049999999999997158 ) ;
#207 = DIRECTION ( 'NONE',  ( -0.7071067811865442421, 0.000000000000000000, 0.7071067811865509034 ) ) ;
#208 = AXIS2_PLACEMENT_3D ( 'NONE', #245, #127, #201 ) ;
#209 = CARTESIAN_POINT ( 'NONE',  ( -16.84999999999999787, 0.000000000000000000, 1.221245327087671800E-15 ) ) ;
#210 = EDGE_CURVE ( 'NONE', #84, #106, #149, .T. ) ;
#211 = AXIS2_PLACEMENT_3D ( 'NONE', #231, #139, #41 ) ;
#212 = CC_DESIGN_DATE_AND_TIME_ASSIGNMENT ( #66, #234, ( #155 ) ) ;
#213 = AXIS2_PLACEMENT_3D ( 'NONE', #171, #51, #16 ) ;
#214 = ORIENTED_EDGE ( 'NONE', *, *, #210, .T. ) ;
#215 = DIRECTION ( 'NONE',  ( 0.000000000000000000, 0.000000000000000000, 1.000000000000000000 ) ) ;
#216 = ORIENTED_EDGE ( 'NONE', *, *, #175, .T. ) ;
#217 = EDGE_CURVE ( 'NONE', #84, #235, #158, .T. ) ;
#218 = APPLICATION_CONTEXT ( 'configuration controlled 3d designs of mechanical parts and assemblies' ) ;
#219 = EDGE_LOOP ( 'NONE', ( #72, #28, #121, #103 ) ) ;
#220 = CALENDAR_DATE ( 2024, 3, 8 ) ;
#221 = CARTESIAN_POINT ( 'NONE',  ( 0.000000000000000000, 0.000000000000000000, 0.000000000000000000 ) ) ;
#222 = DIRECTION ( 'NONE',  ( 0.000000000000000000, 0.000000000000000000, 1.000000000000000000 ) ) ;
#223 = CC_DESIGN_APPROVAL ( #65, ( #155 ) ) ;
#224 = CIRCLE ( 'NONE', #57, 9.049999999999997158 ) ;
#225 = DIRECTION ( 'NONE',  ( -2.220446049250313574E-16, 0.000000000000000000, 1.000000000000000000 ) ) ;
#226 = DIRECTION ( 'NONE',  ( 0.000000000000000000, 1.000000000000000000, 0.000000000000000000 ) ) ;
#227 = CARTESIAN_POINT ( 'NONE',  ( -19.44543648263014290, 0.000000000000000000, -19.44543648262996172 ) ) ;
#228 = PRODUCT_RELATED_PRODUCT_CATEGORY ( 'detail', '', ( #161 ) ) ;
#229 = AXIS2_PLACEMENT_3D ( 'NONE', #162, #88, #30 ) ;
#230 = CARTESIAN_POINT ( 'NONE',  ( 0.000000000000000000, 0.000000000000000000, 0.000000000000000000 ) ) ;
#231 = CARTESIAN_POINT ( 'NONE',  ( 0.000000000000000000, 0.000000000000000000, 0.000000000000000000 ) ) ;
#232 = AXIS2_PLACEMENT_3D ( 'NONE', #142, #76, #191 ) ;
#233 = ORIENTED_EDGE ( 'NONE', *, *, #210, .F. ) ;
#234 = DATE_TIME_ROLE ( 'classification_date' ) ;
#235 = VERTEX_POINT ( 'NONE', #189 ) ;
#236 = PRODUCT_DEFINITION_SHAPE ( 'NONE', 'NONE',  #95 ) ;
#237 = PERSON_AND_ORGANIZATION ( #35, #248 ) ;
#238 = DIRECTION ( 'NONE',  ( 1.000000000000000000, 0.000000000000000000, 2.775557561562891844E-16 ) ) ;
#239 = ADVANCED_FACE ( 'NONE', ( #15 ), #38, .T. ) ;
#240 = COORDINATED_UNIVERSAL_TIME_OFFSET ( 1, 0, .AHEAD. ) ;
#241 = VERTEX_POINT ( 'NONE', #247 ) ;
#242 = COORDINATED_UNIVERSAL_TIME_OFFSET ( 1, 0, .AHEAD. ) ;
#243 = DIRECTION ( 'NONE',  ( 0.000000000000000000, 1.000000000000000000, 0.000000000000000000 ) ) ;
#244 = APPLICATION_CONTEXT ( 'configuration controlled 3d designs of mechanical parts and assemblies' ) ;
#245 = CARTESIAN_POINT ( 'NONE',  ( -27.49999999999999289, 0.000000000000000000, -6.106226635438360972E-15 ) ) ;
#246 =( LENGTH_UNIT ( ) NAMED_UNIT ( * ) SI_UNIT ( .MILLI., .METRE. ) );
#247 = CARTESIAN_POINT ( 'NONE',  ( -38.14999999999999147, 0.000000000000000000, -4.395095398734838297E-15 ) ) ;
#248 = ORGANIZATION ( 'UNSPECIFIED', 'UNSPECIFIED', '' ) ;
#249 = EDGE_CURVE ( 'NONE', #12, #173, #148, .T. ) ;
#250 = UNCERTAINTY_MEASURE_WITH_UNIT (LENGTH_MEASURE( 1.000000000000000082E-05 ), #246, 'distance_accuracy_value', 'NONE');
#251 = CC_DESIGN_APPROVAL ( #202, ( #95 ) ) ;
#252 = DIRECTION ( 'NONE',  ( -0.7071067811865442421, 0.000000000000000000, 0.7071067811865509034 ) ) ;
#253 = ORIENTED_EDGE ( 'NONE', *, *, #217, .T. ) ;
ENDSEC;
END-ISO-10303-21;
