ISO-10303-21;
HEADER;
FILE_DESCRIPTION (( 'STEP AP203' ),
    '1' );
FILE_NAME ('OT200-20-26_9x2_6_OSTP.step',
    '2020-12-16T01:37:53',
    ( '' ),
    ( '' ),
    'SwSTEP 2.0',
    'SolidWorks 2014',
    '' );
FILE_SCHEMA (( 'CONFIG_CONTROL_DESIGN' ));
ENDSEC;

DATA;
#1 = APPROVAL_DATE_TIME ( #94, #253 ) ;
#2 = SECURITY_CLASSIFICATION ( '', '', #13 ) ;
#3 = FACE_OUTER_BOUND ( 'NONE', #149, .T. ) ;
#4 = EDGE_CURVE ( 'NONE', #90, #179, #209, .T. ) ;
#5 = DATE_AND_TIME ( #226, #148 ) ;
#6 = AXIS2_PLACEMENT_3D ( 'NONE', #138, #133, #242 ) ;
#7 = CARTESIAN_POINT ( 'NONE',  ( 28.49999999999999300, 28.50000000000000000, 0.0000000000000000000 ) ) ;
#8 = DIRECTION ( 'NONE',  ( 1.000000000000000000, 0.0000000000000000000, 0.0000000000000000000 ) ) ;
#9 = CARTESIAN_POINT ( 'NONE',  ( 10.85000000000000000, 0.0000000000000000000, -1.328741777074878200E-015 ) ) ;
#10 = EDGE_LOOP ( 'NONE', ( #227, #177 ) ) ;
#11 = CARTESIAN_POINT ( 'NONE',  ( -13.44999999999999900, 0.0000000000000000000, 0.0000000000000000000 ) ) ;
#12 = PRODUCT_DEFINITION_FORMATION_WITH_SPECIFIED_SOURCE ( 'ANY', '', #93, .NOT_KNOWN. ) ;
#13 = SECURITY_CLASSIFICATION_LEVEL ( 'unclassified' ) ;
#14 = CIRCLE ( 'NONE', #25, 17.64999999999999500 ) ;
#15 = PERSON_AND_ORGANIZATION_ROLE ( 'creator' ) ;
#16 = CLOSED_SHELL ( 'NONE', ( #34, #56, #160, #71, #40, #115 ) ) ;
#17 = APPLICATION_PROTOCOL_DEFINITION ( 'international standard', 'config_control_design', 1994, #230 ) ;
#18 = PRODUCT_DEFINITION_SHAPE ( 'NONE', 'NONE',  #180 ) ;
#19 = LOCAL_TIME ( 2, 37, 53.00000000000000000, #146 ) ;
#20 = CC_DESIGN_PERSON_AND_ORGANIZATION_ASSIGNMENT ( #181, #60, ( #180 ) ) ;
#21 = VERTEX_POINT ( 'NONE', #128 ) ;
#22 = AXIS2_PLACEMENT_3D ( 'NONE', #7, #188, #68 ) ;
#23 = PERSON_AND_ORGANIZATION ( #147, #35 ) ;
#24 = ORIENTED_EDGE ( 'NONE', *, *, #121, .F. ) ;
#25 = AXIS2_PLACEMENT_3D ( 'NONE', #92, #137, #8 ) ;
#26 = DIRECTION ( 'NONE',  ( 0.0000000000000000000, 0.0000000000000000000, 1.000000000000000000 ) ) ;
#27 = APPROVAL_PERSON_ORGANIZATION ( #195, #253, #213 ) ;
#28 = DIRECTION ( 'NONE',  ( 0.0000000000000000000, 1.000000000000000000, 0.0000000000000000000 ) ) ;
#29 = DIRECTION ( 'NONE',  ( 0.0000000000000000000, 1.000000000000000000, 0.0000000000000000000 ) ) ;
#30 = FACE_OUTER_BOUND ( 'NONE', #214, .T. ) ;
#31 = CARTESIAN_POINT ( 'NONE',  ( 28.49999999999998900, 28.50000000000000000, 0.0000000000000000000 ) ) ;
#32 = AXIS2_PLACEMENT_3D ( 'NONE', #86, #131, #185 ) ;
#33 = DIRECTION ( 'NONE',  ( 1.000000000000000000, 0.0000000000000000000, 0.0000000000000000000 ) ) ;
#34 = ADVANCED_FACE ( 'NONE', ( #194 ), #106, .F. ) ;
#35 = ORGANIZATION ( 'UNSPECIFIED', 'UNSPECIFIED', '' ) ;
#36 = PERSON_AND_ORGANIZATION_ROLE ( 'design_supplier' ) ;
#37 = CC_DESIGN_PERSON_AND_ORGANIZATION_ASSIGNMENT ( #167, #15, ( #12 ) ) ;
#38 = DATE_TIME_ROLE ( 'classification_date' ) ;
#39 = CC_DESIGN_APPROVAL ( #249, ( #2 ) ) ;
#40 = ADVANCED_FACE ( 'NONE', ( #85, #3 ), #220, .F. ) ;
#41 = CC_DESIGN_APPROVAL ( #253, ( #12 ) ) ;
#42 = PERSON_AND_ORGANIZATION ( #147, #35 ) ;
#43 = CIRCLE ( 'NONE', #22, 10.85000000000000100 ) ;
#44 = EDGE_LOOP ( 'NONE', ( #237, #110, #74, #59 ) ) ;
#45 = FACE_OUTER_BOUND ( 'NONE', #250, .T. ) ;
#46 = CC_DESIGN_APPROVAL ( #217, ( #180 ) ) ;
#47 = APPROVAL_DATE_TIME ( #197, #249 ) ;
#48 = EDGE_LOOP ( 'NONE', ( #114, #182, #169, #155 ) ) ;
#49 = PRODUCT_RELATED_PRODUCT_CATEGORY ( 'detail', '', ( #93 ) ) ;
#50 = DIRECTION ( 'NONE',  ( 0.0000000000000000000, 0.0000000000000000000, 1.000000000000000000 ) ) ;
#51 = DIRECTION ( 'NONE',  ( 1.000000000000000000, 2.832769448823989800E-016, 0.0000000000000000000 ) ) ;
#52 = DIRECTION ( 'NONE',  ( 1.000000000000000000, 2.832769448823989800E-016, 0.0000000000000000000 ) ) ;
#53 = CC_DESIGN_PERSON_AND_ORGANIZATION_ASSIGNMENT ( #202, #165, ( #2 ) ) ;
#54 = DIRECTION ( 'NONE',  ( 0.0000000000000000000, 0.0000000000000000000, 1.000000000000000000 ) ) ;
#55 = UNCERTAINTY_MEASURE_WITH_UNIT (LENGTH_MEASURE( 1.000000000000000100E-005 ), #158, 'distance_accuracy_value', 'NONE');
#56 = ADVANCED_FACE ( 'NONE', ( #184 ), #134, .T. ) ;
#57 = DIRECTION ( 'NONE',  ( 0.0000000000000000000, 0.0000000000000000000, 1.000000000000000000 ) ) ;
#58 = CIRCLE ( 'NONE', #157, 13.44999999999999900 ) ;
#59 = ORIENTED_EDGE ( 'NONE', *, *, #107, .F. ) ;
#60 = PERSON_AND_ORGANIZATION_ROLE ( 'creator' ) ;
#61 = AXIS2_PLACEMENT_3D ( 'NONE', #132, #28, #241 ) ;
#62 = ORIENTED_EDGE ( 'NONE', *, *, #228, .T. ) ;
#63 = AXIS2_PLACEMENT_3D ( 'NONE', #96, #57, #117 ) ;
#64 = CIRCLE ( 'NONE', #173, 13.44999999999999900 ) ;
#65 = ORIENTED_EDGE ( 'NONE', *, *, #152, .F. ) ;
#66 = CARTESIAN_POINT ( 'NONE',  ( 28.50000000000000000, 0.0000000000000000000, 0.0000000000000000000 ) ) ;
#67 = DIRECTION ( 'NONE',  ( 1.000000000000000000, 0.0000000000000000000, 0.0000000000000000000 ) ) ;
#68 = DIRECTION ( 'NONE',  ( -3.197646960325911000E-016, 1.000000000000000000, 0.0000000000000000000 ) ) ;
#69 = EDGE_CURVE ( 'NONE', #21, #252, #198, .T. ) ;
#70 = CARTESIAN_POINT ( 'NONE',  ( 28.50000000000000000, 0.0000000000000000000, 0.0000000000000000000 ) ) ;
#71 = ADVANCED_FACE ( 'NONE', ( #124, #30 ), #183, .T. ) ;
#72 = DIRECTION ( 'NONE',  ( 0.0000000000000000000, 1.000000000000000000, 0.0000000000000000000 ) ) ;
#73 = CARTESIAN_POINT ( 'NONE',  ( 28.50000000000000000, 0.0000000000000000000, 0.0000000000000000000 ) ) ;
#74 = ORIENTED_EDGE ( 'NONE', *, *, #105, .F. ) ;
#75 = PERSON_AND_ORGANIZATION_ROLE ( 'design_owner' ) ;
#76 = EDGE_CURVE ( 'NONE', #83, #100, #154, .T. ) ;
#77 = COORDINATED_UNIVERSAL_TIME_OFFSET ( 1, 0, .AHEAD. ) ;
#78 = EDGE_LOOP ( 'NONE', ( #24, #135, #126, #172 ) ) ;
#79 = APPLICATION_PROTOCOL_DEFINITION ( 'international standard', 'config_control_design', 1994, #251 ) ;
#80 = CC_DESIGN_DATE_AND_TIME_ASSIGNMENT ( #246, #38, ( #2 ) ) ;
#81 = CALENDAR_DATE ( 2020, 16, 12 ) ;
#82 = PERSON_AND_ORGANIZATION ( #147, #35 ) ;
#83 = VERTEX_POINT ( 'NONE', #171 ) ;
#84 = CARTESIAN_POINT ( 'NONE',  ( 28.50000000000000000, 0.0000000000000000000, 0.0000000000000000000 ) ) ;
#85 = FACE_BOUND ( 'NONE', #122, .T. ) ;
#86 = CARTESIAN_POINT ( 'NONE',  ( 28.49999999999999300, 28.50000000000000000, 0.0000000000000000000 ) ) ;
#87 = DIRECTION ( 'NONE',  ( 0.0000000000000000000, 0.0000000000000000000, 1.000000000000000000 ) ) ;
#88 = DIRECTION ( 'NONE',  ( 1.000000000000000000, 2.832769448823989800E-016, -0.0000000000000000000 ) ) ;
#89 = TOROIDAL_SURFACE ( 'NONE', #243, 28.50000000000000000, 13.44999999999999900 ) ;
#90 = VERTEX_POINT ( 'NONE', #206 ) ;
#91 = CARTESIAN_POINT ( 'NONE',  ( 28.49999999999999600, 17.64999999999999900, -1.328741777074878200E-015 ) ) ;
#92 = CARTESIAN_POINT ( 'NONE',  ( 28.50000000000000000, 0.0000000000000000000, -1.328741777074878400E-015 ) ) ;
#93 = PRODUCT ( 'OT200-20-26_9x2_6_OSTP', 'OT200-20-26_9x2_6_OSTP', '', ( #143 ) ) ;
#94 = DATE_AND_TIME ( #129, #212 ) ;
#95 = AXIS2_PLACEMENT_3D ( 'NONE', #70, #116, #67 ) ;
#96 = CARTESIAN_POINT ( 'NONE',  ( 0.0000000000000000000, 0.0000000000000000000, 0.0000000000000000000 ) ) ;
#97 = MANIFOLD_SOLID_BREP ( 'cut-body', #16 ) ;
#98 = DIRECTION ( 'NONE',  ( 0.0000000000000000000, 0.0000000000000000000, 1.000000000000000000 ) ) ;
#99 = TOROIDAL_SURFACE ( 'NONE', #95, 28.50000000000000000, 10.85000000000000000 ) ;
#100 = VERTEX_POINT ( 'NONE', #219 ) ;
#101 = AXIS2_PLACEMENT_3D ( 'NONE', #73, #98, #161 ) ;
#102 = LOCAL_TIME ( 2, 37, 53.00000000000000000, #236 ) ;
#103 = CIRCLE ( 'NONE', #101, 39.35000000000000900 ) ;
#104 = ORIENTED_EDGE ( 'NONE', *, *, #69, .F. ) ;
#105 = EDGE_CURVE ( 'NONE', #168, #205, #223, .T. ) ;
#106 = TOROIDAL_SURFACE ( 'NONE', #170, 28.50000000000000000, 10.85000000000000000 ) ;
#107 = EDGE_CURVE ( 'NONE', #179, #168, #14, .T. ) ;
#108 = DIRECTION ( 'NONE',  ( 1.000000000000000000, 0.0000000000000000000, 0.0000000000000000000 ) ) ;
#109 = CIRCLE ( 'NONE', #145, 13.44999999999999900 ) ;
#110 = ORIENTED_EDGE ( 'NONE', *, *, #239, .T. ) ;
#111 = CARTESIAN_POINT ( 'NONE',  ( 28.50000000000000000, 0.0000000000000000000, 0.0000000000000000000 ) ) ;
#112 = CARTESIAN_POINT ( 'NONE',  ( 0.0000000000000000000, 0.0000000000000000000, 0.0000000000000000000 ) ) ;
#113 = EDGE_CURVE ( 'NONE', #205, #168, #159, .T. ) ;
#114 = ORIENTED_EDGE ( 'NONE', *, *, #239, .F. ) ;
#115 = ADVANCED_FACE ( 'NONE', ( #162 ), #99, .F. ) ;
#116 = DIRECTION ( 'NONE',  ( 0.0000000000000000000, 0.0000000000000000000, 1.000000000000000000 ) ) ;
#117 = DIRECTION ( 'NONE',  ( 1.000000000000000000, 0.0000000000000000000, 0.0000000000000000000 ) ) ;
#118 = APPROVAL_ROLE ( '' ) ;
#119 = APPROVAL_DATE_TIME ( #193, #217 ) ;
#120 =( NAMED_UNIT ( * ) SI_UNIT ( $, .STERADIAN. ) SOLID_ANGLE_UNIT ( ) );
#121 = EDGE_CURVE ( 'NONE', #21, #83, #141, .T. ) ;
#122 = EDGE_LOOP ( 'NONE', ( #199, #125 ) ) ;
#123 = CC_DESIGN_PERSON_AND_ORGANIZATION_ASSIGNMENT ( #23, #36, ( #12 ) ) ;
#124 = FACE_BOUND ( 'NONE', #10, .T. ) ;
#125 = ORIENTED_EDGE ( 'NONE', *, *, #113, .T. ) ;
#126 = ORIENTED_EDGE ( 'NONE', *, *, #152, .T. ) ;
#127 = AXIS2_PLACEMENT_3D ( 'NONE', #222, #88, #151 ) ;
#128 = CARTESIAN_POINT ( 'NONE',  ( 28.49999999999998600, 41.95000000000000300, 0.0000000000000000000 ) ) ;
#129 = CALENDAR_DATE ( 2020, 16, 12 ) ;
#130 = ORIENTED_EDGE ( 'NONE', *, *, #166, .T. ) ;
#131 = DIRECTION ( 'NONE',  ( 1.000000000000000000, 2.832769448823989800E-016, 0.0000000000000000000 ) ) ;
#132 = CARTESIAN_POINT ( 'NONE',  ( 0.0000000000000000000, 0.0000000000000000000, 0.0000000000000000000 ) ) ;
#133 = DIRECTION ( 'NONE',  ( 0.0000000000000000000, 0.0000000000000000000, 1.000000000000000000 ) ) ;
#134 = TOROIDAL_SURFACE ( 'NONE', #150, 28.50000000000000000, 13.44999999999999900 ) ;
#135 = ORIENTED_EDGE ( 'NONE', *, *, #69, .T. ) ;
#136 = DESIGN_CONTEXT ( 'detailed design', #230, 'design' ) ;
#137 = DIRECTION ( 'NONE',  ( 0.0000000000000000000, 0.0000000000000000000, 1.000000000000000000 ) ) ;
#138 = CARTESIAN_POINT ( 'NONE',  ( 28.50000000000000000, 0.0000000000000000000, -1.647149944853190000E-015 ) ) ;
#139 = CC_DESIGN_SECURITY_CLASSIFICATION ( #2, ( #12 ) ) ;
#140 = CALENDAR_DATE ( 2020, 16, 12 ) ;
#141 = CIRCLE ( 'NONE', #207, 13.44999999999999900 ) ;
#142 = DATE_TIME_ROLE ( 'creation_date' ) ;
#143 = MECHANICAL_CONTEXT ( 'NONE', #251, 'mechanical' ) ;
#144 = CALENDAR_DATE ( 2020, 16, 12 ) ;
#145 = AXIS2_PLACEMENT_3D ( 'NONE', #244, #156, #174 ) ;
#146 = COORDINATED_UNIVERSAL_TIME_OFFSET ( 1, 0, .AHEAD. ) ;
#147 = PERSON ( 'UNSPECIFIED', 'UNSPECIFIED', 'UNSPECIFIED', ('UNSPECIFIED'), ('UNSPECIFIED'), ('UNSPECIFIED') ) ;
#148 = LOCAL_TIME ( 2, 37, 53.00000000000000000, #204 ) ;
#149 = EDGE_LOOP ( 'NONE', ( #218, #65 ) ) ;
#150 = AXIS2_PLACEMENT_3D ( 'NONE', #66, #26, #203 ) ;
#151 = DIRECTION ( 'NONE',  ( 0.0000000000000000000, 0.0000000000000000000, 1.000000000000000000 ) ) ;
#152 = EDGE_CURVE ( 'NONE', #252, #100, #109, .T. ) ;
#153 = DIRECTION ( 'NONE',  ( 1.000000000000000000, 0.0000000000000000000, 0.0000000000000000000 ) ) ;
#154 = CIRCLE ( 'NONE', #6, 15.05000000000000400 ) ;
#155 = ORIENTED_EDGE ( 'NONE', *, *, #113, .F. ) ;
#156 = DIRECTION ( 'NONE',  ( 0.0000000000000000000, 1.000000000000000000, 0.0000000000000000000 ) ) ;
#157 = AXIS2_PLACEMENT_3D ( 'NONE', #175, #52, #190 ) ;
#158 =( LENGTH_UNIT ( ) NAMED_UNIT ( * ) SI_UNIT ( .MILLI., .METRE. ) );
#159 = CIRCLE ( 'NONE', #164, 10.85000000000000000 ) ;
#160 = ADVANCED_FACE ( 'NONE', ( #45 ), #89, .T. ) ;
#161 = DIRECTION ( 'NONE',  ( 1.000000000000000000, 0.0000000000000000000, 0.0000000000000000000 ) ) ;
#162 = FACE_OUTER_BOUND ( 'NONE', #48, .T. ) ;
#163 = APPROVAL_STATUS ( 'not_yet_approved' ) ;
#164 = AXIS2_PLACEMENT_3D ( 'NONE', #247, #229, #189 ) ;
#165 = PERSON_AND_ORGANIZATION_ROLE ( 'classification_officer' ) ;
#166 = EDGE_CURVE ( 'NONE', #100, #252, #64, .T. ) ;
#167 = PERSON_AND_ORGANIZATION ( #147, #35 ) ;
#168 = VERTEX_POINT ( 'NONE', #9 ) ;
#169 = ORIENTED_EDGE ( 'NONE', *, *, #107, .T. ) ;
#170 = AXIS2_PLACEMENT_3D ( 'NONE', #224, #238, #153 ) ;
#171 = CARTESIAN_POINT ( 'NONE',  ( 28.49999999999999300, 15.05000000000000100, -1.647149944853190000E-015 ) ) ;
#172 = ORIENTED_EDGE ( 'NONE', *, *, #76, .F. ) ;
#173 = AXIS2_PLACEMENT_3D ( 'NONE', #210, #72, #208 ) ;
#174 = DIRECTION ( 'NONE',  ( 0.0000000000000000000, 0.0000000000000000000, 1.000000000000000000 ) ) ;
#175 = CARTESIAN_POINT ( 'NONE',  ( 28.49999999999998900, 28.50000000000000000, 0.0000000000000000000 ) ) ;
#176 = AXIS2_PLACEMENT_3D ( 'NONE', #112, #29, #245 ) ;
#177 = ORIENTED_EDGE ( 'NONE', *, *, #4, .F. ) ;
#178 = APPROVAL_STATUS ( 'not_yet_approved' ) ;
#179 = VERTEX_POINT ( 'NONE', #91 ) ;
#180 = PRODUCT_DEFINITION ( 'UNKNOWN', '', #12, #136 ) ;
#181 = PERSON_AND_ORGANIZATION ( #147, #35 ) ;
#182 = ORIENTED_EDGE ( 'NONE', *, *, #4, .T. ) ;
#183 = PLANE ( 'NONE',  #127 ) ;
#184 = FACE_OUTER_BOUND ( 'NONE', #78, .T. ) ;
#185 = DIRECTION ( 'NONE',  ( -3.197646960325911000E-016, 1.000000000000000000, 0.0000000000000000000 ) ) ;
#186 = PERSON_AND_ORGANIZATION ( #147, #35 ) ;
#187 = ORIENTED_EDGE ( 'NONE', *, *, #121, .T. ) ;
#188 = DIRECTION ( 'NONE',  ( 1.000000000000000000, 2.832769448823989800E-016, 0.0000000000000000000 ) ) ;
#189 = DIRECTION ( 'NONE',  ( 0.0000000000000000000, 0.0000000000000000000, 1.000000000000000000 ) ) ;
#190 = DIRECTION ( 'NONE',  ( 0.0000000000000000000, 0.0000000000000000000, 1.000000000000000000 ) ) ;
#191 = SHAPE_DEFINITION_REPRESENTATION ( #18, #232 ) ;
#192 = APPROVAL_STATUS ( 'not_yet_approved' ) ;
#193 = DATE_AND_TIME ( #81, #19 ) ;
#194 = FACE_OUTER_BOUND ( 'NONE', #44, .T. ) ;
#195 = PERSON_AND_ORGANIZATION ( #147, #35 ) ;
#196 =( GEOMETRIC_REPRESENTATION_CONTEXT ( 3 ) GLOBAL_UNCERTAINTY_ASSIGNED_CONTEXT ( ( #55 ) ) GLOBAL_UNIT_ASSIGNED_CONTEXT ( ( #158, #231, #120 ) ) REPRESENTATION_CONTEXT ( 'NONE', 'WORKASPACE' ) );
#197 = DATE_AND_TIME ( #140, #211 ) ;
#198 = CIRCLE ( 'NONE', #221, 41.95000000000000300 ) ;
#199 = ORIENTED_EDGE ( 'NONE', *, *, #105, .T. ) ;
#200 = EDGE_CURVE ( 'NONE', #179, #90, #43, .T. ) ;
#201 = COORDINATED_UNIVERSAL_TIME_OFFSET ( 1, 0, .AHEAD. ) ;
#202 = PERSON_AND_ORGANIZATION ( #147, #35 ) ;
#203 = DIRECTION ( 'NONE',  ( 1.000000000000000000, 0.0000000000000000000, 0.0000000000000000000 ) ) ;
#204 = COORDINATED_UNIVERSAL_TIME_OFFSET ( 1, 0, .AHEAD. ) ;
#205 = VERTEX_POINT ( 'NONE', #225 ) ;
#206 = CARTESIAN_POINT ( 'NONE',  ( 28.49999999999998900, 39.35000000000000100, 0.0000000000000000000 ) ) ;
#207 = AXIS2_PLACEMENT_3D ( 'NONE', #31, #51, #50 ) ;
#208 = DIRECTION ( 'NONE',  ( 0.0000000000000000000, 0.0000000000000000000, 1.000000000000000000 ) ) ;
#209 = CIRCLE ( 'NONE', #32, 10.85000000000000100 ) ;
#210 = CARTESIAN_POINT ( 'NONE',  ( 0.0000000000000000000, 0.0000000000000000000, 0.0000000000000000000 ) ) ;
#211 = LOCAL_TIME ( 2, 37, 53.00000000000000000, #201 ) ;
#212 = LOCAL_TIME ( 2, 37, 53.00000000000000000, #77 ) ;
#213 = APPROVAL_ROLE ( '' ) ;
#214 = EDGE_LOOP ( 'NONE', ( #62, #187 ) ) ;
#215 = APPROVAL_ROLE ( '' ) ;
#216 = ORIENTED_EDGE ( 'NONE', *, *, #228, .F. ) ;
#217 = APPROVAL ( #192, 'UNSPECIFIED' ) ;
#218 = ORIENTED_EDGE ( 'NONE', *, *, #166, .F. ) ;
#219 = CARTESIAN_POINT ( 'NONE',  ( 13.44999999999999900, 0.0000000000000000000, -1.647149944853190000E-015 ) ) ;
#220 = PLANE ( 'NONE',  #61 ) ;
#221 = AXIS2_PLACEMENT_3D ( 'NONE', #84, #87, #108 ) ;
#222 = CARTESIAN_POINT ( 'NONE',  ( 28.49999999999998900, 28.50000000000000000, 0.0000000000000000000 ) ) ;
#223 = CIRCLE ( 'NONE', #176, 10.85000000000000000 ) ;
#224 = CARTESIAN_POINT ( 'NONE',  ( 28.50000000000000000, 0.0000000000000000000, 0.0000000000000000000 ) ) ;
#225 = CARTESIAN_POINT ( 'NONE',  ( -10.85000000000000100, 0.0000000000000000000, 0.0000000000000000000 ) ) ;
#226 = CALENDAR_DATE ( 2020, 16, 12 ) ;
#227 = ORIENTED_EDGE ( 'NONE', *, *, #200, .F. ) ;
#228 = EDGE_CURVE ( 'NONE', #83, #21, #58, .T. ) ;
#229 = DIRECTION ( 'NONE',  ( 0.0000000000000000000, 1.000000000000000000, 0.0000000000000000000 ) ) ;
#230 = APPLICATION_CONTEXT ( 'configuration controlled 3d designs of mechanical parts and assemblies' ) ;
#231 =( NAMED_UNIT ( * ) PLANE_ANGLE_UNIT ( ) SI_UNIT ( $, .RADIAN. ) );
#232 = ADVANCED_BREP_SHAPE_REPRESENTATION ( 'OT200-20-26_9x2_6_OSTP', ( #97, #63 ), #196 ) ;
#233 = ORIENTED_EDGE ( 'NONE', *, *, #76, .T. ) ;
#234 = APPROVAL_PERSON_ORGANIZATION ( #82, #217, #215 ) ;
#235 = CC_DESIGN_DATE_AND_TIME_ASSIGNMENT ( #5, #142, ( #180 ) ) ;
#236 = COORDINATED_UNIVERSAL_TIME_OFFSET ( 1, 0, .AHEAD. ) ;
#237 = ORIENTED_EDGE ( 'NONE', *, *, #200, .T. ) ;
#238 = DIRECTION ( 'NONE',  ( 0.0000000000000000000, 0.0000000000000000000, 1.000000000000000000 ) ) ;
#239 = EDGE_CURVE ( 'NONE', #90, #205, #103, .T. ) ;
#240 = APPROVAL_PERSON_ORGANIZATION ( #42, #249, #118 ) ;
#241 = DIRECTION ( 'NONE',  ( 0.0000000000000000000, -0.0000000000000000000, 1.000000000000000000 ) ) ;
#242 = DIRECTION ( 'NONE',  ( 1.000000000000000000, 0.0000000000000000000, 0.0000000000000000000 ) ) ;
#243 = AXIS2_PLACEMENT_3D ( 'NONE', #111, #54, #33 ) ;
#244 = CARTESIAN_POINT ( 'NONE',  ( 0.0000000000000000000, 0.0000000000000000000, 0.0000000000000000000 ) ) ;
#245 = DIRECTION ( 'NONE',  ( 0.0000000000000000000, 0.0000000000000000000, 1.000000000000000000 ) ) ;
#246 = DATE_AND_TIME ( #144, #102 ) ;
#247 = CARTESIAN_POINT ( 'NONE',  ( 0.0000000000000000000, 0.0000000000000000000, 0.0000000000000000000 ) ) ;
#248 = CC_DESIGN_PERSON_AND_ORGANIZATION_ASSIGNMENT ( #186, #75, ( #93 ) ) ;
#249 = APPROVAL ( #178, 'UNSPECIFIED' ) ;
#250 = EDGE_LOOP ( 'NONE', ( #104, #216, #233, #130 ) ) ;
#251 = APPLICATION_CONTEXT ( 'configuration controlled 3d designs of mechanical parts and assemblies' ) ;
#252 = VERTEX_POINT ( 'NONE', #11 ) ;
#253 = APPROVAL ( #163, 'UNSPECIFIED' ) ;
ENDSEC;
END-ISO-10303-21;
