ISO-10303-21;
HEADER;
FILE_DESCRIPTION (( 'STEP AP203' ),
    '1' );
FILE_NAME ('3D_GR1382_DN18x1.5_18380294.STEP',
    '2024-09-23T05:58:48',
    ( '' ),
    ( '' ),
    'SwSTEP 2.0',
    'SolidWorks 2024',
    '' );
FILE_SCHEMA (( 'CONFIG_CONTROL_DESIGN' ));
ENDSEC;

DATA;
#1 = ORIENTED_EDGE ( 'NONE', *, *, #311, .T. ) ;
#2 = DIRECTION ( 'NONE',  ( 0.000000000000000000, 0.000000000000000000, 1.000000000000000000 ) ) ;
#3 = VECTOR ( 'NONE', #313, 1000.000000000000000 ) ;
#4 = ADVANCED_FACE ( 'NONE', ( #140 ), #19, .T. ) ;
#5 = ORIENTED_EDGE ( 'NONE', *, *, #201, .T. ) ;
#6 = CARTESIAN_POINT ( 'NONE',  ( -154.8395502972293230, 0.000000000000000000, 0.000000000000000000 ) ) ;
#7 = DIRECTION ( 'NONE',  ( 0.000000000000000000, 0.000000000000000000, 1.000000000000000000 ) ) ;
#8 = CARTESIAN_POINT ( 'NONE',  ( -2.500000000000552891, 0.000000000000000000, 8.500000000000017764 ) ) ;
#9 = LINE ( 'NONE', #335, #100 ) ;
#10 = LOCAL_TIME ( 7, 58, 48.00000000000000000, #352 ) ;
#11 = CONICAL_SURFACE ( 'NONE', #350, 6.500000000000019540, 0.7853981633974482790 ) ;
#12 = DATE_TIME_ROLE ( 'classification_date' ) ;
#13 = APPLICATION_CONTEXT ( 'configuration controlled 3d designs of mechanical parts and assemblies' ) ;
#14 = DATE_AND_TIME ( #69, #70 ) ;
#15 = EDGE_CURVE ( 'NONE', #32, #177, #194, .T. ) ;
#16 = CC_DESIGN_DATE_AND_TIME_ASSIGNMENT ( #101, #294, ( #72 ) ) ;
#17 = APPROVAL_ROLE ( '' ) ;
#18 = DIRECTION ( 'NONE',  ( 0.000000000000000000, 0.000000000000000000, 1.000000000000000000 ) ) ;
#19 = TOROIDAL_SURFACE ( 'NONE', #355, 8.500000000000017764, 0.5000000000000000000 ) ;
#20 = DIRECTION ( 'NONE',  ( -1.000000000000000000, -0.000000000000000000, -0.000000000000000000 ) ) ;
#21 = PERSON_AND_ORGANIZATION ( #136, #290 ) ;
#22 = PRODUCT_DEFINITION_FORMATION_WITH_SPECIFIED_SOURCE ( 'ANY', '', #26, .NOT_KNOWN. ) ;
#23 = CIRCLE ( 'NONE', #316, 7.500000000000018652 ) ;
#24 = APPROVAL_STATUS ( 'not_yet_approved' ) ;
#25 = LOCAL_TIME ( 7, 58, 48.00000000000000000, #158 ) ;
#26 = PRODUCT ( '3D_GR1382_DN18x1.5_18380294', '3D_GR1382_DN18x1.5_18380294', '', ( #270 ) ) ;
#27 = ADVANCED_FACE ( 'NONE', ( #105 ), #75, .F. ) ;
#28 = ORIENTED_EDGE ( 'NONE', *, *, #175, .T. ) ;
#29 = CIRCLE ( 'NONE', #79, 7.500000000000020428 ) ;
#30 = EDGE_LOOP ( 'NONE', ( #200, #224, #174, #284 ) ) ;
#31 = DIRECTION ( 'NONE',  ( 0.000000000000000000, 0.000000000000000000, 1.000000000000000000 ) ) ;
#32 = VERTEX_POINT ( 'NONE', #102 ) ;
#33 = ADVANCED_FACE ( 'NONE', ( #216 ), #258, .T. ) ;
#34 = CARTESIAN_POINT ( 'NONE',  ( -3.000000000000276668, 8.500000000000017764, 0.000000000000000000 ) ) ;
#35 = VERTEX_POINT ( 'NONE', #245 ) ;
#36 = CARTESIAN_POINT ( 'NONE',  ( -3.000000000000557776, 0.000000000000000000, 0.000000000000000000 ) ) ;
#37 = EDGE_LOOP ( 'NONE', ( #28, #248 ) ) ;
#38 = DIRECTION ( 'NONE',  ( -1.000000000000000000, -0.000000000000000000, -0.000000000000000000 ) ) ;
#39 = DIRECTION ( 'NONE',  ( -1.000000000000000000, -0.000000000000000000, -0.000000000000000000 ) ) ;
#40 = PERSON_AND_ORGANIZATION_ROLE ( 'classification_officer' ) ;
#41 = APPLICATION_PROTOCOL_DEFINITION ( 'international standard', 'config_control_design', 1994, #13 ) ;
#42 = PERSON_AND_ORGANIZATION ( #136, #290 ) ;
#43 = ADVANCED_FACE ( 'NONE', ( #207 ), #180, .T. ) ;
#44 = LOCAL_TIME ( 7, 58, 48.00000000000000000, #209 ) ;
#45 = SECURITY_CLASSIFICATION_LEVEL ( 'unclassified' ) ;
#46 = CARTESIAN_POINT ( 'NONE',  ( 7.000000000001726619, 0.000000000000000000, 0.000000000000000000 ) ) ;
#47 =( NAMED_UNIT ( * ) PLANE_ANGLE_UNIT ( ) SI_UNIT ( $, .RADIAN. ) );
#48 = CARTESIAN_POINT ( 'NONE',  ( -2.500000000000557332, 0.000000000000000000, 9.000000000000017764 ) ) ;
#49 = AXIS2_PLACEMENT_3D ( 'NONE', #274, #110, #54 ) ;
#50 = CIRCLE ( 'NONE', #49, 7.500000000000018652 ) ;
#51 = CARTESIAN_POINT ( 'NONE',  ( 0.000000000000000000, 0.000000000000000000, 0.000000000000000000 ) ) ;
#52 = CIRCLE ( 'NONE', #254, 0.5000000000000004441 ) ;
#53 = ORIENTED_EDGE ( 'NONE', *, *, #230, .T. ) ;
#54 = DIRECTION ( 'NONE',  ( 0.000000000000000000, 0.000000000000000000, 1.000000000000000000 ) ) ;
#55 = ORIENTED_EDGE ( 'NONE', *, *, #98, .T. ) ;
#56 = AXIS2_PLACEMENT_3D ( 'NONE', #92, #86, #256 ) ;
#57 = DIRECTION ( 'NONE',  ( 0.000000000000000000, 0.000000000000000000, -1.000000000000000000 ) ) ;
#58 = EDGE_LOOP ( 'NONE', ( #310, #227 ) ) ;
#59 = DIRECTION ( 'NONE',  ( 0.000000000000000000, 0.000000000000000000, 1.000000000000000000 ) ) ;
#60 = ORIENTED_EDGE ( 'NONE', *, *, #288, .F. ) ;
#61 = CARTESIAN_POINT ( 'NONE',  ( -154.8395502972293230, 0.000000000000000000, 0.000000000000000000 ) ) ;
#62 = ORIENTED_EDGE ( 'NONE', *, *, #71, .T. ) ;
#63 = TOROIDAL_SURFACE ( 'NONE', #296, 8.500000000000017764, 0.5000000000000000000 ) ;
#64 = FACE_OUTER_BOUND ( 'NONE', #143, .T. ) ;
#65 = LINE ( 'NONE', #120, #67 ) ;
#66 = DIRECTION ( 'NONE',  ( -1.000000000000000000, -0.000000000000000000, -0.000000000000000000 ) ) ;
#67 = VECTOR ( 'NONE', #295, 1000.000000000000114 ) ;
#68 = CARTESIAN_POINT ( 'NONE',  ( 0.000000000000000000, 0.000000000000000000, 7.500000000000018652 ) ) ;
#69 = CALENDAR_DATE ( 2024, 23, 9 ) ;
#70 = LOCAL_TIME ( 7, 58, 48.00000000000000000, #314 ) ;
#71 = EDGE_CURVE ( 'NONE', #83, #85, #65, .T. ) ;
#72 = PRODUCT_DEFINITION ( 'UNKNOWN', '', #22, #348 ) ;
#73 =( NAMED_UNIT ( * ) SI_UNIT ( $, .STERADIAN. ) SOLID_ANGLE_UNIT ( ) );
#74 = CARTESIAN_POINT ( 'NONE',  ( 7.000000000000860645, 0.000000000000000000, 0.000000000000000000 ) ) ;
#75 = PLANE ( 'NONE',  #271 ) ;
#76 = CIRCLE ( 'NONE', #280, 8.500000000000017764 ) ;
#77 = CALENDAR_DATE ( 2024, 23, 9 ) ;
#78 = SHAPE_DEFINITION_REPRESENTATION ( #193, #283 ) ;
#79 = AXIS2_PLACEMENT_3D ( 'NONE', #309, #173, #333 ) ;
#80 = CARTESIAN_POINT ( 'NONE',  ( -154.8395502972293230, 0.000000000000000000, 9.000000000000017764 ) ) ;
#81 = APPROVAL ( #265, 'UNSPECIFIED' ) ;
#82 = VERTEX_POINT ( 'NONE', #179 ) ;
#83 = VERTEX_POINT ( 'NONE', #237 ) ;
#84 = CARTESIAN_POINT ( 'NONE',  ( -2.500000000000552891, 0.000000000000000000, 0.000000000000000000 ) ) ;
#85 = VERTEX_POINT ( 'NONE', #262 ) ;
#86 = DIRECTION ( 'NONE',  ( -1.000000000000000000, -0.000000000000000000, -0.000000000000000000 ) ) ;
#87 = VERTEX_POINT ( 'NONE', #68 ) ;
#88 = DIRECTION ( 'NONE',  ( -1.000000000000000000, -0.000000000000000000, -0.000000000000000000 ) ) ;
#89 = APPROVAL_PERSON_ORGANIZATION ( #266, #93, #215 ) ;
#90 = CARTESIAN_POINT ( 'NONE',  ( -2.500000000000552891, 1.040949779275252309E-15, -8.500000000000017764 ) ) ;
#91 = AXIS2_PLACEMENT_3D ( 'NONE', #6, #171, #307 ) ;
#92 = CARTESIAN_POINT ( 'NONE',  ( -2.500000000000557332, 0.000000000000000000, 0.000000000000000000 ) ) ;
#93 = APPROVAL ( #188, 'UNSPECIFIED' ) ;
#94 = DIRECTION ( 'NONE',  ( -1.000000000000000000, -0.000000000000000000, -0.000000000000000000 ) ) ;
#95 = CARTESIAN_POINT ( 'NONE',  ( -154.8395502972293230, 1.102182119232620080E-15, -9.000000000000017764 ) ) ;
#96 = AXIS2_PLACEMENT_3D ( 'NONE', #51, #222, #326 ) ;
#97 = AXIS2_PLACEMENT_3D ( 'NONE', #320, #211, #130 ) ;
#98 = EDGE_CURVE ( 'NONE', #299, #83, #208, .T. ) ;
#99 = CALENDAR_DATE ( 2024, 23, 9 ) ;
#100 = VECTOR ( 'NONE', #66, 1000.000000000000000 ) ;
#101 = DATE_AND_TIME ( #344, #44 ) ;
#102 = CARTESIAN_POINT ( 'NONE',  ( -2.500000000000557332, 1.102182119232620080E-15, -9.000000000000017764 ) ) ;
#103 = AXIS2_PLACEMENT_3D ( 'NONE', #46, #20, #18 ) ;
#104 = CYLINDRICAL_SURFACE ( 'NONE', #217, 9.000000000000017764 ) ;
#105 = FACE_OUTER_BOUND ( 'NONE', #334, .T. ) ;
#106 = DIRECTION ( 'NONE',  ( -1.000000000000000000, 0.000000000000000000, -0.000000000000000000 ) ) ;
#107 = EDGE_CURVE ( 'NONE', #299, #336, #128, .T. ) ;
#108 = CC_DESIGN_PERSON_AND_ORGANIZATION_ASSIGNMENT ( #125, #241, ( #72 ) ) ;
#109 = EDGE_LOOP ( 'NONE', ( #1, #172, #329, #204 ) ) ;
#110 = DIRECTION ( 'NONE',  ( -1.000000000000000000, -0.000000000000000000, -0.000000000000000000 ) ) ;
#111 = VERTEX_POINT ( 'NONE', #48 ) ;
#112 = ORIENTED_EDGE ( 'NONE', *, *, #107, .F. ) ;
#113 = DIRECTION ( 'NONE',  ( -1.000000000000000000, -0.000000000000000000, -0.000000000000000000 ) ) ;
#114 = CC_DESIGN_APPROVAL ( #93, ( #22 ) ) ;
#115 = ORIENTED_EDGE ( 'NONE', *, *, #250, .F. ) ;
#116 = ORIENTED_EDGE ( 'NONE', *, *, #161, .T. ) ;
#117 = FACE_OUTER_BOUND ( 'NONE', #109, .T. ) ;
#118 = DIRECTION ( 'NONE',  ( -1.000000000000000000, -0.000000000000000000, -0.000000000000000000 ) ) ;
#119 = DIRECTION ( 'NONE',  ( 0.000000000000000000, -1.000000000000000000, 0.000000000000000000 ) ) ;
#120 = CARTESIAN_POINT ( 'NONE',  ( 7.000000000001726619, 7.960204194457819143E-16, -6.500000000000019540 ) ) ;
#121 = DIRECTION ( 'NONE',  ( -1.000000000000000000, -0.000000000000000000, -0.000000000000000000 ) ) ;
#122 = CARTESIAN_POINT ( 'NONE',  ( -154.8395502972293230, 0.000000000000000000, 0.000000000000000000 ) ) ;
#123 = PERSON_AND_ORGANIZATION ( #136, #290 ) ;
#124 = LOCAL_TIME ( 7, 58, 48.00000000000000000, #156 ) ;
#125 = PERSON_AND_ORGANIZATION ( #136, #290 ) ;
#126 = DIRECTION ( 'NONE',  ( 0.000000000000000000, 0.000000000000000000, 1.000000000000000000 ) ) ;
#127 = DIRECTION ( 'NONE',  ( -1.000000000000000000, -0.000000000000000000, -0.000000000000000000 ) ) ;
#128 = LINE ( 'NONE', #243, #210 ) ;
#129 = UNCERTAINTY_MEASURE_WITH_UNIT (LENGTH_MEASURE( 1.000000000000000082E-05 ), #159, 'distance_accuracy_value', 'NONE');
#130 = DIRECTION ( 'NONE',  ( 1.000000000000000000, 0.000000000000000000, 0.000000000000000000 ) ) ;
#131 = CARTESIAN_POINT ( 'NONE',  ( -7.654042494670108595E-16, 7.500000000000018652, 0.000000000000000000 ) ) ;
#132 = APPROVAL_PERSON_ORGANIZATION ( #42, #81, #17 ) ;
#133 = APPROVAL_DATE_TIME ( #277, #226 ) ;
#134 = CC_DESIGN_SECURITY_CLASSIFICATION ( #145, ( #22 ) ) ;
#135 = ADVANCED_FACE ( 'NONE', ( #324, #164 ), #272, .F. ) ;
#136 = PERSON ( 'UNSPECIFIED', 'UNSPECIFIED', 'UNSPECIFIED', ('UNSPECIFIED'), ('UNSPECIFIED'), ('UNSPECIFIED') ) ;
#137 = CC_DESIGN_APPROVAL ( #81, ( #72 ) ) ;
#138 = VECTOR ( 'NONE', #238, 1000.000000000000000 ) ;
#139 = EDGE_LOOP ( 'NONE', ( #60, #356, #276, #252 ) ) ;
#140 = FACE_OUTER_BOUND ( 'NONE', #303, .T. ) ;
#141 = AXIS2_PLACEMENT_3D ( 'NONE', #192, #167, #223 ) ;
#142 = FACE_OUTER_BOUND ( 'NONE', #353, .T. ) ;
#143 = EDGE_LOOP ( 'NONE', ( #55, #62, #304, #112 ) ) ;
#144 = DIRECTION ( 'NONE',  ( -1.000000000000000000, -0.000000000000000000, -0.000000000000000000 ) ) ;
#145 = SECURITY_CLASSIFICATION ( '', '', #45 ) ;
#146 = EDGE_LOOP ( 'NONE', ( #308, #5, #198, #281 ) ) ;
#147 = CIRCLE ( 'NONE', #219, 8.500000000000017764 ) ;
#148 = CARTESIAN_POINT ( 'NONE',  ( 0.000000000000000000, 0.000000000000000000, 0.000000000000000000 ) ) ;
#149 = EDGE_CURVE ( 'NONE', #87, #354, #50, .T. ) ;
#150 = AXIS2_PLACEMENT_3D ( 'NONE', #339, #322, #7 ) ;
#151 = DIRECTION ( 'NONE',  ( 0.000000000000000000, 0.000000000000000000, 1.000000000000000000 ) ) ;
#152 = CARTESIAN_POINT ( 'NONE',  ( 6.000000000001726619, 0.000000000000000000, 0.000000000000000000 ) ) ;
#153 = DIRECTION ( 'NONE',  ( 0.000000000000000000, -1.224646799147353454E-16, 1.000000000000000000 ) ) ;
#154 = EDGE_CURVE ( 'NONE', #35, #278, #249, .T. ) ;
#155 = CIRCLE ( 'NONE', #56, 9.000000000000017764 ) ;
#156 = COORDINATED_UNIVERSAL_TIME_OFFSET ( 1, 0, .AHEAD. ) ;
#157 = CALENDAR_DATE ( 2024, 23, 9 ) ;
#158 = COORDINATED_UNIVERSAL_TIME_OFFSET ( 1, 0, .AHEAD. ) ;
#159 =( LENGTH_UNIT ( ) NAMED_UNIT ( * ) SI_UNIT ( .MILLI., .METRE. ) );
#160 = DIRECTION ( 'NONE',  ( -0.000000000000000000, 1.000000000000000000, 1.224646799147353207E-16 ) ) ;
#161 = EDGE_CURVE ( 'NONE', #32, #111, #300, .T. ) ;
#162 = CC_DESIGN_DATE_AND_TIME_ASSIGNMENT ( #317, #12, ( #145 ) ) ;
#163 = PERSON_AND_ORGANIZATION ( #136, #290 ) ;
#164 = FACE_BOUND ( 'NONE', #332, .T. ) ;
#165 = EDGE_CURVE ( 'NONE', #278, #111, #328, .T. ) ;
#166 = AXIS2_PLACEMENT_3D ( 'NONE', #291, #144, #2 ) ;
#167 = DIRECTION ( 'NONE',  ( -1.000000000000000000, -0.000000000000000000, -0.000000000000000000 ) ) ;
#168 = ORIENTED_EDGE ( 'NONE', *, *, #230, .F. ) ;
#169 = CIRCLE ( 'NONE', #166, 6.500000000000019540 ) ;
#170 = ORIENTED_EDGE ( 'NONE', *, *, #71, .F. ) ;
#171 = DIRECTION ( 'NONE',  ( -1.000000000000000000, -0.000000000000000000, -0.000000000000000000 ) ) ;
#172 = ORIENTED_EDGE ( 'NONE', *, *, #15, .T. ) ;
#173 = DIRECTION ( 'NONE',  ( -1.000000000000000000, -0.000000000000000000, -0.000000000000000000 ) ) ;
#174 = ORIENTED_EDGE ( 'NONE', *, *, #165, .T. ) ;
#175 = EDGE_CURVE ( 'NONE', #82, #177, #76, .T. ) ;
#176 = LINE ( 'NONE', #95, #138 ) ;
#177 = VERTEX_POINT ( 'NONE', #253 ) ;
#178 = DIRECTION ( 'NONE',  ( 0.000000000000000000, 0.000000000000000000, -1.000000000000000000 ) ) ;
#179 = CARTESIAN_POINT ( 'NONE',  ( -3.000000000000557776, 0.000000000000000000, 8.500000000000017764 ) ) ;
#180 = CONICAL_SURFACE ( 'NONE', #150, 6.500000000000019540, 0.7853981633974482790 ) ;
#181 = DIRECTION ( 'NONE',  ( 1.000000000000000000, 0.000000000000000000, 0.000000000000000000 ) ) ;
#182 = APPROVAL_DATE_TIME ( #244, #81 ) ;
#183 = APPLICATION_PROTOCOL_DEFINITION ( 'international standard', 'config_control_design', 1994, #257 ) ;
#184 = CARTESIAN_POINT ( 'NONE',  ( 6.000000000001726619, 0.000000000000000000, 7.500000000000020428 ) ) ;
#185 = AXIS2_PLACEMENT_3D ( 'NONE', #61, #113, #229 ) ;
#186 = CC_DESIGN_PERSON_AND_ORGANIZATION_ASSIGNMENT ( #163, #349, ( #26 ) ) ;
#187 = MANIFOLD_SOLID_BREP ( 'Rotation1', #273 ) ;
#188 = APPROVAL_STATUS ( 'not_yet_approved' ) ;
#189 = ORIENTED_EDGE ( 'NONE', *, *, #315, .T. ) ;
#190 = ADVANCED_FACE ( 'NONE', ( #199 ), #259, .T. ) ;
#191 = CC_DESIGN_PERSON_AND_ORGANIZATION_ASSIGNMENT ( #292, #40, ( #145 ) ) ;
#192 = CARTESIAN_POINT ( 'NONE',  ( -2.500000000000557332, 0.000000000000000000, 0.000000000000000000 ) ) ;
#193 = PRODUCT_DEFINITION_SHAPE ( 'NONE', 'NONE',  #72 ) ;
#194 = CIRCLE ( 'NONE', #289, 0.5000000000000004441 ) ;
#195 = ORIENTED_EDGE ( 'NONE', *, *, #149, .T. ) ;
#196 = ADVANCED_FACE ( 'NONE', ( #117 ), #63, .T. ) ;
#197 = ORIENTED_EDGE ( 'NONE', *, *, #15, .F. ) ;
#198 = ORIENTED_EDGE ( 'NONE', *, *, #311, .F. ) ;
#199 = FACE_OUTER_BOUND ( 'NONE', #139, .T. ) ;
#200 = ORIENTED_EDGE ( 'NONE', *, *, #201, .F. ) ;
#201 = EDGE_CURVE ( 'NONE', #35, #32, #176, .T. ) ;
#202 = PRODUCT_RELATED_PRODUCT_CATEGORY ( 'detail', '', ( #26 ) ) ;
#203 = DIRECTION ( 'NONE',  ( 0.000000000000000000, 0.000000000000000000, 1.000000000000000000 ) ) ;
#204 = ORIENTED_EDGE ( 'NONE', *, *, #275, .F. ) ;
#205 = LINE ( 'NONE', #287, #3 ) ;
#206 = DIRECTION ( 'NONE',  ( -1.000000000000000000, -0.000000000000000000, -0.000000000000000000 ) ) ;
#207 = FACE_OUTER_BOUND ( 'NONE', #247, .T. ) ;
#208 = CIRCLE ( 'NONE', #103, 6.500000000000019540 ) ;
#209 = COORDINATED_UNIVERSAL_TIME_OFFSET ( 1, 0, .AHEAD. ) ;
#210 = VECTOR ( 'NONE', #298, 1000.000000000000114 ) ;
#211 = DIRECTION ( 'NONE',  ( 0.000000000000000000, 0.000000000000000000, 1.000000000000000000 ) ) ;
#212 = AXIS2_PLACEMENT_3D ( 'NONE', #148, #338, #305 ) ;
#213 = PERSON_AND_ORGANIZATION ( #136, #290 ) ;
#214 = EDGE_CURVE ( 'NONE', #85, #336, #29, .T. ) ;
#215 = APPROVAL_ROLE ( '' ) ;
#216 = FACE_OUTER_BOUND ( 'NONE', #146, .T. ) ;
#217 = AXIS2_PLACEMENT_3D ( 'NONE', #122, #127, #297 ) ;
#218 = DIRECTION ( 'NONE',  ( -1.000000000000000000, 0.000000000000000000, -0.000000000000000000 ) ) ;
#219 = AXIS2_PLACEMENT_3D ( 'NONE', #279, #39, #31 ) ;
#220 = DIRECTION ( 'NONE',  ( -0.000000000000000000, 0.000000000000000000, 1.000000000000000000 ) ) ;
#221 = ADVANCED_FACE ( 'NONE', ( #282 ), #312, .F. ) ;
#222 = DIRECTION ( 'NONE',  ( -1.000000000000000000, -0.000000000000000000, -0.000000000000000000 ) ) ;
#223 = DIRECTION ( 'NONE',  ( 0.000000000000000000, 0.000000000000000000, 1.000000000000000000 ) ) ;
#224 = ORIENTED_EDGE ( 'NONE', *, *, #154, .T. ) ;
#225 = EDGE_CURVE ( 'NONE', #354, #87, #23, .T. ) ;
#226 = APPROVAL ( #24, 'UNSPECIFIED' ) ;
#227 = ORIENTED_EDGE ( 'NONE', *, *, #154, .F. ) ;
#228 = ORIENTED_EDGE ( 'NONE', *, *, #107, .T. ) ;
#229 = DIRECTION ( 'NONE',  ( 0.000000000000000000, 0.000000000000000000, 1.000000000000000000 ) ) ;
#230 = EDGE_CURVE ( 'NONE', #83, #299, #169, .T. ) ;
#231 = ORIENTED_EDGE ( 'NONE', *, *, #275, .T. ) ;
#232 = CARTESIAN_POINT ( 'NONE',  ( 0.000000000000000000, 0.000000000000000000, 9.000000000000017764 ) ) ;
#233 = ORIENTED_EDGE ( 'NONE', *, *, #225, .T. ) ;
#234 = CARTESIAN_POINT ( 'NONE',  ( 0.000000000000000000, 0.000000000000000000, 0.000000000000000000 ) ) ;
#235 = DIRECTION ( 'NONE',  ( 0.000000000000000000, 0.000000000000000000, 1.000000000000000000 ) ) ;
#236 = CARTESIAN_POINT ( 'NONE',  ( 7.000000000001726619, 0.000000000000000000, 6.500000000000019540 ) ) ;
#237 = CARTESIAN_POINT ( 'NONE',  ( 7.000000000001726619, 8.572527594031497842E-16, -6.500000000000019540 ) ) ;
#238 = DIRECTION ( 'NONE',  ( -1.000000000000000000, -0.000000000000000000, -0.000000000000000000 ) ) ;
#239 = AXIS2_PLACEMENT_3D ( 'NONE', #131, #106, #220 ) ;
#240 = PERSON_AND_ORGANIZATION_ROLE ( 'creator' ) ;
#241 = PERSON_AND_ORGANIZATION_ROLE ( 'creator' ) ;
#242 = CARTESIAN_POINT ( 'NONE',  ( 0.000000000000000000, 9.184850993605173582E-16, -7.500000000000018652 ) ) ;
#243 = CARTESIAN_POINT ( 'NONE',  ( 7.000000000001726619, 0.000000000000000000, 6.500000000000019540 ) ) ;
#244 = DATE_AND_TIME ( #157, #25 ) ;
#245 = CARTESIAN_POINT ( 'NONE',  ( 0.000000000000000000, 1.102182119232620080E-15, -9.000000000000017764 ) ) ;
#246 = ORIENTED_EDGE ( 'NONE', *, *, #288, .T. ) ;
#247 = EDGE_LOOP ( 'NONE', ( #170, #53, #228, #306 ) ) ;
#248 = ORIENTED_EDGE ( 'NONE', *, *, #301, .T. ) ;
#249 = CIRCLE ( 'NONE', #96, 9.000000000000017764 ) ;
#250 = EDGE_CURVE ( 'NONE', #336, #87, #205, .T. ) ;
#251 = CARTESIAN_POINT ( 'NONE',  ( 7.000000000001726619, 0.000000000000000000, 0.000000000000000000 ) ) ;
#252 = ORIENTED_EDGE ( 'NONE', *, *, #225, .F. ) ;
#253 = CARTESIAN_POINT ( 'NONE',  ( -3.000000000000557776, 1.071565949253936293E-15, -8.500000000000017764 ) ) ;
#254 = AXIS2_PLACEMENT_3D ( 'NONE', #8, #119, #57 ) ;
#255 = ORIENTED_EDGE ( 'NONE', *, *, #301, .F. ) ;
#256 = DIRECTION ( 'NONE',  ( 0.000000000000000000, 0.000000000000000000, 1.000000000000000000 ) ) ;
#257 = APPLICATION_CONTEXT ( 'configuration controlled 3d designs of mechanical parts and assemblies' ) ;
#258 = CYLINDRICAL_SURFACE ( 'NONE', #330, 9.000000000000017764 ) ;
#259 = CYLINDRICAL_SURFACE ( 'NONE', #91, 7.500000000000019540 ) ;
#260 = ADVANCED_FACE ( 'NONE', ( #64 ), #11, .T. ) ;
#261 = DIRECTION ( 'NONE',  ( -1.000000000000000000, -0.000000000000000000, -0.000000000000000000 ) ) ;
#262 = CARTESIAN_POINT ( 'NONE',  ( 6.000000000001726619, 9.184850993605175555E-16, -7.500000000000020428 ) ) ;
#263 = CC_DESIGN_APPROVAL ( #226, ( #145 ) ) ;
#264 = AXIS2_PLACEMENT_3D ( 'NONE', #152, #121, #203 ) ;
#265 = APPROVAL_STATUS ( 'not_yet_approved' ) ;
#266 = PERSON_AND_ORGANIZATION ( #136, #290 ) ;
#267 = EDGE_CURVE ( 'NONE', #278, #35, #293, .T. ) ;
#268 = FACE_OUTER_BOUND ( 'NONE', #30, .T. ) ;
#269 = DIRECTION ( 'NONE',  ( -0.000000000000000000, 0.000000000000000000, 1.000000000000000000 ) ) ;
#270 = MECHANICAL_CONTEXT ( 'NONE', #13, 'mechanical' ) ;
#271 = AXIS2_PLACEMENT_3D ( 'NONE', #74, #218, #269 ) ;
#272 = PLANE ( 'NONE',  #239 ) ;
#273 = CLOSED_SHELL ( 'NONE', ( #196, #33, #321, #260, #27, #43, #190, #135, #325, #4, #221 ) ) ;
#274 = CARTESIAN_POINT ( 'NONE',  ( 0.000000000000000000, 0.000000000000000000, 0.000000000000000000 ) ) ;
#275 = EDGE_CURVE ( 'NONE', #111, #82, #52, .T. ) ;
#276 = ORIENTED_EDGE ( 'NONE', *, *, #250, .T. ) ;
#277 = DATE_AND_TIME ( #77, #10 ) ;
#278 = VERTEX_POINT ( 'NONE', #232 ) ;
#279 = CARTESIAN_POINT ( 'NONE',  ( -3.000000000000557776, 0.000000000000000000, 0.000000000000000000 ) ) ;
#280 = AXIS2_PLACEMENT_3D ( 'NONE', #36, #88, #151 ) ;
#281 = ORIENTED_EDGE ( 'NONE', *, *, #165, .F. ) ;
#282 = FACE_OUTER_BOUND ( 'NONE', #37, .T. ) ;
#283 = ADVANCED_BREP_SHAPE_REPRESENTATION ( '3D_GR1382_DN18x1.5_18380294', ( #187, #97 ), #345 ) ;
#284 = ORIENTED_EDGE ( 'NONE', *, *, #161, .F. ) ;
#285 = DIRECTION ( 'NONE',  ( 0.000000000000000000, 0.000000000000000000, 1.000000000000000000 ) ) ;
#286 = ORIENTED_EDGE ( 'NONE', *, *, #98, .F. ) ;
#287 = CARTESIAN_POINT ( 'NONE',  ( -154.8395502972293230, 0.000000000000000000, 7.500000000000019540 ) ) ;
#288 = EDGE_CURVE ( 'NONE', #85, #354, #9, .T. ) ;
#289 = AXIS2_PLACEMENT_3D ( 'NONE', #90, #160, #153 ) ;
#290 = ORGANIZATION ( 'UNSPECIFIED', 'UNSPECIFIED', '' ) ;
#291 = CARTESIAN_POINT ( 'NONE',  ( 7.000000000001726619, 0.000000000000000000, 0.000000000000000000 ) ) ;
#292 = PERSON_AND_ORGANIZATION ( #136, #290 ) ;
#293 = CIRCLE ( 'NONE', #212, 9.000000000000017764 ) ;
#294 = DATE_TIME_ROLE ( 'creation_date' ) ;
#295 = DIRECTION ( 'NONE',  ( -0.7071067811865474617, 8.659560562354932858E-17, -0.7071067811865474617 ) ) ;
#296 = AXIS2_PLACEMENT_3D ( 'NONE', #84, #261, #59 ) ;
#297 = DIRECTION ( 'NONE',  ( 0.000000000000000000, 0.000000000000000000, 1.000000000000000000 ) ) ;
#298 = DIRECTION ( 'NONE',  ( -0.7071067811865474617, 0.000000000000000000, 0.7071067811865474617 ) ) ;
#299 = VERTEX_POINT ( 'NONE', #236 ) ;
#300 = CIRCLE ( 'NONE', #141, 9.000000000000017764 ) ;
#301 = EDGE_CURVE ( 'NONE', #177, #82, #147, .T. ) ;
#302 = CIRCLE ( 'NONE', #264, 7.500000000000020428 ) ;
#303 = EDGE_LOOP ( 'NONE', ( #197, #116, #231, #255 ) ) ;
#304 = ORIENTED_EDGE ( 'NONE', *, *, #315, .F. ) ;
#305 = DIRECTION ( 'NONE',  ( 0.000000000000000000, 0.000000000000000000, 1.000000000000000000 ) ) ;
#306 = ORIENTED_EDGE ( 'NONE', *, *, #214, .F. ) ;
#307 = DIRECTION ( 'NONE',  ( 0.000000000000000000, 0.000000000000000000, 1.000000000000000000 ) ) ;
#308 = ORIENTED_EDGE ( 'NONE', *, *, #267, .T. ) ;
#309 = CARTESIAN_POINT ( 'NONE',  ( 6.000000000001726619, 0.000000000000000000, 0.000000000000000000 ) ) ;
#310 = ORIENTED_EDGE ( 'NONE', *, *, #267, .F. ) ;
#311 = EDGE_CURVE ( 'NONE', #111, #32, #155, .T. ) ;
#312 = PLANE ( 'NONE',  #323 ) ;
#313 = DIRECTION ( 'NONE',  ( -1.000000000000000000, -0.000000000000000000, -0.000000000000000000 ) ) ;
#314 = COORDINATED_UNIVERSAL_TIME_OFFSET ( 1, 0, .AHEAD. ) ;
#315 = EDGE_CURVE ( 'NONE', #336, #85, #302, .T. ) ;
#316 = AXIS2_PLACEMENT_3D ( 'NONE', #234, #337, #340 ) ;
#317 = DATE_AND_TIME ( #99, #124 ) ;
#318 = APPROVAL_DATE_TIME ( #14, #93 ) ;
#319 = CARTESIAN_POINT ( 'NONE',  ( -154.8395502972293230, 0.000000000000000000, 0.000000000000000000 ) ) ;
#320 = CARTESIAN_POINT ( 'NONE',  ( 0.000000000000000000, 0.000000000000000000, 0.000000000000000000 ) ) ;
#321 = ADVANCED_FACE ( 'NONE', ( #142 ), #357, .T. ) ;
#322 = DIRECTION ( 'NONE',  ( -1.000000000000000000, -0.000000000000000000, -0.000000000000000000 ) ) ;
#323 = AXIS2_PLACEMENT_3D ( 'NONE', #34, #181, #178 ) ;
#324 = FACE_OUTER_BOUND ( 'NONE', #58, .T. ) ;
#325 = ADVANCED_FACE ( 'NONE', ( #268 ), #104, .T. ) ;
#326 = DIRECTION ( 'NONE',  ( 0.000000000000000000, 0.000000000000000000, 1.000000000000000000 ) ) ;
#327 = APPROVAL_PERSON_ORGANIZATION ( #21, #226, #351 ) ;
#328 = LINE ( 'NONE', #80, #342 ) ;
#329 = ORIENTED_EDGE ( 'NONE', *, *, #175, .F. ) ;
#330 = AXIS2_PLACEMENT_3D ( 'NONE', #319, #118, #235 ) ;
#331 = ORIENTED_EDGE ( 'NONE', *, *, #149, .F. ) ;
#332 = EDGE_LOOP ( 'NONE', ( #195, #233 ) ) ;
#333 = DIRECTION ( 'NONE',  ( 0.000000000000000000, 0.000000000000000000, 1.000000000000000000 ) ) ;
#334 = EDGE_LOOP ( 'NONE', ( #286, #168 ) ) ;
#335 = CARTESIAN_POINT ( 'NONE',  ( -154.8395502972293230, 9.184850993605173582E-16, -7.500000000000019540 ) ) ;
#336 = VERTEX_POINT ( 'NONE', #184 ) ;
#337 = DIRECTION ( 'NONE',  ( -1.000000000000000000, -0.000000000000000000, -0.000000000000000000 ) ) ;
#338 = DIRECTION ( 'NONE',  ( -1.000000000000000000, -0.000000000000000000, -0.000000000000000000 ) ) ;
#339 = CARTESIAN_POINT ( 'NONE',  ( 7.000000000001726619, 0.000000000000000000, 0.000000000000000000 ) ) ;
#340 = DIRECTION ( 'NONE',  ( 0.000000000000000000, 0.000000000000000000, 1.000000000000000000 ) ) ;
#341 = CC_DESIGN_PERSON_AND_ORGANIZATION_ASSIGNMENT ( #213, #343, ( #22 ) ) ;
#342 = VECTOR ( 'NONE', #206, 1000.000000000000000 ) ;
#343 = PERSON_AND_ORGANIZATION_ROLE ( 'design_supplier' ) ;
#344 = CALENDAR_DATE ( 2024, 23, 9 ) ;
#345 =( GEOMETRIC_REPRESENTATION_CONTEXT ( 3 ) GLOBAL_UNCERTAINTY_ASSIGNED_CONTEXT ( ( #129 ) ) GLOBAL_UNIT_ASSIGNED_CONTEXT ( ( #159, #47, #73 ) ) REPRESENTATION_CONTEXT ( 'NONE', 'WORKASPACE' ) );
#346 = CC_DESIGN_PERSON_AND_ORGANIZATION_ASSIGNMENT ( #123, #240, ( #22 ) ) ;
#347 = CARTESIAN_POINT ( 'NONE',  ( -2.500000000000552891, 0.000000000000000000, 0.000000000000000000 ) ) ;
#348 = DESIGN_CONTEXT ( 'detailed design', #257, 'design' ) ;
#349 = PERSON_AND_ORGANIZATION_ROLE ( 'design_owner' ) ;
#350 = AXIS2_PLACEMENT_3D ( 'NONE', #251, #38, #285 ) ;
#351 = APPROVAL_ROLE ( '' ) ;
#352 = COORDINATED_UNIVERSAL_TIME_OFFSET ( 1, 0, .AHEAD. ) ;
#353 = EDGE_LOOP ( 'NONE', ( #189, #246, #331, #115 ) ) ;
#354 = VERTEX_POINT ( 'NONE', #242 ) ;
#355 = AXIS2_PLACEMENT_3D ( 'NONE', #347, #94, #126 ) ;
#356 = ORIENTED_EDGE ( 'NONE', *, *, #214, .T. ) ;
#357 = CYLINDRICAL_SURFACE ( 'NONE', #185, 7.500000000000019540 ) ;
ENDSEC;
END-ISO-10303-21;
