ISO-10303-21;
HEADER;
FILE_DESCRIPTION (( 'STEP AP203' ),
    '1' );
FILE_NAME ('3D_R243_48.3x3_17386057.STEP',
    '2024-08-06T08:42:35',
    ( '' ),
    ( '' ),
    'SwSTEP 2.0',
    'SolidWorks 2024',
    '' );
FILE_SCHEMA (( 'CONFIG_CONTROL_DESIGN' ));
ENDSEC;

DATA;
#1 = MECHANICAL_CONTEXT ( 'NONE', #244, 'mechanical' ) ;
#2 = DIRECTION ( 'NONE',  ( 0.000000000000000000, 0.000000000000000000, 1.000000000000000000 ) ) ;
#3 = COORDINATED_UNIVERSAL_TIME_OFFSET ( 1, 0, .AHEAD. ) ;
#4 = CC_DESIGN_APPROVAL ( #239, ( #71 ) ) ;
#5 = PRODUCT_DEFINITION_SHAPE ( 'NONE', 'NONE',  #246 ) ;
#6 = APPROVAL_STATUS ( 'not_yet_approved' ) ;
#7 = APPROVAL_ROLE ( '' ) ;
#8 = APPROVAL_ROLE ( '' ) ;
#9 = CC_DESIGN_DATE_AND_TIME_ASSIGNMENT ( #28, #123, ( #246 ) ) ;
#10 = VERTEX_POINT ( 'NONE', #155 ) ;
#11 = CALENDAR_DATE ( 2024, 6, 8 ) ;
#12 = EDGE_LOOP ( 'NONE', ( #84, #169 ) ) ;
#13 = CIRCLE ( 'NONE', #50, 24.14999999999999858 ) ;
#14 = FACE_OUTER_BOUND ( 'NONE', #124, .T. ) ;
#15 = CYLINDRICAL_SURFACE ( 'NONE', #66, 24.14999999999999858 ) ;
#16 = PLANE ( 'NONE',  #92 ) ;
#17 = DIRECTION ( 'NONE',  ( 0.000000000000000000, 0.000000000000000000, -1.000000000000000000 ) ) ;
#18 = EDGE_CURVE ( 'NONE', #88, #205, #125, .T. ) ;
#19 = ORGANIZATION ( 'UNSPECIFIED', 'UNSPECIFIED', '' ) ;
#20 = CARTESIAN_POINT ( 'NONE',  ( 0.000000000000000000, 3.000000000000000000, -54.14999999999999858 ) ) ;
#21 = CC_DESIGN_APPROVAL ( #218, ( #82 ) ) ;
#22 = PERSON_AND_ORGANIZATION_ROLE ( 'design_owner' ) ;
#23 = CARTESIAN_POINT ( 'NONE',  ( 2.957522019940857930E-15, 3.000000000000000000, 24.14999999999999858 ) ) ;
#24 = FACE_OUTER_BOUND ( 'NONE', #12, .T. ) ;
#25 = EDGE_CURVE ( 'NONE', #208, #205, #242, .T. ) ;
#26 = VECTOR ( 'NONE', #240, 1000.000000000000000 ) ;
#27 = PERSON_AND_ORGANIZATION ( #248, #19 ) ;
#28 = DATE_AND_TIME ( #183, #38 ) ;
#29 = AXIS2_PLACEMENT_3D ( 'NONE', #193, #189, #237 ) ;
#30 = COORDINATED_UNIVERSAL_TIME_OFFSET ( 1, 0, .AHEAD. ) ;
#31 = VERTEX_POINT ( 'NONE', #133 ) ;
#32 = DIRECTION ( 'NONE',  ( 0.000000000000000000, 1.000000000000000000, 0.000000000000000000 ) ) ;
#33 = LOCAL_TIME ( 10, 42, 35.00000000000000000, #3 ) ;
#34 = CARTESIAN_POINT ( 'NONE',  ( 0.000000000000000000, 0.000000000000000000, 0.000000000000000000 ) ) ;
#35 = DIRECTION ( 'NONE',  ( 0.000000000000000000, 0.000000000000000000, 1.000000000000000000 ) ) ;
#36 = ORIENTED_EDGE ( 'NONE', *, *, #25, .F. ) ;
#37 = ORIENTED_EDGE ( 'NONE', *, *, #25, .T. ) ;
#38 = LOCAL_TIME ( 10, 42, 35.00000000000000000, #145 ) ;
#39 = CARTESIAN_POINT ( 'NONE',  ( 0.000000000000000000, 0.000000000000000000, -24.14999999999999858 ) ) ;
#40 = PRODUCT_RELATED_PRODUCT_CATEGORY ( 'detail', '', ( #101 ) ) ;
#41 = FACE_OUTER_BOUND ( 'NONE', #150, .T. ) ;
#42 = EDGE_CURVE ( 'NONE', #108, #210, #217, .T. ) ;
#43 = CARTESIAN_POINT ( 'NONE',  ( 0.000000000000000000, 0.000000000000000000, 0.000000000000000000 ) ) ;
#44 = SHAPE_DEFINITION_REPRESENTATION ( #5, #197 ) ;
#45 = EDGE_LOOP ( 'NONE', ( #113, #116 ) ) ;
#46 = CIRCLE ( 'NONE', #161, 54.14999999999999858 ) ;
#47 = ORIENTED_EDGE ( 'NONE', *, *, #52, .T. ) ;
#48 = CARTESIAN_POINT ( 'NONE',  ( 0.000000000000000000, 3.000000000000000000, 0.000000000000000000 ) ) ;
#49 = CARTESIAN_POINT ( 'NONE',  ( 6.631462417382917108E-15, 3.000000000000000000, 54.14999999999999858 ) ) ;
#50 = AXIS2_PLACEMENT_3D ( 'NONE', #72, #212, #35 ) ;
#51 = DIRECTION ( 'NONE',  ( -0.000000000000000000, -1.000000000000000000, -0.000000000000000000 ) ) ;
#52 = EDGE_CURVE ( 'NONE', #31, #10, #13, .T. ) ;
#53 = ORIENTED_EDGE ( 'NONE', *, *, #135, .T. ) ;
#54 = DIRECTION ( 'NONE',  ( 0.000000000000000000, 0.000000000000000000, 1.000000000000000000 ) ) ;
#55 = CC_DESIGN_DATE_AND_TIME_ASSIGNMENT ( #232, #204, ( #71 ) ) ;
#56 = CYLINDRICAL_SURFACE ( 'NONE', #120, 54.14999999999999858 ) ;
#57 = AXIS2_PLACEMENT_3D ( 'NONE', #245, #32, #213 ) ;
#58 = CARTESIAN_POINT ( 'NONE',  ( 0.000000000000000000, 3.000000000000000000, 0.000000000000000000 ) ) ;
#59 = DIRECTION ( 'NONE',  ( 0.000000000000000000, 1.000000000000000000, 0.000000000000000000 ) ) ;
#60 = LOCAL_TIME ( 10, 42, 35.00000000000000000, #103 ) ;
#61 = CC_DESIGN_PERSON_AND_ORGANIZATION_ASSIGNMENT ( #156, #143, ( #246 ) ) ;
#62 = APPROVAL_DATE_TIME ( #162, #98 ) ;
#63 = ORIENTED_EDGE ( 'NONE', *, *, #182, .F. ) ;
#64 = CALENDAR_DATE ( 2024, 6, 8 ) ;
#65 = EDGE_LOOP ( 'NONE', ( #53, #134, #70, #188 ) ) ;
#66 = AXIS2_PLACEMENT_3D ( 'NONE', #222, #190, #17 ) ;
#67 = ADVANCED_FACE ( 'NONE', ( #91 ), #15, .F. ) ;
#68 = LINE ( 'NONE', #241, #26 ) ;
#69 = CARTESIAN_POINT ( 'NONE',  ( 0.000000000000000000, 3.000000000000000000, 0.000000000000000000 ) ) ;
#70 = ORIENTED_EDGE ( 'NONE', *, *, #207, .F. ) ;
#71 = SECURITY_CLASSIFICATION ( '', '', #129 ) ;
#72 = CARTESIAN_POINT ( 'NONE',  ( 0.000000000000000000, 3.000000000000000000, 0.000000000000000000 ) ) ;
#73 = ORIENTED_EDGE ( 'NONE', *, *, #163, .T. ) ;
#74 = DIRECTION ( 'NONE',  ( 0.000000000000000000, 1.000000000000000000, 0.000000000000000000 ) ) ;
#75 = CARTESIAN_POINT ( 'NONE',  ( 6.631462417382917108E-15, 0.000000000000000000, 54.14999999999999858 ) ) ;
#76 = DIRECTION ( 'NONE',  ( -0.000000000000000000, -1.000000000000000000, -0.000000000000000000 ) ) ;
#77 =( NAMED_UNIT ( * ) PLANE_ANGLE_UNIT ( ) SI_UNIT ( $, .RADIAN. ) );
#78 = CALENDAR_DATE ( 2024, 6, 8 ) ;
#79 = AXIS2_PLACEMENT_3D ( 'NONE', #58, #74, #226 ) ;
#80 = COORDINATED_UNIVERSAL_TIME_OFFSET ( 1, 0, .AHEAD. ) ;
#81 = EDGE_LOOP ( 'NONE', ( #90, #131 ) ) ;
#82 = PRODUCT_DEFINITION_FORMATION_WITH_SPECIFIED_SOURCE ( 'ANY', '', #101, .NOT_KNOWN. ) ;
#83 = APPROVAL_DATE_TIME ( #234, #239 ) ;
#84 = ORIENTED_EDGE ( 'NONE', *, *, #18, .F. ) ;
#85 = ADVANCED_FACE ( 'NONE', ( #14 ), #171, .T. ) ;
#86 = ORIENTED_EDGE ( 'NONE', *, *, #191, .F. ) ;
#87 = AXIS2_PLACEMENT_3D ( 'NONE', #43, #59, #230 ) ;
#88 = VERTEX_POINT ( 'NONE', #175 ) ;
#89 = CC_DESIGN_PERSON_AND_ORGANIZATION_ASSIGNMENT ( #206, #184, ( #71 ) ) ;
#90 = ORIENTED_EDGE ( 'NONE', *, *, #207, .T. ) ;
#91 = FACE_OUTER_BOUND ( 'NONE', #209, .T. ) ;
#92 = AXIS2_PLACEMENT_3D ( 'NONE', #153, #223, #136 ) ;
#93 = AXIS2_PLACEMENT_3D ( 'NONE', #34, #192, #54 ) ;
#94 = DIRECTION ( 'NONE',  ( 0.000000000000000000, 0.000000000000000000, -1.000000000000000000 ) ) ;
#95 = DIRECTION ( 'NONE',  ( -0.000000000000000000, -1.000000000000000000, -0.000000000000000000 ) ) ;
#96 =( LENGTH_UNIT ( ) NAMED_UNIT ( * ) SI_UNIT ( .MILLI., .METRE. ) );
#97 = UNCERTAINTY_MEASURE_WITH_UNIT (LENGTH_MEASURE( 1.000000000000000082E-05 ), #96, 'distance_accuracy_value', 'NONE');
#98 = APPROVAL ( #141, 'UNSPECIFIED' ) ;
#99 = PERSON_AND_ORGANIZATION ( #248, #19 ) ;
#100 = APPLICATION_PROTOCOL_DEFINITION ( 'international standard', 'config_control_design', 1994, #238 ) ;
#101 = PRODUCT ( '3D_R243_48.3x3_17386057', '3D_R243_48.3x3_17386057', '', ( #1 ) ) ;
#102 = CIRCLE ( 'NONE', #137, 54.14999999999999858 ) ;
#103 = COORDINATED_UNIVERSAL_TIME_OFFSET ( 1, 0, .AHEAD. ) ;
#104 = PERSON_AND_ORGANIZATION ( #248, #19 ) ;
#105 = ORIENTED_EDGE ( 'NONE', *, *, #135, .F. ) ;
#106 = AXIS2_PLACEMENT_3D ( 'NONE', #140, #214, #121 ) ;
#107 = EDGE_CURVE ( 'NONE', #10, #210, #68, .T. ) ;
#108 = VERTEX_POINT ( 'NONE', #111 ) ;
#109 = DIRECTION ( 'NONE',  ( 0.000000000000000000, 0.000000000000000000, 1.000000000000000000 ) ) ;
#110 = VECTOR ( 'NONE', #95, 1000.000000000000000 ) ;
#111 = CARTESIAN_POINT ( 'NONE',  ( 2.957522019940857930E-15, 0.000000000000000000, 24.14999999999999858 ) ) ;
#112 = ORIENTED_EDGE ( 'NONE', *, *, #42, .F. ) ;
#113 = ORIENTED_EDGE ( 'NONE', *, *, #182, .T. ) ;
#114 = MANIFOLD_SOLID_BREP ( 'Aufsatz-Linear austragen1', #229 ) ;
#115 = CIRCLE ( 'NONE', #57, 24.14999999999999858 ) ;
#116 = ORIENTED_EDGE ( 'NONE', *, *, #235, .T. ) ;
#117 = ADVANCED_FACE ( 'NONE', ( #211, #172 ), #16, .T. ) ;
#118 = DIRECTION ( 'NONE',  ( -0.000000000000000000, -1.000000000000000000, -0.000000000000000000 ) ) ;
#119 = FACE_BOUND ( 'NONE', #81, .T. ) ;
#120 = AXIS2_PLACEMENT_3D ( 'NONE', #198, #176, #201 ) ;
#121 = DIRECTION ( 'NONE',  ( 1.000000000000000000, 0.000000000000000000, 0.000000000000000000 ) ) ;
#122 = CARTESIAN_POINT ( 'NONE',  ( 0.000000000000000000, 0.000000000000000000, 0.000000000000000000 ) ) ;
#123 = DATE_TIME_ROLE ( 'creation_date' ) ;
#124 = EDGE_LOOP ( 'NONE', ( #167, #37, #73, #203 ) ) ;
#125 = CIRCLE ( 'NONE', #29, 54.14999999999999858 ) ;
#126 = CALENDAR_DATE ( 2024, 6, 8 ) ;
#127 = ORIENTED_EDGE ( 'NONE', *, *, #107, .T. ) ;
#128 = CC_DESIGN_PERSON_AND_ORGANIZATION_ASSIGNMENT ( #231, #168, ( #82 ) ) ;
#129 = SECURITY_CLASSIFICATION_LEVEL ( 'unclassified' ) ;
#130 = DIRECTION ( 'NONE',  ( 0.000000000000000000, 1.000000000000000000, 0.000000000000000000 ) ) ;
#131 = ORIENTED_EDGE ( 'NONE', *, *, #42, .T. ) ;
#132 = APPROVAL_PERSON_ORGANIZATION ( #160, #98, #181 ) ;
#133 = CARTESIAN_POINT ( 'NONE',  ( 2.957522019940857930E-15, 3.000000000000000000, 24.14999999999999858 ) ) ;
#134 = ORIENTED_EDGE ( 'NONE', *, *, #191, .T. ) ;
#135 = EDGE_CURVE ( 'NONE', #10, #31, #115, .T. ) ;
#136 = DIRECTION ( 'NONE',  ( 0.000000000000000000, -0.000000000000000000, 1.000000000000000000 ) ) ;
#137 = AXIS2_PLACEMENT_3D ( 'NONE', #48, #130, #109 ) ;
#138 = DESIGN_CONTEXT ( 'detailed design', #238, 'design' ) ;
#139 = CYLINDRICAL_SURFACE ( 'NONE', #152, 24.14999999999999858 ) ;
#140 = CARTESIAN_POINT ( 'NONE',  ( 0.000000000000000000, 0.000000000000000000, 0.000000000000000000 ) ) ;
#141 = APPROVAL_STATUS ( 'not_yet_approved' ) ;
#142 = APPROVAL_PERSON_ORGANIZATION ( #185, #239, #7 ) ;
#143 = PERSON_AND_ORGANIZATION_ROLE ( 'creator' ) ;
#144 = PERSON_AND_ORGANIZATION_ROLE ( 'creator' ) ;
#145 = COORDINATED_UNIVERSAL_TIME_OFFSET ( 1, 0, .AHEAD. ) ;
#146 = EDGE_CURVE ( 'NONE', #221, #88, #195, .T. ) ;
#147 = ORIENTED_EDGE ( 'NONE', *, *, #52, .F. ) ;
#148 = CC_DESIGN_SECURITY_CLASSIFICATION ( #71, ( #82 ) ) ;
#149 = CARTESIAN_POINT ( 'NONE',  ( 0.000000000000000000, 0.000000000000000000, 0.000000000000000000 ) ) ;
#150 = EDGE_LOOP ( 'NONE', ( #36, #63, #186, #151 ) ) ;
#151 = ORIENTED_EDGE ( 'NONE', *, *, #18, .T. ) ;
#152 = AXIS2_PLACEMENT_3D ( 'NONE', #247, #76, #158 ) ;
#153 = CARTESIAN_POINT ( 'NONE',  ( 0.000000000000000000, 3.000000000000000000, 0.000000000000000000 ) ) ;
#154 = CC_DESIGN_PERSON_AND_ORGANIZATION_ASSIGNMENT ( #99, #22, ( #101 ) ) ;
#155 = CARTESIAN_POINT ( 'NONE',  ( 0.000000000000000000, 3.000000000000000000, -24.14999999999999858 ) ) ;
#156 = PERSON_AND_ORGANIZATION ( #248, #19 ) ;
#157 = VECTOR ( 'NONE', #51, 1000.000000000000000 ) ;
#158 = DIRECTION ( 'NONE',  ( 0.000000000000000000, 0.000000000000000000, -1.000000000000000000 ) ) ;
#159 = FACE_OUTER_BOUND ( 'NONE', #65, .T. ) ;
#160 = PERSON_AND_ORGANIZATION ( #248, #19 ) ;
#161 = AXIS2_PLACEMENT_3D ( 'NONE', #149, #170, #220 ) ;
#162 = DATE_AND_TIME ( #78, #33 ) ;
#163 = EDGE_CURVE ( 'NONE', #205, #88, #46, .T. ) ;
#164 = DATE_AND_TIME ( #126, #194 ) ;
#165 = APPROVAL_STATUS ( 'not_yet_approved' ) ;
#166 = APPROVAL_DATE_TIME ( #164, #218 ) ;
#167 = ORIENTED_EDGE ( 'NONE', *, *, #235, .F. ) ;
#168 = PERSON_AND_ORGANIZATION_ROLE ( 'design_supplier' ) ;
#169 = ORIENTED_EDGE ( 'NONE', *, *, #163, .F. ) ;
#170 = DIRECTION ( 'NONE',  ( 0.000000000000000000, 1.000000000000000000, 0.000000000000000000 ) ) ;
#171 = CYLINDRICAL_SURFACE ( 'NONE', #187, 54.14999999999999858 ) ;
#172 = FACE_BOUND ( 'NONE', #236, .T. ) ;
#173 = CC_DESIGN_PERSON_AND_ORGANIZATION_ASSIGNMENT ( #27, #144, ( #82 ) ) ;
#174 = AXIS2_PLACEMENT_3D ( 'NONE', #122, #180, #2 ) ;
#175 = CARTESIAN_POINT ( 'NONE',  ( 0.000000000000000000, 0.000000000000000000, -54.14999999999999858 ) ) ;
#176 = DIRECTION ( 'NONE',  ( -0.000000000000000000, -1.000000000000000000, -0.000000000000000000 ) ) ;
#177 =( NAMED_UNIT ( * ) SI_UNIT ( $, .STERADIAN. ) SOLID_ANGLE_UNIT ( ) );
#178 = APPROVAL_PERSON_ORGANIZATION ( #104, #218, #8 ) ;
#179 = APPLICATION_PROTOCOL_DEFINITION ( 'international standard', 'config_control_design', 1994, #244 ) ;
#180 = DIRECTION ( 'NONE',  ( 0.000000000000000000, 1.000000000000000000, 0.000000000000000000 ) ) ;
#181 = APPROVAL_ROLE ( '' ) ;
#182 = EDGE_CURVE ( 'NONE', #221, #208, #102, .T. ) ;
#183 = CALENDAR_DATE ( 2024, 6, 8 ) ;
#184 = PERSON_AND_ORGANIZATION_ROLE ( 'classification_officer' ) ;
#185 = PERSON_AND_ORGANIZATION ( #248, #19 ) ;
#186 = ORIENTED_EDGE ( 'NONE', *, *, #146, .T. ) ;
#187 = AXIS2_PLACEMENT_3D ( 'NONE', #69, #224, #94 ) ;
#188 = ORIENTED_EDGE ( 'NONE', *, *, #107, .F. ) ;
#189 = DIRECTION ( 'NONE',  ( 0.000000000000000000, 1.000000000000000000, 0.000000000000000000 ) ) ;
#190 = DIRECTION ( 'NONE',  ( -0.000000000000000000, -1.000000000000000000, -0.000000000000000000 ) ) ;
#191 = EDGE_CURVE ( 'NONE', #31, #108, #196, .T. ) ;
#192 = DIRECTION ( 'NONE',  ( 0.000000000000000000, 1.000000000000000000, 0.000000000000000000 ) ) ;
#193 = CARTESIAN_POINT ( 'NONE',  ( 0.000000000000000000, 0.000000000000000000, 0.000000000000000000 ) ) ;
#194 = LOCAL_TIME ( 10, 42, 35.00000000000000000, #30 ) ;
#195 = LINE ( 'NONE', #20, #110 ) ;
#196 = LINE ( 'NONE', #23, #199 ) ;
#197 = ADVANCED_BREP_SHAPE_REPRESENTATION ( '3D_R243_48.3x3_17386057', ( #114, #106 ), #202 ) ;
#198 = CARTESIAN_POINT ( 'NONE',  ( 0.000000000000000000, 3.000000000000000000, 0.000000000000000000 ) ) ;
#199 = VECTOR ( 'NONE', #118, 1000.000000000000000 ) ;
#200 = ADVANCED_FACE ( 'NONE', ( #24, #119 ), #216, .F. ) ;
#201 = DIRECTION ( 'NONE',  ( 0.000000000000000000, 0.000000000000000000, -1.000000000000000000 ) ) ;
#202 =( GEOMETRIC_REPRESENTATION_CONTEXT ( 3 ) GLOBAL_UNCERTAINTY_ASSIGNED_CONTEXT ( ( #97 ) ) GLOBAL_UNIT_ASSIGNED_CONTEXT ( ( #96, #77, #177 ) ) REPRESENTATION_CONTEXT ( 'NONE', 'WORKASPACE' ) );
#203 = ORIENTED_EDGE ( 'NONE', *, *, #146, .F. ) ;
#204 = DATE_TIME_ROLE ( 'classification_date' ) ;
#205 = VERTEX_POINT ( 'NONE', #75 ) ;
#206 = PERSON_AND_ORGANIZATION ( #248, #19 ) ;
#207 = EDGE_CURVE ( 'NONE', #210, #108, #233, .T. ) ;
#208 = VERTEX_POINT ( 'NONE', #225 ) ;
#209 = EDGE_LOOP ( 'NONE', ( #86, #47, #127, #112 ) ) ;
#210 = VERTEX_POINT ( 'NONE', #39 ) ;
#211 = FACE_OUTER_BOUND ( 'NONE', #45, .T. ) ;
#212 = DIRECTION ( 'NONE',  ( 0.000000000000000000, 1.000000000000000000, 0.000000000000000000 ) ) ;
#213 = DIRECTION ( 'NONE',  ( 0.000000000000000000, 0.000000000000000000, 1.000000000000000000 ) ) ;
#214 = DIRECTION ( 'NONE',  ( 0.000000000000000000, 0.000000000000000000, 1.000000000000000000 ) ) ;
#215 = ADVANCED_FACE ( 'NONE', ( #41 ), #56, .T. ) ;
#216 = PLANE ( 'NONE',  #87 ) ;
#217 = CIRCLE ( 'NONE', #93, 24.14999999999999858 ) ;
#218 = APPROVAL ( #6, 'UNSPECIFIED' ) ;
#219 = CC_DESIGN_APPROVAL ( #98, ( #246 ) ) ;
#220 = DIRECTION ( 'NONE',  ( 0.000000000000000000, 0.000000000000000000, 1.000000000000000000 ) ) ;
#221 = VERTEX_POINT ( 'NONE', #227 ) ;
#222 = CARTESIAN_POINT ( 'NONE',  ( 0.000000000000000000, 3.000000000000000000, 0.000000000000000000 ) ) ;
#223 = DIRECTION ( 'NONE',  ( 0.000000000000000000, 1.000000000000000000, 0.000000000000000000 ) ) ;
#224 = DIRECTION ( 'NONE',  ( -0.000000000000000000, -1.000000000000000000, -0.000000000000000000 ) ) ;
#225 = CARTESIAN_POINT ( 'NONE',  ( 6.631462417382917108E-15, 3.000000000000000000, 54.14999999999999858 ) ) ;
#226 = DIRECTION ( 'NONE',  ( 0.000000000000000000, 0.000000000000000000, 1.000000000000000000 ) ) ;
#227 = CARTESIAN_POINT ( 'NONE',  ( 0.000000000000000000, 3.000000000000000000, -54.14999999999999858 ) ) ;
#228 = ADVANCED_FACE ( 'NONE', ( #159 ), #139, .F. ) ;
#229 = CLOSED_SHELL ( 'NONE', ( #228, #85, #117, #200, #215, #67 ) ) ;
#230 = DIRECTION ( 'NONE',  ( 0.000000000000000000, -0.000000000000000000, 1.000000000000000000 ) ) ;
#231 = PERSON_AND_ORGANIZATION ( #248, #19 ) ;
#232 = DATE_AND_TIME ( #11, #243 ) ;
#233 = CIRCLE ( 'NONE', #174, 24.14999999999999858 ) ;
#234 = DATE_AND_TIME ( #64, #60 ) ;
#235 = EDGE_CURVE ( 'NONE', #208, #221, #249, .T. ) ;
#236 = EDGE_LOOP ( 'NONE', ( #105, #147 ) ) ;
#237 = DIRECTION ( 'NONE',  ( 0.000000000000000000, 0.000000000000000000, 1.000000000000000000 ) ) ;
#238 = APPLICATION_CONTEXT ( 'configuration controlled 3d designs of mechanical parts and assemblies' ) ;
#239 = APPROVAL ( #165, 'UNSPECIFIED' ) ;
#240 = DIRECTION ( 'NONE',  ( -0.000000000000000000, -1.000000000000000000, -0.000000000000000000 ) ) ;
#241 = CARTESIAN_POINT ( 'NONE',  ( 0.000000000000000000, 3.000000000000000000, -24.14999999999999858 ) ) ;
#242 = LINE ( 'NONE', #49, #157 ) ;
#243 = LOCAL_TIME ( 10, 42, 35.00000000000000000, #80 ) ;
#244 = APPLICATION_CONTEXT ( 'configuration controlled 3d designs of mechanical parts and assemblies' ) ;
#245 = CARTESIAN_POINT ( 'NONE',  ( 0.000000000000000000, 3.000000000000000000, 0.000000000000000000 ) ) ;
#246 = PRODUCT_DEFINITION ( 'UNKNOWN', '', #82, #138 ) ;
#247 = CARTESIAN_POINT ( 'NONE',  ( 0.000000000000000000, 3.000000000000000000, 0.000000000000000000 ) ) ;
#248 = PERSON ( 'UNSPECIFIED', 'UNSPECIFIED', 'UNSPECIFIED', ('UNSPECIFIED'), ('UNSPECIFIED'), ('UNSPECIFIED') ) ;
#249 = CIRCLE ( 'NONE', #79, 54.14999999999999858 ) ;
ENDSEC;
END-ISO-10303-21;
