ISO-10303-21;
HEADER;
FILE_DESCRIPTION (( 'STEP AP203' ),
    '1' );
FILE_NAME ('11-0201-08_outokumpu.step',
    '2015-08-10T12:15:31',
    ( '' ),
    ( '' ),
    'SwSTEP 2.0',
    'SolidWorks 2008',
    '' );
FILE_SCHEMA (( 'CONFIG_CONTROL_DESIGN' ));
ENDSEC;

DATA;
#1 = ORIENTED_EDGE ( 'NONE', *, *, #37, .T. ) ;
#2 = VERTEX_POINT ( 'NONE', #141 ) ;
#3 = ORIENTED_EDGE ( 'NONE', *, *, #41, .T. ) ;
#4 = EDGE_LOOP ( 'NONE', ( #3, #1, #44, #35 ) ) ;
#5 = ADVANCED_FACE ( 'NONE', ( #138 ), #143, .T. ) ;
#6 = EDGE_CURVE ( 'NONE', #7, #43, #144, .T. ) ;
#7 = VERTEX_POINT ( 'NONE', #114 ) ;
#8 = ORIENTED_EDGE ( 'NONE', *, *, #9, .F. ) ;
#9 = EDGE_CURVE ( 'NONE', #47, #7, #112, .T. ) ;
#10 = ORIENTED_EDGE ( 'NONE', *, *, #6, .F. ) ;
#11 = MANIFOLD_SOLID_BREP ( 'NONE', #62 ) ;
#12 = ADVANCED_FACE ( 'NONE', ( #115 ), #127, .F. ) ;
#13 = EDGE_LOOP ( 'NONE', ( #57, #54, #15, #18, #21 ) ) ;
#14 = VERTEX_POINT ( 'NONE', #136 ) ;
#15 = ORIENTED_EDGE ( 'NONE', *, *, #16, .F. ) ;
#16 = EDGE_CURVE ( 'NONE', #17, #14, #133, .T. ) ;
#17 = VERTEX_POINT ( 'NONE', #163 ) ;
#18 = ORIENTED_EDGE ( 'NONE', *, *, #19, .F. ) ;
#19 = EDGE_CURVE ( 'NONE', #20, #17, #160, .T. ) ;
#20 = VERTEX_POINT ( 'NONE', #159 ) ;
#21 = ORIENTED_EDGE ( 'NONE', *, *, #22, .T. ) ;
#22 = EDGE_CURVE ( 'NONE', #20, #58, #181, .T. ) ;
#23 = ADVANCED_FACE ( 'NONE', ( #234 ), #224, .F. ) ;
#24 = EDGE_LOOP ( 'NONE', ( #25, #50, #46, #10, #8 ) ) ;
#25 = ORIENTED_EDGE ( 'NONE', *, *, #55, .F. ) ;
#26 = VERTEX_POINT ( 'NONE', #229 ) ;
#27 = ORIENTED_EDGE ( 'NONE', *, *, #95, .T. ) ;
#28 = ORIENTED_EDGE ( 'NONE', *, *, #55, .T. ) ;
#29 = ADVANCED_FACE ( 'NONE', ( #183 ), #182, .F. ) ;
#30 = EDGE_CURVE ( 'NONE', #2, #26, #189, .T. ) ;
#31 = ORIENTED_EDGE ( 'NONE', *, *, #30, .T. ) ;
#32 = EDGE_LOOP ( 'NONE', ( #31, #28, #27, #94, #75, #128 ) ) ;
#33 = EDGE_CURVE ( 'NONE', #39, #34, #161, .T. ) ;
#34 = VERTEX_POINT ( 'NONE', #230 ) ;
#35 = ORIENTED_EDGE ( 'NONE', *, *, #33, .F. ) ;
#36 = EDGE_CURVE ( 'NONE', #34, #38, #237, .T. ) ;
#37 = EDGE_CURVE ( 'NONE', #40, #38, #158, .T. ) ;
#38 = VERTEX_POINT ( 'NONE', #216 ) ;
#39 = VERTEX_POINT ( 'NONE', #215 ) ;
#40 = VERTEX_POINT ( 'NONE', #214 ) ;
#41 = EDGE_CURVE ( 'NONE', #39, #40, #213, .T. ) ;
#42 = EDGE_CURVE ( 'NONE', #51, #43, #173, .T. ) ;
#43 = VERTEX_POINT ( 'NONE', #169 ) ;
#44 = ORIENTED_EDGE ( 'NONE', *, *, #36, .F. ) ;
#45 =( NAMED_UNIT ( * ) PLANE_ANGLE_UNIT ( ) SI_UNIT ( $, .RADIAN. ) );
#46 = ORIENTED_EDGE ( 'NONE', *, *, #42, .T. ) ;
#47 = VERTEX_POINT ( 'NONE', #168 ) ;
#48 = EDGE_CURVE ( 'NONE', #59, #14, #154, .T. ) ;
#49 = EDGE_CURVE ( 'NONE', #26, #51, #150, .T. ) ;
#50 = ORIENTED_EDGE ( 'NONE', *, *, #49, .T. ) ;
#51 = VERTEX_POINT ( 'NONE', #146 ) ;
#52 = ORIENTED_EDGE ( 'NONE', *, *, #93, .T. ) ;
#53 = EDGE_CURVE ( 'NONE', #58, #59, #222, .T. ) ;
#54 = ORIENTED_EDGE ( 'NONE', *, *, #48, .T. ) ;
#55 = EDGE_CURVE ( 'NONE', #26, #47, #211, .T. ) ;
#56 = ORIENTED_EDGE ( 'NONE', *, *, #88, .F. ) ;
#57 = ORIENTED_EDGE ( 'NONE', *, *, #53, .T. ) ;
#58 = VERTEX_POINT ( 'NONE', #217 ) ;
#59 = VERTEX_POINT ( 'NONE', #207 ) ;
#60 = ORIENTED_EDGE ( 'NONE', *, *, #48, .F. ) ;
#61 = EDGE_LOOP ( 'NONE', ( #60, #67, #68, #63, #66 ) ) ;
#62 = CLOSED_SHELL ( 'NONE', ( #12, #23, #5, #29, #129, #78, #105, #69, #83, #64 ) ) ;
#63 = ORIENTED_EDGE ( 'NONE', *, *, #19, .T. ) ;
#64 = ADVANCED_FACE ( 'NONE', ( #206 ), #204, .F. ) ;
#65 = ORIENTED_EDGE ( 'NONE', *, *, #6, .T. ) ;
#66 = ORIENTED_EDGE ( 'NONE', *, *, #104, .F. ) ;
#67 = ORIENTED_EDGE ( 'NONE', *, *, #91, .T. ) ;
#68 = ORIENTED_EDGE ( 'NONE', *, *, #76, .T. ) ;
#69 = ADVANCED_FACE ( 'NONE', ( #199 ), #195, .T. ) ;
#70 = EDGE_LOOP ( 'NONE', ( #71, #72, #73, #74 ) ) ;
#71 = ORIENTED_EDGE ( 'NONE', *, *, #37, .F. ) ;
#72 = ORIENTED_EDGE ( 'NONE', *, *, #100, .T. ) ;
#73 = ORIENTED_EDGE ( 'NONE', *, *, #33, .T. ) ;
#74 = ORIENTED_EDGE ( 'NONE', *, *, #96, .F. ) ;
#75 = ORIENTED_EDGE ( 'NONE', *, *, #76, .F. ) ;
#76 = EDGE_CURVE ( 'NONE', #77, #20, #191, .T. ) ;
#77 = VERTEX_POINT ( 'NONE', #281 ) ;
#78 = ADVANCED_FACE ( 'NONE', ( #274, #277 ), #257, .F. ) ;
#79 = EDGE_LOOP ( 'NONE', ( #80, #81 ) ) ;
#80 = ORIENTED_EDGE ( 'NONE', *, *, #41, .F. ) ;
#81 = ORIENTED_EDGE ( 'NONE', *, *, #100, .F. ) ;
#82 = ORIENTED_EDGE ( 'NONE', *, *, #9, .T. ) ;
#83 = ADVANCED_FACE ( 'NONE', ( #254 ), #272, .F. ) ;
#84 = EDGE_LOOP ( 'NONE', ( #85, #86, #56, #65, #52 ) ) ;
#85 = ORIENTED_EDGE ( 'NONE', *, *, #49, .F. ) ;
#86 = ORIENTED_EDGE ( 'NONE', *, *, #30, .F. ) ;
#87 = ORIENTED_EDGE ( 'NONE', *, *, #88, .T. ) ;
#88 = EDGE_CURVE ( 'NONE', #7, #2, #255, .T. ) ;
#89 = ORIENTED_EDGE ( 'NONE', *, *, #119, .T. ) ;
#90 = ORIENTED_EDGE ( 'NONE', *, *, #91, .F. ) ;
#91 = EDGE_CURVE ( 'NONE', #59, #77, #269, .T. ) ;
#92 = ORIENTED_EDGE ( 'NONE', *, *, #53, .F. ) ;
#93 = EDGE_CURVE ( 'NONE', #43, #51, #239, .T. ) ;
#94 = ORIENTED_EDGE ( 'NONE', *, *, #22, .F. ) ;
#95 = EDGE_CURVE ( 'NONE', #47, #58, #240, .T. ) ;
#96 = EDGE_CURVE ( 'NONE', #38, #34, #268, .T. ) ;
#97 = ORIENTED_EDGE ( 'NONE', *, *, #93, .F. ) ;
#98 = ORIENTED_EDGE ( 'NONE', *, *, #42, .F. ) ;
#99 = EDGE_LOOP ( 'NONE', ( #97, #98 ) ) ;
#100 = EDGE_CURVE ( 'NONE', #40, #39, #249, .T. ) ;
#101 = EDGE_LOOP ( 'NONE', ( #102, #103 ) ) ;
#102 = ORIENTED_EDGE ( 'NONE', *, *, #16, .T. ) ;
#103 = ORIENTED_EDGE ( 'NONE', *, *, #104, .T. ) ;
#104 = EDGE_CURVE ( 'NONE', #14, #17, #244, .T. ) ;
#105 = ADVANCED_FACE ( 'NONE', ( #293, #289 ), #285, .F. ) ;
#106 = EDGE_LOOP ( 'NONE', ( #107, #108 ) ) ;
#107 = ORIENTED_EDGE ( 'NONE', *, *, #36, .T. ) ;
#108 = ORIENTED_EDGE ( 'NONE', *, *, #96, .T. ) ;
#109 = CARTESIAN_POINT ( 'NONE',  ( 0.0000000000000000000, 0.0000000000000000000, -4.336808689942017700E-016 ) ) ;
#110 = DIRECTION ( 'NONE',  ( -0.0000000000000000000, -0.0000000000000000000, 1.000000000000000000 ) ) ;
#111 = DIRECTION ( 'NONE',  ( 0.7071067811865514600, 0.0000000000000000000, 0.7071067811865435800 ) ) ;
#112 = CIRCLE ( 'NONE', #113, 23.90149999999999500 ) ;
#113 = AXIS2_PLACEMENT_3D ( 'NONE', #118, #117, #116 ) ;
#114 = CARTESIAN_POINT ( 'NONE',  ( 23.90149999999999500, 0.0000000000000000000, -0.8346587720068365800 ) ) ;
#115 = FACE_OUTER_BOUND ( 'NONE', #13, .T. ) ;
#116 = DIRECTION ( 'NONE',  ( 1.000000000000000000, 0.0000000000000000000, 0.0000000000000000000 ) ) ;
#117 = DIRECTION ( 'NONE',  ( -0.0000000000000000000, -0.0000000000000000000, 1.000000000000000000 ) ) ;
#118 = CARTESIAN_POINT ( 'NONE',  ( 0.0000000000000000000, 0.0000000000000000000, -0.8346587720068365800 ) ) ;
#119 = EDGE_CURVE ( 'NONE', #2, #77, #301, .T. ) ;
#120 = VECTOR ( 'NONE', #111, 1000.000000000000000 ) ;
#121 = AXIS2_PLACEMENT_3D ( 'NONE', #109, #110, #142 ) ;
#122 = UNCERTAINTY_MEASURE_WITH_UNIT (LENGTH_MEASURE( 1.000000000000000100E-005 ), #297, 'distance_accuracy_value', 'NONE');
#123 =( NAMED_UNIT ( * ) SI_UNIT ( $, .STERADIAN. ) SOLID_ANGLE_UNIT ( ) );
#124 = EDGE_LOOP ( 'NONE', ( #125, #82, #87, #89, #90, #92 ) ) ;
#125 = ORIENTED_EDGE ( 'NONE', *, *, #95, .F. ) ;
#126 = CARTESIAN_POINT ( 'NONE',  ( 0.0000000000000000000, 0.0000000000000000000, -48.00000000000001400 ) ) ;
#127 = CONICAL_SURFACE ( 'NONE', #140, 24.73615877200687100, 0.7853981633974566100 ) ;
#128 = ORIENTED_EDGE ( 'NONE', *, *, #119, .F. ) ;
#129 = ADVANCED_FACE ( 'NONE', ( #304 ), #303, .F. ) ;
#130 = DIRECTION ( 'NONE',  ( -0.0000000000000000000, -0.0000000000000000000, 1.000000000000000000 ) ) ;
#131 = CARTESIAN_POINT ( 'NONE',  ( 0.0000000000000000000, 0.0000000000000000000, -48.00000000000001400 ) ) ;
#132 = AXIS2_PLACEMENT_3D ( 'NONE', #131, #130, #179 ) ;
#133 = CIRCLE ( 'NONE', #132, 24.73615877200687100 ) ;
#134 = AXIS2_PLACEMENT_3D ( 'NONE', #271, #275, #284 ) ;
#135 = DIRECTION ( 'NONE',  ( -1.000000000000000000, 0.0000000000000000000, 0.0000000000000000000 ) ) ;
#136 = CARTESIAN_POINT ( 'NONE',  ( 24.73615877200687100, 3.029205720135874700E-015, -48.00000000000001400 ) ) ;
#137 = CARTESIAN_POINT ( 'NONE',  ( 23.90149999999999500, 0.0000000000000000000, -0.8346587720068365800 ) ) ;
#138 = FACE_OUTER_BOUND ( 'NONE', #4, .T. ) ;
#139 = DIRECTION ( 'NONE',  ( 0.0000000000000000000, 0.0000000000000000000, -1.000000000000000000 ) ) ;
#140 = AXIS2_PLACEMENT_3D ( 'NONE', #126, #139, #135 ) ;
#141 = CARTESIAN_POINT ( 'NONE',  ( 0.0000000000000000000, 23.90149999999999500, -0.8346587720068365800 ) ) ;
#142 = DIRECTION ( 'NONE',  ( 1.000000000000000000, 0.0000000000000000000, 0.0000000000000000000 ) ) ;
#143 = CYLINDRICAL_SURFACE ( 'NONE', #121, 27.25000000000000400 ) ;
#144 = LINE ( 'NONE', #137, #120 ) ;
#145 = CARTESIAN_POINT ( 'NONE',  ( 0.0000000000000000000, 0.0000000000000000000, -0.8346587720068365800 ) ) ;
#146 = CARTESIAN_POINT ( 'NONE',  ( -24.73615877200684200, 3.029205720135871200E-015, 5.813330856004549000E-018 ) ) ;
#147 = DIRECTION ( 'NONE',  ( -0.7071067811865514600, 8.659274570719403500E-017, 0.7071067811865435800 ) ) ;
#148 = VECTOR ( 'NONE', #147, 1000.000000000000000 ) ;
#149 = CARTESIAN_POINT ( 'NONE',  ( -23.90149999999999500, 2.926992876588554600E-015, -0.8346587720068365800 ) ) ;
#150 = LINE ( 'NONE', #149, #148 ) ;
#151 = DIRECTION ( 'NONE',  ( 0.7071067811865533500, 8.659274570719426900E-017, -0.7071067811865416900 ) ) ;
#152 = VECTOR ( 'NONE', #151, 1000.000000000000000 ) ;
#153 = CARTESIAN_POINT ( 'NONE',  ( 24.73615877200687100, 3.029205720135874700E-015, -48.00000000000001400 ) ) ;
#154 = LINE ( 'NONE', #153, #152 ) ;
#155 = DIRECTION ( 'NONE',  ( -0.0000000000000000000, -0.0000000000000000000, 1.000000000000000000 ) ) ;
#156 = VECTOR ( 'NONE', #155, 1000.000000000000000 ) ;
#157 = CARTESIAN_POINT ( 'NONE',  ( -27.25000000000000400, 3.337052314165978400E-015, -4.336808689942017700E-016 ) ) ;
#158 = LINE ( 'NONE', #157, #156 ) ;
#159 = CARTESIAN_POINT ( 'NONE',  ( -23.90149999999999200, 0.0000000000000000000, -47.16534122799315300 ) ) ;
#160 = LINE ( 'NONE', #174, #188 ) ;
#161 = LINE ( 'NONE', #233, #232 ) ;
#162 = DIRECTION ( 'NONE',  ( -0.0000000000000000000, -0.0000000000000000000, 1.000000000000000000 ) ) ;
#163 = CARTESIAN_POINT ( 'NONE',  ( -24.73615877200687100, 0.0000000000000000000, -48.00000000000001400 ) ) ;
#164 = CARTESIAN_POINT ( 'NONE',  ( 0.0000000000000000000, 0.0000000000000000000, -0.8346587720068365800 ) ) ;
#165 = AXIS2_PLACEMENT_3D ( 'NONE', #164, #178, #177 ) ;
#166 = CARTESIAN_POINT ( 'NONE',  ( 0.0000000000000000000, 3.796405077356786400E-015, -48.00000000000009900 ) ) ;
#167 = AXIS2_PLACEMENT_3D ( 'NONE', #166, #187, #186 ) ;
#168 = CARTESIAN_POINT ( 'NONE',  ( 2.926992876588555000E-015, -23.90149999999999500, -0.8346587720068365800 ) ) ;
#169 = CARTESIAN_POINT ( 'NONE',  ( 24.73615877200684200, 0.0000000000000000000, 5.813330856004549000E-018 ) ) ;
#170 = DIRECTION ( 'NONE',  ( 1.000000000000000000, 0.0000000000000000000, 0.0000000000000000000 ) ) ;
#171 = DIRECTION ( 'NONE',  ( -0.0000000000000000000, -0.0000000000000000000, 1.000000000000000000 ) ) ;
#172 = AXIS2_PLACEMENT_3D ( 'NONE', #225, #171, #170 ) ;
#173 = CIRCLE ( 'NONE', #172, 24.73615877200684200 ) ;
#174 = CARTESIAN_POINT ( 'NONE',  ( -24.73615877200687100, 0.0000000000000000000, -48.00000000000001400 ) ) ;
#175 = DIRECTION ( 'NONE',  ( 1.000000000000000000, 0.0000000000000000000, 0.0000000000000000000 ) ) ;
#176 = DIRECTION ( 'NONE',  ( -0.0000000000000000000, -0.0000000000000000000, 1.000000000000000000 ) ) ;
#177 = DIRECTION ( 'NONE',  ( 1.000000000000000000, 0.0000000000000000000, 0.0000000000000000000 ) ) ;
#178 = DIRECTION ( 'NONE',  ( -0.0000000000000000000, -0.0000000000000000000, 1.000000000000000000 ) ) ;
#179 = DIRECTION ( 'NONE',  ( 1.000000000000000000, 0.0000000000000000000, 0.0000000000000000000 ) ) ;
#180 = AXIS2_PLACEMENT_3D ( 'NONE', #184, #162, #190 ) ;
#181 = CIRCLE ( 'NONE', #180, 23.90149999999999200 ) ;
#182 = CYLINDRICAL_SURFACE ( 'NONE', #167, 23.90150000000000200 ) ;
#183 = FACE_OUTER_BOUND ( 'NONE', #32, .T. ) ;
#184 = CARTESIAN_POINT ( 'NONE',  ( 0.0000000000000000000, 0.0000000000000000000, -47.16534122799315300 ) ) ;
#185 = AXIS2_PLACEMENT_3D ( 'NONE', #145, #201, #200 ) ;
#186 = DIRECTION ( 'NONE',  ( 0.0000000000000000000, 1.000000000000000000, 2.903120684437055300E-016 ) ) ;
#187 = DIRECTION ( 'NONE',  ( -0.0000000000000000000, 1.513719172772997200E-016, -1.000000000000000000 ) ) ;
#188 = VECTOR ( 'NONE', #202, 1000.000000000000000 ) ;
#189 = CIRCLE ( 'NONE', #185, 23.90149999999999500 ) ;
#190 = DIRECTION ( 'NONE',  ( 1.000000000000000000, 0.0000000000000000000, 0.0000000000000000000 ) ) ;
#191 = CIRCLE ( 'NONE', #134, 23.90149999999999200 ) ;
#192 = DIRECTION ( 'NONE',  ( 1.000000000000000000, 0.0000000000000000000, 0.0000000000000000000 ) ) ;
#193 = DIRECTION ( 'NONE',  ( -0.0000000000000000000, -0.0000000000000000000, 1.000000000000000000 ) ) ;
#194 = AXIS2_PLACEMENT_3D ( 'NONE', #198, #193, #192 ) ;
#195 = CYLINDRICAL_SURFACE ( 'NONE', #194, 27.25000000000000400 ) ;
#196 = DIRECTION ( 'NONE',  ( -1.000000000000000000, 0.0000000000000000000, 0.0000000000000000000 ) ) ;
#197 = DIRECTION ( 'NONE',  ( 0.0000000000000000000, 0.0000000000000000000, -1.000000000000000000 ) ) ;
#198 = CARTESIAN_POINT ( 'NONE',  ( 0.0000000000000000000, 0.0000000000000000000, -4.336808689942017700E-016 ) ) ;
#199 = FACE_OUTER_BOUND ( 'NONE', #70, .T. ) ;
#200 = DIRECTION ( 'NONE',  ( 1.000000000000000000, 0.0000000000000000000, 0.0000000000000000000 ) ) ;
#201 = DIRECTION ( 'NONE',  ( -0.0000000000000000000, -0.0000000000000000000, 1.000000000000000000 ) ) ;
#202 = DIRECTION ( 'NONE',  ( -0.7071067811865533500, 0.0000000000000000000, -0.7071067811865416900 ) ) ;
#203 = AXIS2_PLACEMENT_3D ( 'NONE', #205, #197, #196 ) ;
#204 = CONICAL_SURFACE ( 'NONE', #203, 24.73615877200687100, 0.7853981633974566100 ) ;
#205 = CARTESIAN_POINT ( 'NONE',  ( 0.0000000000000000000, 0.0000000000000000000, -48.00000000000001400 ) ) ;
#206 = FACE_OUTER_BOUND ( 'NONE', #61, .T. ) ;
#207 = CARTESIAN_POINT ( 'NONE',  ( 23.90149999999999200, 2.978099298362214500E-015, -47.16534122799315300 ) ) ;
#208 = DIRECTION ( 'NONE',  ( 1.000000000000000000, 0.0000000000000000000, 0.0000000000000000000 ) ) ;
#209 = DIRECTION ( 'NONE',  ( -0.0000000000000000000, -0.0000000000000000000, 1.000000000000000000 ) ) ;
#210 = AXIS2_PLACEMENT_3D ( 'NONE', #223, #209, #208 ) ;
#211 = CIRCLE ( 'NONE', #210, 23.90149999999999500 ) ;
#212 = AXIS2_PLACEMENT_3D ( 'NONE', #228, #227, #226 ) ;
#213 = CIRCLE ( 'NONE', #212, 27.25000000000000400 ) ;
#214 = CARTESIAN_POINT ( 'NONE',  ( -27.25000000000000400, 3.337052314165978400E-015, -48.00000000000001400 ) ) ;
#215 = CARTESIAN_POINT ( 'NONE',  ( 27.25000000000000400, 0.0000000000000000000, -48.00000000000001400 ) ) ;
#216 = CARTESIAN_POINT ( 'NONE',  ( -27.25000000000000000, 3.337052314165978000E-015, 0.0000000000000000000 ) ) ;
#217 = CARTESIAN_POINT ( 'NONE',  ( 2.926992876588555000E-015, -23.90149999999999200, -47.16534122799315300 ) ) ;
#218 = DIRECTION ( 'NONE',  ( 1.000000000000000000, 0.0000000000000000000, 0.0000000000000000000 ) ) ;
#219 = DIRECTION ( 'NONE',  ( -0.0000000000000000000, -0.0000000000000000000, 1.000000000000000000 ) ) ;
#220 = CARTESIAN_POINT ( 'NONE',  ( 0.0000000000000000000, 0.0000000000000000000, -47.16534122799315300 ) ) ;
#221 = AXIS2_PLACEMENT_3D ( 'NONE', #220, #219, #218 ) ;
#222 = CIRCLE ( 'NONE', #221, 23.90149999999999200 ) ;
#223 = CARTESIAN_POINT ( 'NONE',  ( 0.0000000000000000000, 0.0000000000000000000, -0.8346587720068365800 ) ) ;
#224 = CONICAL_SURFACE ( 'NONE', #165, 23.90149999999999500, 0.7853981633974538300 ) ;
#225 = CARTESIAN_POINT ( 'NONE',  ( 0.0000000000000000000, 0.0000000000000000000, 5.813330856004549000E-018 ) ) ;
#226 = DIRECTION ( 'NONE',  ( 1.000000000000000000, 0.0000000000000000000, 0.0000000000000000000 ) ) ;
#227 = DIRECTION ( 'NONE',  ( -0.0000000000000000000, -0.0000000000000000000, 1.000000000000000000 ) ) ;
#228 = CARTESIAN_POINT ( 'NONE',  ( 0.0000000000000000000, 0.0000000000000000000, -48.00000000000001400 ) ) ;
#229 = CARTESIAN_POINT ( 'NONE',  ( -23.90149999999999500, 2.978099298362212900E-015, -0.8346587720068365800 ) ) ;
#230 = CARTESIAN_POINT ( 'NONE',  ( 27.25000000000000000, 0.0000000000000000000, 0.0000000000000000000 ) ) ;
#231 = DIRECTION ( 'NONE',  ( -0.0000000000000000000, -0.0000000000000000000, 1.000000000000000000 ) ) ;
#232 = VECTOR ( 'NONE', #231, 1000.000000000000000 ) ;
#233 = CARTESIAN_POINT ( 'NONE',  ( 27.25000000000000400, 0.0000000000000000000, -4.336808689942017700E-016 ) ) ;
#234 = FACE_OUTER_BOUND ( 'NONE', #24, .T. ) ;
#235 = CARTESIAN_POINT ( 'NONE',  ( 0.0000000000000000000, 0.0000000000000000000, 0.0000000000000000000 ) ) ;
#236 = AXIS2_PLACEMENT_3D ( 'NONE', #235, #176, #175 ) ;
#237 = CIRCLE ( 'NONE', #236, 27.25000000000000000 ) ;
#238 = AXIS2_PLACEMENT_3D ( 'NONE', #253, #280, #279 ) ;
#239 = CIRCLE ( 'NONE', #238, 24.73615877200684200 ) ;
#240 = LINE ( 'NONE', #278, #283 ) ;
#241 = DIRECTION ( 'NONE',  ( 0.0000000000000000000, -0.0000000000000000000, 1.000000000000000000 ) ) ;
#242 = DIRECTION ( 'NONE',  ( -0.0000000000000000000, -0.0000000000000000000, 1.000000000000000000 ) ) ;
#243 = CARTESIAN_POINT ( 'NONE',  ( 0.0000000000000000000, 0.0000000000000000000, -0.8346587720068365800 ) ) ;
#244 = CIRCLE ( 'NONE', #294, 24.73615877200687100 ) ;
#245 = DIRECTION ( 'NONE',  ( 1.000000000000000000, 0.0000000000000000000, 0.0000000000000000000 ) ) ;
#246 = DIRECTION ( 'NONE',  ( -0.0000000000000000000, -0.0000000000000000000, 1.000000000000000000 ) ) ;
#247 = CARTESIAN_POINT ( 'NONE',  ( 0.0000000000000000000, 0.0000000000000000000, -48.00000000000001400 ) ) ;
#248 = AXIS2_PLACEMENT_3D ( 'NONE', #247, #246, #245 ) ;
#249 = CIRCLE ( 'NONE', #248, 27.25000000000000400 ) ;
#250 = DIRECTION ( 'NONE',  ( 1.000000000000000000, 0.0000000000000000000, 0.0000000000000000000 ) ) ;
#251 = DIRECTION ( 'NONE',  ( -0.0000000000000000000, -0.0000000000000000000, 1.000000000000000000 ) ) ;
#252 = AXIS2_PLACEMENT_3D ( 'NONE', #263, #251, #250 ) ;
#253 = CARTESIAN_POINT ( 'NONE',  ( 0.0000000000000000000, 0.0000000000000000000, 5.813330856004549000E-018 ) ) ;
#254 = FACE_OUTER_BOUND ( 'NONE', #84, .T. ) ;
#255 = CIRCLE ( 'NONE', #262, 23.90149999999999500 ) ;
#256 = DIRECTION ( 'NONE',  ( 1.000000000000000000, 0.0000000000000000000, 0.0000000000000000000 ) ) ;
#257 = PLANE ( 'NONE',  #276 ) ;
#258 = DIRECTION ( 'NONE',  ( 1.000000000000000000, 0.0000000000000000000, 0.0000000000000000000 ) ) ;
#259 = AXIS2_PLACEMENT_3D ( 'NONE', #243, #242, #256 ) ;
#260 = DIRECTION ( 'NONE',  ( -0.0000000000000000000, -0.0000000000000000000, 1.000000000000000000 ) ) ;
#261 = CARTESIAN_POINT ( 'NONE',  ( 0.0000000000000000000, 0.0000000000000000000, -0.8346587720068365800 ) ) ;
#262 = AXIS2_PLACEMENT_3D ( 'NONE', #261, #260, #270 ) ;
#263 = CARTESIAN_POINT ( 'NONE',  ( 0.0000000000000000000, 0.0000000000000000000, -47.16534122799315300 ) ) ;
#264 = DIRECTION ( 'NONE',  ( 1.000000000000000000, 0.0000000000000000000, 0.0000000000000000000 ) ) ;
#265 = DIRECTION ( 'NONE',  ( -0.0000000000000000000, -0.0000000000000000000, 1.000000000000000000 ) ) ;
#266 = CARTESIAN_POINT ( 'NONE',  ( 0.0000000000000000000, 0.0000000000000000000, 0.0000000000000000000 ) ) ;
#267 = AXIS2_PLACEMENT_3D ( 'NONE', #266, #265, #264 ) ;
#268 = CIRCLE ( 'NONE', #267, 27.25000000000000000 ) ;
#269 = CIRCLE ( 'NONE', #252, 23.90149999999999200 ) ;
#270 = DIRECTION ( 'NONE',  ( 1.000000000000000000, 0.0000000000000000000, 0.0000000000000000000 ) ) ;
#271 = CARTESIAN_POINT ( 'NONE',  ( 0.0000000000000000000, 0.0000000000000000000, -47.16534122799315300 ) ) ;
#272 = CONICAL_SURFACE ( 'NONE', #259, 23.90149999999999500, 0.7853981633974538300 ) ;
#273 = CARTESIAN_POINT ( 'NONE',  ( 0.0000000000000000000, 27.25000000000000400, -48.00000000000000700 ) ) ;
#274 = FACE_OUTER_BOUND ( 'NONE', #79, .T. ) ;
#275 = DIRECTION ( 'NONE',  ( -0.0000000000000000000, -0.0000000000000000000, 1.000000000000000000 ) ) ;
#276 = AXIS2_PLACEMENT_3D ( 'NONE', #273, #241, #258 ) ;
#277 = FACE_BOUND ( 'NONE', #101, .T. ) ;
#278 = CARTESIAN_POINT ( 'NONE',  ( 2.926992876588555400E-015, -23.90149999999999900, -48.00000000000010700 ) ) ;
#279 = DIRECTION ( 'NONE',  ( 1.000000000000000000, 0.0000000000000000000, 0.0000000000000000000 ) ) ;
#280 = DIRECTION ( 'NONE',  ( -0.0000000000000000000, -0.0000000000000000000, 1.000000000000000000 ) ) ;
#281 = CARTESIAN_POINT ( 'NONE',  ( 0.0000000000000000000, 23.90149999999999200, -47.16534122799315300 ) ) ;
#282 = DIRECTION ( 'NONE',  ( -0.0000000000000000000, 1.513719172772997200E-016, -1.000000000000000000 ) ) ;
#283 = VECTOR ( 'NONE', #282, 1000.000000000000000 ) ;
#284 = DIRECTION ( 'NONE',  ( 1.000000000000000000, 0.0000000000000000000, 0.0000000000000000000 ) ) ;
#285 = PLANE ( 'NONE',  #288 ) ;
#286 = DIRECTION ( 'NONE',  ( -0.0000000000000000000, -0.0000000000000000000, 1.000000000000000000 ) ) ;
#287 = CARTESIAN_POINT ( 'NONE',  ( 0.0000000000000000000, 27.25000000000000000, -2.168404344971008900E-016 ) ) ;
#288 = AXIS2_PLACEMENT_3D ( 'NONE', #287, #296, #292 ) ;
#289 = FACE_BOUND ( 'NONE', #99, .T. ) ;
#290 = CARTESIAN_POINT ( 'NONE',  ( 0.0000000000000000000, 0.0000000000000000000, -48.00000000000001400 ) ) ;
#291 =( GEOMETRIC_REPRESENTATION_CONTEXT ( 3 ) GLOBAL_UNCERTAINTY_ASSIGNED_CONTEXT ( ( #122 ) ) GLOBAL_UNIT_ASSIGNED_CONTEXT ( ( #297, #45, #123 ) ) REPRESENTATION_CONTEXT ( 'NONE', 'WORKASPACE' ) );
#292 = DIRECTION ( 'NONE',  ( -1.000000000000000000, 0.0000000000000000000, -0.0000000000000000000 ) ) ;
#293 = FACE_OUTER_BOUND ( 'NONE', #106, .T. ) ;
#294 = AXIS2_PLACEMENT_3D ( 'NONE', #290, #286, #295 ) ;
#295 = DIRECTION ( 'NONE',  ( 1.000000000000000000, 0.0000000000000000000, 0.0000000000000000000 ) ) ;
#296 = DIRECTION ( 'NONE',  ( 0.0000000000000000000, 0.0000000000000000000, -1.000000000000000000 ) ) ;
#297 =( LENGTH_UNIT ( ) NAMED_UNIT ( * ) SI_UNIT ( .MILLI., .METRE. ) );
#298 = DIRECTION ( 'NONE',  ( 0.0000000000000000000, 1.000000000000000000, 2.903120684437055300E-016 ) ) ;
#299 = DIRECTION ( 'NONE',  ( -0.0000000000000000000, 1.513719172772997200E-016, -1.000000000000000000 ) ) ;
#300 = AXIS2_PLACEMENT_3D ( 'NONE', #302, #299, #298 ) ;
#301 = LINE ( 'NONE', #307, #306 ) ;
#302 = CARTESIAN_POINT ( 'NONE',  ( 0.0000000000000000000, 3.796405077356786400E-015, -48.00000000000009900 ) ) ;
#303 = CYLINDRICAL_SURFACE ( 'NONE', #300, 23.90150000000000200 ) ;
#304 = FACE_OUTER_BOUND ( 'NONE', #124, .T. ) ;
#305 = DIRECTION ( 'NONE',  ( -0.0000000000000000000, 1.513719172772997200E-016, -1.000000000000000000 ) ) ;
#306 = VECTOR ( 'NONE', #305, 1000.000000000000000 ) ;
#307 = CARTESIAN_POINT ( 'NONE',  ( 0.0000000000000000000, 23.90150000000000600, -48.00000000000009200 ) ) ;
#308 = DIRECTION ( 'NONE',  ( 0.0000000000000000000, 0.0000000000000000000, 1.000000000000000000 ) ) ;
#309 = DIRECTION ( 'NONE',  ( 1.000000000000000000, 0.0000000000000000000, 0.0000000000000000000 ) ) ;
#310 = CARTESIAN_POINT ( 'NONE',  ( 0.0000000000000000000, 0.0000000000000000000, 0.0000000000000000000 ) ) ;
#311 = AXIS2_PLACEMENT_3D ( 'NONE', #310, #308, #309 ) ;
#312 = ADVANCED_BREP_SHAPE_REPRESENTATION ( '11-0201-08_outokumpu', ( #11, #311 ), #291 ) ;
#313 = APPLICATION_CONTEXT ( 'configuration controlled 3d designs of mechanical parts and assemblies' ) ;
#314 = PRODUCT_DEFINITION_SHAPE ( 'NONE', 'NONE',  #383 ) ;
#315 = PRODUCT_RELATED_PRODUCT_CATEGORY ( 'detail', '', ( #387 ) ) ;
#316 = CC_DESIGN_SECURITY_CLASSIFICATION ( #352, ( #371 ) ) ;
#317 = CC_DESIGN_APPROVAL ( #340, ( #352 ) ) ;
#318 = APPROVAL_DATE_TIME ( #319, #340 ) ;
#319 = DATE_AND_TIME ( #335, #336 ) ;
#320 = DATE_TIME_ROLE ( 'creation_date' ) ;
#321 = DATE_AND_TIME ( #322, #323 ) ;
#322 = CALENDAR_DATE ( 2015, 10, 8 ) ;
#323 = LOCAL_TIME ( 14, 15, 31.00000000000000000, #324 ) ;
#324 = COORDINATED_UNIVERSAL_TIME_OFFSET ( 1, 0, .AHEAD. ) ;
#325 = CC_DESIGN_PERSON_AND_ORGANIZATION_ASSIGNMENT ( #327, #326, ( #383 ) ) ;
#326 = PERSON_AND_ORGANIZATION_ROLE ( 'creator' ) ;
#327 = PERSON_AND_ORGANIZATION ( #373, #333 ) ;
#328 = CC_DESIGN_APPROVAL ( #380, ( #383 ) ) ;
#329 = APPROVAL_DATE_TIME ( #374, #380 ) ;
#330 = CC_DESIGN_PERSON_AND_ORGANIZATION_ASSIGNMENT ( #332, #331, ( #387 ) ) ;
#331 = PERSON_AND_ORGANIZATION_ROLE ( 'design_owner' ) ;
#332 = PERSON_AND_ORGANIZATION ( #373, #333 ) ;
#333 = ORGANIZATION ( 'UNSPECIFIED', 'UNSPECIFIED', '' ) ;
#334 = SHAPE_DEFINITION_REPRESENTATION ( #314, #312 ) ;
#335 = CALENDAR_DATE ( 2015, 10, 8 ) ;
#336 = LOCAL_TIME ( 14, 15, 31.00000000000000000, #337 ) ;
#337 = COORDINATED_UNIVERSAL_TIME_OFFSET ( 1, 0, .AHEAD. ) ;
#338 = APPROVAL_PERSON_ORGANIZATION ( #342, #340, #339 ) ;
#339 = APPROVAL_ROLE ( '' ) ;
#340 = APPROVAL ( #341, 'UNSPECIFIED' ) ;
#341 = APPROVAL_STATUS ( 'not_yet_approved' ) ;
#342 = PERSON_AND_ORGANIZATION ( #373, #333 ) ;
#343 = CC_DESIGN_DATE_AND_TIME_ASSIGNMENT ( #345, #344, ( #352 ) ) ;
#344 = DATE_TIME_ROLE ( 'classification_date' ) ;
#345 = DATE_AND_TIME ( #346, #347 ) ;
#346 = CALENDAR_DATE ( 2015, 10, 8 ) ;
#347 = LOCAL_TIME ( 14, 15, 31.00000000000000000, #348 ) ;
#348 = COORDINATED_UNIVERSAL_TIME_OFFSET ( 1, 0, .AHEAD. ) ;
#349 = CC_DESIGN_PERSON_AND_ORGANIZATION_ASSIGNMENT ( #351, #350, ( #352 ) ) ;
#350 = PERSON_AND_ORGANIZATION_ROLE ( 'classification_officer' ) ;
#351 = PERSON_AND_ORGANIZATION ( #373, #333 ) ;
#352 = SECURITY_CLASSIFICATION ( '', '', #353 ) ;
#353 = SECURITY_CLASSIFICATION_LEVEL ( 'unclassified' ) ;
#354 = CC_DESIGN_PERSON_AND_ORGANIZATION_ASSIGNMENT ( #356, #355, ( #371 ) ) ;
#355 = PERSON_AND_ORGANIZATION_ROLE ( 'design_supplier' ) ;
#356 = PERSON_AND_ORGANIZATION ( #373, #333 ) ;
#357 = CC_DESIGN_PERSON_AND_ORGANIZATION_ASSIGNMENT ( #359, #358, ( #371 ) ) ;
#358 = PERSON_AND_ORGANIZATION_ROLE ( 'creator' ) ;
#359 = PERSON_AND_ORGANIZATION ( #373, #333 ) ;
#360 = CC_DESIGN_APPROVAL ( #368, ( #371 ) ) ;
#361 = APPROVAL_DATE_TIME ( #362, #368 ) ;
#362 = DATE_AND_TIME ( #363, #364 ) ;
#363 = CALENDAR_DATE ( 2015, 10, 8 ) ;
#364 = LOCAL_TIME ( 14, 15, 31.00000000000000000, #365 ) ;
#365 = COORDINATED_UNIVERSAL_TIME_OFFSET ( 1, 0, .AHEAD. ) ;
#366 = APPROVAL_PERSON_ORGANIZATION ( #370, #368, #367 ) ;
#367 = APPROVAL_ROLE ( '' ) ;
#368 = APPROVAL ( #369, 'UNSPECIFIED' ) ;
#369 = APPROVAL_STATUS ( 'not_yet_approved' ) ;
#370 = PERSON_AND_ORGANIZATION ( #373, #333 ) ;
#371 = PRODUCT_DEFINITION_FORMATION_WITH_SPECIFIED_SOURCE ( 'ANY', '', #387, .NOT_KNOWN. ) ;
#372 = CC_DESIGN_DATE_AND_TIME_ASSIGNMENT ( #321, #320, ( #383 ) ) ;
#373 = PERSON ( 'UNSPECIFIED', 'UNSPECIFIED', 'UNSPECIFIED', ('UNSPECIFIED'), ('UNSPECIFIED'), ('UNSPECIFIED') ) ;
#374 = DATE_AND_TIME ( #375, #376 ) ;
#375 = CALENDAR_DATE ( 2015, 10, 8 ) ;
#376 = LOCAL_TIME ( 14, 15, 31.00000000000000000, #377 ) ;
#377 = COORDINATED_UNIVERSAL_TIME_OFFSET ( 1, 0, .AHEAD. ) ;
#378 = APPROVAL_PERSON_ORGANIZATION ( #382, #380, #379 ) ;
#379 = APPROVAL_ROLE ( '' ) ;
#380 = APPROVAL ( #381, 'UNSPECIFIED' ) ;
#381 = APPROVAL_STATUS ( 'not_yet_approved' ) ;
#382 = PERSON_AND_ORGANIZATION ( #373, #333 ) ;
#383 = PRODUCT_DEFINITION ( 'UNKNOWN', '', #371, #384 ) ;
#384 = DESIGN_CONTEXT ( 'detailed design', #386, 'design' ) ;
#385 = APPLICATION_PROTOCOL_DEFINITION ( 'international standard', 'config_control_design', 1994, #386 ) ;
#386 = APPLICATION_CONTEXT ( 'configuration controlled 3d designs of mechanical parts and assemblies' ) ;
#387 = PRODUCT ( '11-0201-08_outokumpu', '11-0201-08_outokumpu', '', ( #388 ) ) ;
#388 = MECHANICAL_CONTEXT ( 'NONE', #313, 'mechanical' ) ;
#389 = APPLICATION_PROTOCOL_DEFINITION ( 'international standard', 'config_control_design', 1994, #313 ) ;
ENDSEC;
END-ISO-10303-21;
