ISO-10303-21;
HEADER;
FILE_DESCRIPTION (( 'STEP AP203' ),
    '1' );
FILE_NAME ('11-0201-01_outokumpu.step',
    '2015-08-10T12:12:21',
    ( '' ),
    ( '' ),
    'SwSTEP 2.0',
    'SolidWorks 2008',
    '' );
FILE_SCHEMA (( 'CONFIG_CONTROL_DESIGN' ));
ENDSEC;

DATA;
#1 = DIRECTION ( 'NONE',  ( 1.000000000000000000, 0.0000000000000000000, 0.0000000000000000000 ) ) ;
#2 = CARTESIAN_POINT ( 'NONE',  ( 0.0000000000000000000, 0.0000000000000000000, -4.336808689942017700E-016 ) ) ;
#3 = DIRECTION ( 'NONE',  ( -0.0000000000000000000, -0.0000000000000000000, 1.000000000000000000 ) ) ;
#4 = DIRECTION ( 'NONE',  ( 1.000000000000000000, 0.0000000000000000000, 0.0000000000000000000 ) ) ;
#5 = ADVANCED_FACE ( 'NONE', ( #125 ), #122, .F. ) ;
#6 = EDGE_LOOP ( 'NONE', ( #88, #85, #84, #118, #131, #135 ) ) ;
#7 = VERTEX_POINT ( 'NONE', #123 ) ;
#8 = ORIENTED_EDGE ( 'NONE', *, *, #9, .T. ) ;
#9 = EDGE_CURVE ( 'NONE', #7, #53, #45, .T. ) ;
#10 = EDGE_CURVE ( 'NONE', #60, #82, #40, .T. ) ;
#11 = ADVANCED_FACE ( 'NONE', ( #41 ), #34, .T. ) ;
#12 = EDGE_LOOP ( 'NONE', ( #13, #8, #54, #57 ) ) ;
#13 = ORIENTED_EDGE ( 'NONE', *, *, #14, .T. ) ;
#14 = EDGE_CURVE ( 'NONE', #15, #7, #30, .T. ) ;
#15 = VERTEX_POINT ( 'NONE', #25 ) ;
#16 = MANIFOLD_SOLID_BREP ( 'NONE', #90 ) ;
#17 = EDGE_LOOP ( 'NONE', ( #63, #67, #70, #73, #50 ) ) ;
#18 = EDGE_LOOP ( 'NONE', ( #19, #61, #77, #80, #83 ) ) ;
#19 = ORIENTED_EDGE ( 'NONE', *, *, #20, .F. ) ;
#20 = EDGE_CURVE ( 'NONE', #59, #60, #24, .T. ) ;
#21 = DIRECTION ( 'NONE',  ( -0.0000000000000000000, -0.0000000000000000000, 1.000000000000000000 ) ) ;
#22 = CARTESIAN_POINT ( 'NONE',  ( 0.0000000000000000000, 0.0000000000000000000, -0.1698546228078258200 ) ) ;
#23 = AXIS2_PLACEMENT_3D ( 'NONE', #22, #21, #1 ) ;
#24 = CIRCLE ( 'NONE', #23, 4.863999999999993700 ) ;
#25 = CARTESIAN_POINT ( 'NONE',  ( 6.999999999999999100, 0.0000000000000000000, -17.00000000000000700 ) ) ;
#26 = DIRECTION ( 'NONE',  ( 1.000000000000000000, 0.0000000000000000000, 0.0000000000000000000 ) ) ;
#27 = DIRECTION ( 'NONE',  ( -0.0000000000000000000, -0.0000000000000000000, 1.000000000000000000 ) ) ;
#28 = CARTESIAN_POINT ( 'NONE',  ( 0.0000000000000000000, 0.0000000000000000000, -17.00000000000000700 ) ) ;
#29 = AXIS2_PLACEMENT_3D ( 'NONE', #28, #27, #26 ) ;
#30 = CIRCLE ( 'NONE', #29, 6.999999999999999100 ) ;
#31 = DIRECTION ( 'NONE',  ( 1.000000000000000000, 0.0000000000000000000, 0.0000000000000000000 ) ) ;
#32 = DIRECTION ( 'NONE',  ( -0.0000000000000000000, -0.0000000000000000000, 1.000000000000000000 ) ) ;
#33 = AXIS2_PLACEMENT_3D ( 'NONE', #35, #32, #31 ) ;
#34 = CYLINDRICAL_SURFACE ( 'NONE', #33, 6.999999999999999100 ) ;
#35 = CARTESIAN_POINT ( 'NONE',  ( 0.0000000000000000000, 0.0000000000000000000, -4.336808689942017700E-016 ) ) ;
#36 = DIRECTION ( 'NONE',  ( 1.000000000000000000, 0.0000000000000000000, 0.0000000000000000000 ) ) ;
#37 = DIRECTION ( 'NONE',  ( -0.0000000000000000000, -0.0000000000000000000, 1.000000000000000000 ) ) ;
#38 = CARTESIAN_POINT ( 'NONE',  ( 0.0000000000000000000, 0.0000000000000000000, -0.1698546228078258200 ) ) ;
#39 = AXIS2_PLACEMENT_3D ( 'NONE', #38, #37, #36 ) ;
#40 = CIRCLE ( 'NONE', #39, 4.863999999999993700 ) ;
#41 = FACE_OUTER_BOUND ( 'NONE', #12, .T. ) ;
#42 = DIRECTION ( 'NONE',  ( -0.0000000000000000000, -0.0000000000000000000, 1.000000000000000000 ) ) ;
#43 = VECTOR ( 'NONE', #42, 1000.000000000000000 ) ;
#44 = CARTESIAN_POINT ( 'NONE',  ( -6.999999999999999100, 8.572244476756639800E-016, -4.336808689942017700E-016 ) ) ;
#45 = LINE ( 'NONE', #44, #43 ) ;
#46 = ORIENTED_EDGE ( 'NONE', *, *, #47, .F. ) ;
#47 = EDGE_CURVE ( 'NONE', #66, #137, #168, .T. ) ;
#48 = EDGE_CURVE ( 'NONE', #82, #87, #190, .T. ) ;
#49 = EDGE_CURVE ( 'NONE', #74, #72, #191, .T. ) ;
#50 = ORIENTED_EDGE ( 'NONE', *, *, #51, .T. ) ;
#51 = EDGE_CURVE ( 'NONE', #74, #65, #224, .T. ) ;
#52 = ADVANCED_FACE ( 'NONE', ( #225 ), #153, .F. ) ;
#53 = VERTEX_POINT ( 'NONE', #149 ) ;
#54 = ORIENTED_EDGE ( 'NONE', *, *, #55, .F. ) ;
#55 = EDGE_CURVE ( 'NONE', #56, #53, #187, .T. ) ;
#56 = VERTEX_POINT ( 'NONE', #188 ) ;
#57 = ORIENTED_EDGE ( 'NONE', *, *, #58, .F. ) ;
#58 = EDGE_CURVE ( 'NONE', #15, #56, #182, .T. ) ;
#59 = VERTEX_POINT ( 'NONE', #244 ) ;
#60 = VERTEX_POINT ( 'NONE', #243 ) ;
#61 = ORIENTED_EDGE ( 'NONE', *, *, #75, .T. ) ;
#62 = ADVANCED_FACE ( 'NONE', ( #242 ), #240, .F. ) ;
#63 = ORIENTED_EDGE ( 'NONE', *, *, #64, .T. ) ;
#64 = EDGE_CURVE ( 'NONE', #65, #66, #236, .T. ) ;
#65 = VERTEX_POINT ( 'NONE', #231 ) ;
#66 = VERTEX_POINT ( 'NONE', #230 ) ;
#67 = ORIENTED_EDGE ( 'NONE', *, *, #68, .T. ) ;
#68 = EDGE_CURVE ( 'NONE', #66, #69, #229, .T. ) ;
#69 = VERTEX_POINT ( 'NONE', #181 ) ;
#70 = ORIENTED_EDGE ( 'NONE', *, *, #71, .F. ) ;
#71 = EDGE_CURVE ( 'NONE', #72, #69, #180, .T. ) ;
#72 = VERTEX_POINT ( 'NONE', #175 ) ;
#73 = ORIENTED_EDGE ( 'NONE', *, *, #49, .F. ) ;
#74 = VERTEX_POINT ( 'NONE', #174 ) ;
#75 = EDGE_CURVE ( 'NONE', #59, #76, #173, .T. ) ;
#76 = VERTEX_POINT ( 'NONE', #169 ) ;
#77 = ORIENTED_EDGE ( 'NONE', *, *, #78, .T. ) ;
#78 = EDGE_CURVE ( 'NONE', #76, #79, #203, .T. ) ;
#79 = VERTEX_POINT ( 'NONE', #198 ) ;
#80 = ORIENTED_EDGE ( 'NONE', *, *, #81, .F. ) ;
#81 = EDGE_CURVE ( 'NONE', #82, #79, #197, .T. ) ;
#82 = VERTEX_POINT ( 'NONE', #193 ) ;
#83 = ORIENTED_EDGE ( 'NONE', *, *, #10, .F. ) ;
#84 = ORIENTED_EDGE ( 'NONE', *, *, #117, .T. ) ;
#85 = ORIENTED_EDGE ( 'NONE', *, *, #20, .T. ) ;
#86 = EDGE_CURVE ( 'NONE', #87, #59, #214, .T. ) ;
#87 = VERTEX_POINT ( 'NONE', #210 ) ;
#88 = ORIENTED_EDGE ( 'NONE', *, *, #86, .T. ) ;
#89 = ORIENTED_EDGE ( 'NONE', *, *, #105, .F. ) ;
#90 = CLOSED_SHELL ( 'NONE', ( #62, #52, #11, #5, #132, #146, #138, #108, #107, #110 ) ) ;
#91 = ORIENTED_EDGE ( 'NONE', *, *, #48, .F. ) ;
#92 = ORIENTED_EDGE ( 'NONE', *, *, #58, .T. ) ;
#93 = EDGE_LOOP ( 'NONE', ( #95, #96, #91, #128, #106 ) ) ;
#94 = ORIENTED_EDGE ( 'NONE', *, *, #126, .F. ) ;
#95 = ORIENTED_EDGE ( 'NONE', *, *, #75, .F. ) ;
#96 = ORIENTED_EDGE ( 'NONE', *, *, #86, .F. ) ;
#97 = ORIENTED_EDGE ( 'NONE', *, *, #68, .F. ) ;
#98 = ORIENTED_EDGE ( 'NONE', *, *, #47, .T. ) ;
#99 = EDGE_LOOP ( 'NONE', ( #94, #127 ) ) ;
#100 = ORIENTED_EDGE ( 'NONE', *, *, #114, .F. ) ;
#101 = ORIENTED_EDGE ( 'NONE', *, *, #9, .F. ) ;
#102 = ORIENTED_EDGE ( 'NONE', *, *, #55, .T. ) ;
#103 = EDGE_LOOP ( 'NONE', ( #141, #142 ) ) ;
#104 = ORIENTED_EDGE ( 'NONE', *, *, #134, .T. ) ;
#105 = EDGE_CURVE ( 'NONE', #69, #72, #208, .T. ) ;
#106 = ORIENTED_EDGE ( 'NONE', *, *, #126, .T. ) ;
#107 = ADVANCED_FACE ( 'NONE', ( #209 ), #166, .F. ) ;
#108 = ADVANCED_FACE ( 'NONE', ( #165 ), #159, .T. ) ;
#109 = ORIENTED_EDGE ( 'NONE', *, *, #145, .T. ) ;
#110 = ADVANCED_FACE ( 'NONE', ( #271 ), #280, .F. ) ;
#111 = EDGE_LOOP ( 'NONE', ( #97, #98, #113, #115, #89 ) ) ;
#112 = EDGE_LOOP ( 'NONE', ( #101, #109, #92, #100 ) ) ;
#113 = ORIENTED_EDGE ( 'NONE', *, *, #136, .T. ) ;
#114 = EDGE_CURVE ( 'NONE', #53, #56, #345, .T. ) ;
#115 = ORIENTED_EDGE ( 'NONE', *, *, #49, .T. ) ;
#116 = ORIENTED_EDGE ( 'NONE', *, *, #117, .F. ) ;
#117 = EDGE_CURVE ( 'NONE', #60, #65, #284, .T. ) ;
#118 = ORIENTED_EDGE ( 'NONE', *, *, #51, .F. ) ;
#119 = DIRECTION ( 'NONE',  ( 0.0000000000000000000, 1.000000000000000000, 0.0000000000000000000 ) ) ;
#120 = DIRECTION ( 'NONE',  ( -0.0000000000000000000, 2.040851148208006500E-016, -1.000000000000000000 ) ) ;
#121 = AXIS2_PLACEMENT_3D ( 'NONE', #124, #120, #119 ) ;
#122 = CYLINDRICAL_SURFACE ( 'NONE', #121, 4.863999999999997200 ) ;
#123 = CARTESIAN_POINT ( 'NONE',  ( -6.999999999999999100, 8.572244476756639800E-016, -17.00000000000000700 ) ) ;
#124 = CARTESIAN_POINT ( 'NONE',  ( 0.0000000000000000000, 0.0000000000000000000, -17.00000000000001800 ) ) ;
#125 = FACE_OUTER_BOUND ( 'NONE', #6, .T. ) ;
#126 = EDGE_CURVE ( 'NONE', #79, #76, #285, .T. ) ;
#127 = ORIENTED_EDGE ( 'NONE', *, *, #78, .F. ) ;
#128 = ORIENTED_EDGE ( 'NONE', *, *, #81, .T. ) ;
#129 = ORIENTED_EDGE ( 'NONE', *, *, #48, .T. ) ;
#130 = ORIENTED_EDGE ( 'NONE', *, *, #10, .T. ) ;
#131 = ORIENTED_EDGE ( 'NONE', *, *, #136, .F. ) ;
#132 = ADVANCED_FACE ( 'NONE', ( #322 ), #309, .F. ) ;
#133 = EDGE_LOOP ( 'NONE', ( #116, #130, #129, #104, #46, #147 ) ) ;
#134 = EDGE_CURVE ( 'NONE', #87, #137, #279, .T. ) ;
#135 = ORIENTED_EDGE ( 'NONE', *, *, #134, .F. ) ;
#136 = EDGE_CURVE ( 'NONE', #137, #74, #275, .T. ) ;
#137 = VERTEX_POINT ( 'NONE', #332 ) ;
#138 = ADVANCED_FACE ( 'NONE', ( #331, #330 ), #329, .F. ) ;
#139 = EDGE_LOOP ( 'NONE', ( #102, #140 ) ) ;
#140 = ORIENTED_EDGE ( 'NONE', *, *, #114, .T. ) ;
#141 = ORIENTED_EDGE ( 'NONE', *, *, #71, .T. ) ;
#142 = ORIENTED_EDGE ( 'NONE', *, *, #105, .T. ) ;
#143 = EDGE_LOOP ( 'NONE', ( #148, #144 ) ) ;
#144 = ORIENTED_EDGE ( 'NONE', *, *, #145, .F. ) ;
#145 = EDGE_CURVE ( 'NONE', #7, #15, #317, .T. ) ;
#146 = ADVANCED_FACE ( 'NONE', ( #313, #312 ), #311, .F. ) ;
#147 = ORIENTED_EDGE ( 'NONE', *, *, #64, .F. ) ;
#148 = ORIENTED_EDGE ( 'NONE', *, *, #14, .F. ) ;
#149 = CARTESIAN_POINT ( 'NONE',  ( -6.999999999999999100, 8.572244476756639800E-016, 0.0000000000000000000 ) ) ;
#150 = DIRECTION ( 'NONE',  ( 1.000000000000000000, 0.0000000000000000000, 0.0000000000000000000 ) ) ;
#151 = DIRECTION ( 'NONE',  ( -0.0000000000000000000, -0.0000000000000000000, 1.000000000000000000 ) ) ;
#152 = AXIS2_PLACEMENT_3D ( 'NONE', #219, #151, #150 ) ;
#153 = CONICAL_SURFACE ( 'NONE', #152, 4.863999999999993700, 0.7853981633974509400 ) ;
#154 = DIRECTION ( 'NONE',  ( 1.000000000000000000, 0.0000000000000000000, 0.0000000000000000000 ) ) ;
#155 = DIRECTION ( 'NONE',  ( -0.0000000000000000000, -0.0000000000000000000, 1.000000000000000000 ) ) ;
#156 = AXIS2_PLACEMENT_3D ( 'NONE', #167, #155, #154 ) ;
#157 = CARTESIAN_POINT ( 'NONE',  ( 0.0000000000000000000, 0.0000000000000000000, -16.83014537719218100 ) ) ;
#158 = AXIS2_PLACEMENT_3D ( 'NONE', #157, #189, #215 ) ;
#159 = CYLINDRICAL_SURFACE ( 'NONE', #160, 6.999999999999999100 ) ;
#160 = AXIS2_PLACEMENT_3D ( 'NONE', #2, #3, #4 ) ;
#161 = DIRECTION ( 'NONE',  ( 1.000000000000000000, 0.0000000000000000000, 0.0000000000000000000 ) ) ;
#162 = DIRECTION ( 'NONE',  ( -0.0000000000000000000, -0.0000000000000000000, 1.000000000000000000 ) ) ;
#163 = CARTESIAN_POINT ( 'NONE',  ( 0.0000000000000000000, 0.0000000000000000000, -0.1698546228078258200 ) ) ;
#164 = AXIS2_PLACEMENT_3D ( 'NONE', #163, #162, #161 ) ;
#165 = FACE_OUTER_BOUND ( 'NONE', #112, .T. ) ;
#166 = CONICAL_SURFACE ( 'NONE', #164, 4.863999999999993700, 0.7853981633974509400 ) ;
#167 = CARTESIAN_POINT ( 'NONE',  ( 0.0000000000000000000, 0.0000000000000000000, -0.1698546228078258200 ) ) ;
#168 = CIRCLE ( 'NONE', #158, 4.863999999999993700 ) ;
#169 = CARTESIAN_POINT ( 'NONE',  ( -5.033854622807820300, 6.164490355308602600E-016, 0.0000000000000000000 ) ) ;
#170 = DIRECTION ( 'NONE',  ( -0.7071067811865493500, 8.659274570719377600E-017, 0.7071067811865456900 ) ) ;
#171 = VECTOR ( 'NONE', #170, 1000.000000000000000 ) ;
#172 = CARTESIAN_POINT ( 'NONE',  ( -4.863999999999993700, 5.956485304992034000E-016, -0.1698546228078258200 ) ) ;
#173 = LINE ( 'NONE', #172, #171 ) ;
#174 = CARTESIAN_POINT ( 'NONE',  ( -4.863999999999993700, 0.0000000000000000000, -16.83014537719218100 ) ) ;
#175 = CARTESIAN_POINT ( 'NONE',  ( -5.033854622807822000, 0.0000000000000000000, -17.00000000000000700 ) ) ;
#176 = DIRECTION ( 'NONE',  ( 1.000000000000000000, 0.0000000000000000000, 0.0000000000000000000 ) ) ;
#177 = DIRECTION ( 'NONE',  ( -0.0000000000000000000, -0.0000000000000000000, 1.000000000000000000 ) ) ;
#178 = CARTESIAN_POINT ( 'NONE',  ( 0.0000000000000000000, 0.0000000000000000000, -17.00000000000000700 ) ) ;
#179 = AXIS2_PLACEMENT_3D ( 'NONE', #178, #177, #176 ) ;
#180 = CIRCLE ( 'NONE', #179, 5.033854622807822000 ) ;
#181 = CARTESIAN_POINT ( 'NONE',  ( 5.033854622807822000, 6.164490355308604600E-016, -17.00000000000000700 ) ) ;
#182 = LINE ( 'NONE', #247, #246 ) ;
#183 = DIRECTION ( 'NONE',  ( 1.000000000000000000, 0.0000000000000000000, 0.0000000000000000000 ) ) ;
#184 = DIRECTION ( 'NONE',  ( -0.0000000000000000000, -0.0000000000000000000, 1.000000000000000000 ) ) ;
#185 = CARTESIAN_POINT ( 'NONE',  ( 0.0000000000000000000, 0.0000000000000000000, 0.0000000000000000000 ) ) ;
#186 = AXIS2_PLACEMENT_3D ( 'NONE', #185, #184, #183 ) ;
#187 = CIRCLE ( 'NONE', #186, 6.999999999999999100 ) ;
#188 = CARTESIAN_POINT ( 'NONE',  ( 6.999999999999999100, 0.0000000000000000000, 0.0000000000000000000 ) ) ;
#189 = DIRECTION ( 'NONE',  ( -0.0000000000000000000, -0.0000000000000000000, 1.000000000000000000 ) ) ;
#190 = CIRCLE ( 'NONE', #156, 4.863999999999993700 ) ;
#191 = LINE ( 'NONE', #218, #217 ) ;
#192 = CARTESIAN_POINT ( 'NONE',  ( 0.0000000000000000000, 0.0000000000000000000, -0.1698546228078258200 ) ) ;
#193 = CARTESIAN_POINT ( 'NONE',  ( 4.863999999999993700, 0.0000000000000000000, -0.1698546228078258200 ) ) ;
#194 = DIRECTION ( 'NONE',  ( 0.7071067811865493500, 0.0000000000000000000, 0.7071067811865456900 ) ) ;
#195 = VECTOR ( 'NONE', #194, 1000.000000000000000 ) ;
#196 = CARTESIAN_POINT ( 'NONE',  ( 4.863999999999993700, 0.0000000000000000000, -0.1698546228078258200 ) ) ;
#197 = LINE ( 'NONE', #196, #195 ) ;
#198 = CARTESIAN_POINT ( 'NONE',  ( 5.033854622807820300, 0.0000000000000000000, 0.0000000000000000000 ) ) ;
#199 = DIRECTION ( 'NONE',  ( 1.000000000000000000, 0.0000000000000000000, 0.0000000000000000000 ) ) ;
#200 = DIRECTION ( 'NONE',  ( -0.0000000000000000000, -0.0000000000000000000, 1.000000000000000000 ) ) ;
#201 = CARTESIAN_POINT ( 'NONE',  ( 0.0000000000000000000, 0.0000000000000000000, 0.0000000000000000000 ) ) ;
#202 = AXIS2_PLACEMENT_3D ( 'NONE', #201, #200, #199 ) ;
#203 = CIRCLE ( 'NONE', #202, 5.033854622807820300 ) ;
#204 = DIRECTION ( 'NONE',  ( 1.000000000000000000, 0.0000000000000000000, 0.0000000000000000000 ) ) ;
#205 = DIRECTION ( 'NONE',  ( -0.0000000000000000000, -0.0000000000000000000, 1.000000000000000000 ) ) ;
#206 = CARTESIAN_POINT ( 'NONE',  ( 0.0000000000000000000, 0.0000000000000000000, -17.00000000000000700 ) ) ;
#207 = AXIS2_PLACEMENT_3D ( 'NONE', #206, #205, #204 ) ;
#208 = CIRCLE ( 'NONE', #207, 5.033854622807822000 ) ;
#209 = FACE_OUTER_BOUND ( 'NONE', #93, .T. ) ;
#210 = CARTESIAN_POINT ( 'NONE',  ( 0.0000000000000000000, 4.863999999999993700, -0.1698546228078258200 ) ) ;
#211 = DIRECTION ( 'NONE',  ( 1.000000000000000000, 0.0000000000000000000, 0.0000000000000000000 ) ) ;
#212 = DIRECTION ( 'NONE',  ( -0.0000000000000000000, -0.0000000000000000000, 1.000000000000000000 ) ) ;
#213 = AXIS2_PLACEMENT_3D ( 'NONE', #192, #212, #211 ) ;
#214 = CIRCLE ( 'NONE', #213, 4.863999999999993700 ) ;
#215 = DIRECTION ( 'NONE',  ( 1.000000000000000000, 0.0000000000000000000, 0.0000000000000000000 ) ) ;
#216 = DIRECTION ( 'NONE',  ( -0.7071067811865511300, 0.0000000000000000000, -0.7071067811865440200 ) ) ;
#217 = VECTOR ( 'NONE', #216, 999.9999999999998900 ) ;
#218 = CARTESIAN_POINT ( 'NONE',  ( -5.033854622807822000, 0.0000000000000000000, -17.00000000000000700 ) ) ;
#219 = CARTESIAN_POINT ( 'NONE',  ( 0.0000000000000000000, 0.0000000000000000000, -0.1698546228078258200 ) ) ;
#220 = DIRECTION ( 'NONE',  ( 1.000000000000000000, 0.0000000000000000000, 0.0000000000000000000 ) ) ;
#221 = DIRECTION ( 'NONE',  ( -0.0000000000000000000, -0.0000000000000000000, 1.000000000000000000 ) ) ;
#222 = CARTESIAN_POINT ( 'NONE',  ( 0.0000000000000000000, 0.0000000000000000000, -16.83014537719218100 ) ) ;
#223 = AXIS2_PLACEMENT_3D ( 'NONE', #222, #221, #220 ) ;
#224 = CIRCLE ( 'NONE', #223, 4.863999999999993700 ) ;
#225 = FACE_OUTER_BOUND ( 'NONE', #18, .T. ) ;
#226 = DIRECTION ( 'NONE',  ( 0.7071067811865511300, 8.659274570719401000E-017, -0.7071067811865440200 ) ) ;
#227 = VECTOR ( 'NONE', #226, 999.9999999999998900 ) ;
#228 = CARTESIAN_POINT ( 'NONE',  ( 5.033854622807822000, 6.164490355308604600E-016, -17.00000000000000700 ) ) ;
#229 = LINE ( 'NONE', #228, #227 ) ;
#230 = CARTESIAN_POINT ( 'NONE',  ( 4.863999999999993700, 6.060487830150319800E-016, -16.83014537719218100 ) ) ;
#231 = CARTESIAN_POINT ( 'NONE',  ( 5.956485304992037000E-016, -4.863999999999993700, -16.83014537719218100 ) ) ;
#232 = DIRECTION ( 'NONE',  ( 1.000000000000000000, 0.0000000000000000000, 0.0000000000000000000 ) ) ;
#233 = DIRECTION ( 'NONE',  ( -0.0000000000000000000, -0.0000000000000000000, 1.000000000000000000 ) ) ;
#234 = CARTESIAN_POINT ( 'NONE',  ( 0.0000000000000000000, 0.0000000000000000000, -16.83014537719218100 ) ) ;
#235 = AXIS2_PLACEMENT_3D ( 'NONE', #234, #233, #232 ) ;
#236 = CIRCLE ( 'NONE', #235, 4.863999999999993700 ) ;
#237 = DIRECTION ( 'NONE',  ( -1.000000000000000000, 0.0000000000000000000, 0.0000000000000000000 ) ) ;
#238 = DIRECTION ( 'NONE',  ( 0.0000000000000000000, 0.0000000000000000000, -1.000000000000000000 ) ) ;
#239 = AXIS2_PLACEMENT_3D ( 'NONE', #241, #238, #237 ) ;
#240 = CONICAL_SURFACE ( 'NONE', #239, 5.033854622807822000, 0.7853981633974533900 ) ;
#241 = CARTESIAN_POINT ( 'NONE',  ( 0.0000000000000000000, 0.0000000000000000000, -17.00000000000000700 ) ) ;
#242 = FACE_OUTER_BOUND ( 'NONE', #17, .T. ) ;
#243 = CARTESIAN_POINT ( 'NONE',  ( 5.956485304992037000E-016, -4.863999999999993700, -0.1698546228078258200 ) ) ;
#244 = CARTESIAN_POINT ( 'NONE',  ( -4.863999999999993700, 6.060487830150317800E-016, -0.1698546228078258200 ) ) ;
#245 = DIRECTION ( 'NONE',  ( -0.0000000000000000000, -0.0000000000000000000, 1.000000000000000000 ) ) ;
#246 = VECTOR ( 'NONE', #245, 1000.000000000000000 ) ;
#247 = CARTESIAN_POINT ( 'NONE',  ( 6.999999999999999100, 0.0000000000000000000, -4.336808689942017700E-016 ) ) ;
#248 = DATE_TIME_ROLE ( 'creation_date' ) ;
#249 = DATE_AND_TIME ( #250, #251 ) ;
#250 = CALENDAR_DATE ( 2015, 10, 8 ) ;
#251 = LOCAL_TIME ( 14, 12, 21.00000000000000000, #252 ) ;
#252 = COORDINATED_UNIVERSAL_TIME_OFFSET ( 1, 0, .AHEAD. ) ;
#253 = CC_DESIGN_PERSON_AND_ORGANIZATION_ASSIGNMENT ( #255, #254, ( #267 ) ) ;
#254 = PERSON_AND_ORGANIZATION_ROLE ( 'creator' ) ;
#255 = PERSON_AND_ORGANIZATION ( #346, #337 ) ;
#256 = CC_DESIGN_APPROVAL ( #264, ( #267 ) ) ;
#257 = APPROVAL_DATE_TIME ( #258, #264 ) ;
#258 = DATE_AND_TIME ( #259, #260 ) ;
#259 = CALENDAR_DATE ( 2015, 10, 8 ) ;
#260 = LOCAL_TIME ( 14, 12, 21.00000000000000000, #261 ) ;
#261 = COORDINATED_UNIVERSAL_TIME_OFFSET ( 1, 0, .AHEAD. ) ;
#262 = APPROVAL_PERSON_ORGANIZATION ( #266, #264, #263 ) ;
#263 = APPROVAL_ROLE ( '' ) ;
#264 = APPROVAL ( #265, 'UNSPECIFIED' ) ;
#265 = APPROVAL_STATUS ( 'not_yet_approved' ) ;
#266 = PERSON_AND_ORGANIZATION ( #346, #337 ) ;
#267 = PRODUCT_DEFINITION ( 'UNKNOWN', '', #304, #268 ) ;
#268 = DESIGN_CONTEXT ( 'detailed design', #270, 'design' ) ;
#269 = APPLICATION_PROTOCOL_DEFINITION ( 'international standard', 'config_control_design', 1994, #270 ) ;
#270 = APPLICATION_CONTEXT ( 'configuration controlled 3d designs of mechanical parts and assemblies' ) ;
#271 = FACE_OUTER_BOUND ( 'NONE', #111, .T. ) ;
#272 = DIRECTION ( 'NONE',  ( -0.0000000000000000000, -0.0000000000000000000, 1.000000000000000000 ) ) ;
#273 = CARTESIAN_POINT ( 'NONE',  ( 0.0000000000000000000, 0.0000000000000000000, -16.83014537719218100 ) ) ;
#274 = AXIS2_PLACEMENT_3D ( 'NONE', #273, #272, #333 ) ;
#275 = CIRCLE ( 'NONE', #274, 4.863999999999993700 ) ;
#276 = DIRECTION ( 'NONE',  ( -0.0000000000000000000, 2.040851148208006500E-016, -1.000000000000000000 ) ) ;
#277 = VECTOR ( 'NONE', #276, 1000.000000000000000 ) ;
#278 = CARTESIAN_POINT ( 'NONE',  ( 0.0000000000000000000, 4.863999999999997200, -17.00000000000001800 ) ) ;
#279 = LINE ( 'NONE', #278, #277 ) ;
#280 = CONICAL_SURFACE ( 'NONE', #338, 5.033854622807822000, 0.7853981633974533900 ) ;
#281 = DIRECTION ( 'NONE',  ( -0.0000000000000000000, 2.040851148208006500E-016, -1.000000000000000000 ) ) ;
#282 = VECTOR ( 'NONE', #281, 1000.000000000000000 ) ;
#283 = CARTESIAN_POINT ( 'NONE',  ( 5.956485304992039000E-016, -4.863999999999997200, -17.00000000000001800 ) ) ;
#284 = LINE ( 'NONE', #283, #282 ) ;
#285 = CIRCLE ( 'NONE', #365, 5.033854622807820300 ) ;
#286 = SECURITY_CLASSIFICATION_LEVEL ( 'unclassified' ) ;
#287 = CC_DESIGN_PERSON_AND_ORGANIZATION_ASSIGNMENT ( #289, #288, ( #304 ) ) ;
#288 = PERSON_AND_ORGANIZATION_ROLE ( 'design_supplier' ) ;
#289 = PERSON_AND_ORGANIZATION ( #346, #337 ) ;
#290 = CC_DESIGN_PERSON_AND_ORGANIZATION_ASSIGNMENT ( #292, #291, ( #304 ) ) ;
#291 = PERSON_AND_ORGANIZATION_ROLE ( 'creator' ) ;
#292 = PERSON_AND_ORGANIZATION ( #346, #337 ) ;
#293 = CC_DESIGN_APPROVAL ( #301, ( #304 ) ) ;
#294 = APPROVAL_DATE_TIME ( #295, #301 ) ;
#295 = DATE_AND_TIME ( #296, #297 ) ;
#296 = CALENDAR_DATE ( 2015, 10, 8 ) ;
#297 = LOCAL_TIME ( 14, 12, 21.00000000000000000, #298 ) ;
#298 = COORDINATED_UNIVERSAL_TIME_OFFSET ( 1, 0, .AHEAD. ) ;
#299 = APPROVAL_PERSON_ORGANIZATION ( #303, #301, #300 ) ;
#300 = APPROVAL_ROLE ( '' ) ;
#301 = APPROVAL ( #302, 'UNSPECIFIED' ) ;
#302 = APPROVAL_STATUS ( 'not_yet_approved' ) ;
#303 = PERSON_AND_ORGANIZATION ( #346, #337 ) ;
#304 = PRODUCT_DEFINITION_FORMATION_WITH_SPECIFIED_SOURCE ( 'ANY', '', #347, .NOT_KNOWN. ) ;
#305 = CC_DESIGN_DATE_AND_TIME_ASSIGNMENT ( #249, #248, ( #267 ) ) ;
#306 = DIRECTION ( 'NONE',  ( 0.0000000000000000000, 1.000000000000000000, 0.0000000000000000000 ) ) ;
#307 = DIRECTION ( 'NONE',  ( -0.0000000000000000000, 2.040851148208006500E-016, -1.000000000000000000 ) ) ;
#308 = AXIS2_PLACEMENT_3D ( 'NONE', #318, #307, #306 ) ;
#309 = CYLINDRICAL_SURFACE ( 'NONE', #308, 4.863999999999997200 ) ;
#310 = CARTESIAN_POINT ( 'NONE',  ( 0.0000000000000000000, 6.999999999999999100, -17.00000000000000700 ) ) ;
#311 = PLANE ( 'NONE',  #363 ) ;
#312 = FACE_BOUND ( 'NONE', #103, .T. ) ;
#313 = FACE_OUTER_BOUND ( 'NONE', #143, .T. ) ;
#314 = DIRECTION ( 'NONE',  ( 1.000000000000000000, 0.0000000000000000000, 0.0000000000000000000 ) ) ;
#315 = DIRECTION ( 'NONE',  ( -0.0000000000000000000, -0.0000000000000000000, 1.000000000000000000 ) ) ;
#316 = AXIS2_PLACEMENT_3D ( 'NONE', #327, #315, #314 ) ;
#317 = CIRCLE ( 'NONE', #316, 6.999999999999999100 ) ;
#318 = CARTESIAN_POINT ( 'NONE',  ( 0.0000000000000000000, 0.0000000000000000000, -17.00000000000001800 ) ) ;
#319 = DIRECTION ( 'NONE',  ( 1.000000000000000000, 0.0000000000000000000, 0.0000000000000000000 ) ) ;
#320 = DIRECTION ( 'NONE',  ( -0.0000000000000000000, -0.0000000000000000000, 1.000000000000000000 ) ) ;
#321 = CARTESIAN_POINT ( 'NONE',  ( 0.0000000000000000000, 0.0000000000000000000, 0.0000000000000000000 ) ) ;
#322 = FACE_OUTER_BOUND ( 'NONE', #133, .T. ) ;
#323 = CARTESIAN_POINT ( 'NONE',  ( 0.0000000000000000000, 0.0000000000000000000, -17.00000000000000700 ) ) ;
#324 = DIRECTION ( 'NONE',  ( -1.000000000000000000, 0.0000000000000000000, -0.0000000000000000000 ) ) ;
#325 = DIRECTION ( 'NONE',  ( 0.0000000000000000000, 0.0000000000000000000, -1.000000000000000000 ) ) ;
#326 = AXIS2_PLACEMENT_3D ( 'NONE', #328, #325, #324 ) ;
#327 = CARTESIAN_POINT ( 'NONE',  ( 0.0000000000000000000, 0.0000000000000000000, -17.00000000000000700 ) ) ;
#328 = CARTESIAN_POINT ( 'NONE',  ( 0.0000000000000000000, 6.999999999999999100, -2.168404344971008900E-016 ) ) ;
#329 = PLANE ( 'NONE',  #326 ) ;
#330 = FACE_BOUND ( 'NONE', #99, .T. ) ;
#331 = FACE_OUTER_BOUND ( 'NONE', #139, .T. ) ;
#332 = CARTESIAN_POINT ( 'NONE',  ( 0.0000000000000000000, 4.863999999999993700, -16.83014537719218100 ) ) ;
#333 = DIRECTION ( 'NONE',  ( 1.000000000000000000, 0.0000000000000000000, 0.0000000000000000000 ) ) ;
#334 = CC_DESIGN_PERSON_AND_ORGANIZATION_ASSIGNMENT ( #336, #335, ( #347 ) ) ;
#335 = PERSON_AND_ORGANIZATION_ROLE ( 'design_owner' ) ;
#336 = PERSON_AND_ORGANIZATION ( #346, #337 ) ;
#337 = ORGANIZATION ( 'UNSPECIFIED', 'UNSPECIFIED', '' ) ;
#338 = AXIS2_PLACEMENT_3D ( 'NONE', #323, #341, #340 ) ;
#339 = DIRECTION ( 'NONE',  ( -0.0000000000000000000, -0.0000000000000000000, 1.000000000000000000 ) ) ;
#340 = DIRECTION ( 'NONE',  ( -1.000000000000000000, 0.0000000000000000000, 0.0000000000000000000 ) ) ;
#341 = DIRECTION ( 'NONE',  ( 0.0000000000000000000, 0.0000000000000000000, -1.000000000000000000 ) ) ;
#342 = DIRECTION ( 'NONE',  ( 1.000000000000000000, 0.0000000000000000000, 0.0000000000000000000 ) ) ;
#343 = AXIS2_PLACEMENT_3D ( 'NONE', #344, #339, #342 ) ;
#344 = CARTESIAN_POINT ( 'NONE',  ( 0.0000000000000000000, 0.0000000000000000000, 0.0000000000000000000 ) ) ;
#345 = CIRCLE ( 'NONE', #343, 6.999999999999999100 ) ;
#346 = PERSON ( 'UNSPECIFIED', 'UNSPECIFIED', 'UNSPECIFIED', ('UNSPECIFIED'), ('UNSPECIFIED'), ('UNSPECIFIED') ) ;
#347 = PRODUCT ( '11-0201-01_outokumpu', '11-0201-01_outokumpu', '', ( #348 ) ) ;
#348 = MECHANICAL_CONTEXT ( 'NONE', #350, 'mechanical' ) ;
#349 = APPLICATION_PROTOCOL_DEFINITION ( 'international standard', 'config_control_design', 1994, #350 ) ;
#350 = APPLICATION_CONTEXT ( 'configuration controlled 3d designs of mechanical parts and assemblies' ) ;
#351 = DIRECTION ( 'NONE',  ( 1.000000000000000000, 0.0000000000000000000, 0.0000000000000000000 ) ) ;
#352 = DIRECTION ( 'NONE',  ( 0.0000000000000000000, 0.0000000000000000000, 1.000000000000000000 ) ) ;
#353 = CARTESIAN_POINT ( 'NONE',  ( 0.0000000000000000000, 0.0000000000000000000, 0.0000000000000000000 ) ) ;
#354 = SHAPE_DEFINITION_REPRESENTATION ( #366, #355 ) ;
#355 = ADVANCED_BREP_SHAPE_REPRESENTATION ( '11-0201-01_outokumpu', ( #16, #364 ), #356 ) ;
#356 =( GEOMETRIC_REPRESENTATION_CONTEXT ( 3 ) GLOBAL_UNCERTAINTY_ASSIGNED_CONTEXT ( ( #357 ) ) GLOBAL_UNIT_ASSIGNED_CONTEXT ( ( #360, #359, #358 ) ) REPRESENTATION_CONTEXT ( 'NONE', 'WORKASPACE' ) );
#357 = UNCERTAINTY_MEASURE_WITH_UNIT (LENGTH_MEASURE( 1.000000000000000100E-005 ), #360, 'distance_accuracy_value', 'NONE');
#358 =( NAMED_UNIT ( * ) SI_UNIT ( $, .STERADIAN. ) SOLID_ANGLE_UNIT ( ) );
#359 =( NAMED_UNIT ( * ) PLANE_ANGLE_UNIT ( ) SI_UNIT ( $, .RADIAN. ) );
#360 =( LENGTH_UNIT ( ) NAMED_UNIT ( * ) SI_UNIT ( .MILLI., .METRE. ) );
#361 = DIRECTION ( 'NONE',  ( 1.000000000000000000, 0.0000000000000000000, 0.0000000000000000000 ) ) ;
#362 = DIRECTION ( 'NONE',  ( 0.0000000000000000000, -0.0000000000000000000, 1.000000000000000000 ) ) ;
#363 = AXIS2_PLACEMENT_3D ( 'NONE', #310, #362, #361 ) ;
#364 = AXIS2_PLACEMENT_3D ( 'NONE', #353, #352, #351 ) ;
#365 = AXIS2_PLACEMENT_3D ( 'NONE', #321, #320, #319 ) ;
#366 = PRODUCT_DEFINITION_SHAPE ( 'NONE', 'NONE',  #267 ) ;
#367 = PRODUCT_RELATED_PRODUCT_CATEGORY ( 'detail', '', ( #347 ) ) ;
#368 = CC_DESIGN_SECURITY_CLASSIFICATION ( #389, ( #304 ) ) ;
#369 = CC_DESIGN_APPROVAL ( #377, ( #389 ) ) ;
#370 = APPROVAL_DATE_TIME ( #371, #377 ) ;
#371 = DATE_AND_TIME ( #372, #373 ) ;
#372 = CALENDAR_DATE ( 2015, 10, 8 ) ;
#373 = LOCAL_TIME ( 14, 12, 21.00000000000000000, #374 ) ;
#374 = COORDINATED_UNIVERSAL_TIME_OFFSET ( 1, 0, .AHEAD. ) ;
#375 = APPROVAL_PERSON_ORGANIZATION ( #379, #377, #376 ) ;
#376 = APPROVAL_ROLE ( '' ) ;
#377 = APPROVAL ( #378, 'UNSPECIFIED' ) ;
#378 = APPROVAL_STATUS ( 'not_yet_approved' ) ;
#379 = PERSON_AND_ORGANIZATION ( #346, #337 ) ;
#380 = CC_DESIGN_DATE_AND_TIME_ASSIGNMENT ( #382, #381, ( #389 ) ) ;
#381 = DATE_TIME_ROLE ( 'classification_date' ) ;
#382 = DATE_AND_TIME ( #383, #384 ) ;
#383 = CALENDAR_DATE ( 2015, 10, 8 ) ;
#384 = LOCAL_TIME ( 14, 12, 21.00000000000000000, #385 ) ;
#385 = COORDINATED_UNIVERSAL_TIME_OFFSET ( 1, 0, .AHEAD. ) ;
#386 = CC_DESIGN_PERSON_AND_ORGANIZATION_ASSIGNMENT ( #388, #387, ( #389 ) ) ;
#387 = PERSON_AND_ORGANIZATION_ROLE ( 'classification_officer' ) ;
#388 = PERSON_AND_ORGANIZATION ( #346, #337 ) ;
#389 = SECURITY_CLASSIFICATION ( '', '', #286 ) ;
ENDSEC;
END-ISO-10303-21;
