ISO-10303-21;
HEADER;
FILE_DESCRIPTION (( 'STEP AP203' ),
    '1' );
FILE_NAME ('19-0402-53_outokumpu.step',
    '2015-08-11T09:24:35',
    ( '' ),
    ( '' ),
    'SwSTEP 2.0',
    'SolidWorks 2008',
    '' );
FILE_SCHEMA (( 'CONFIG_CONTROL_DESIGN' ));
ENDSEC;

DATA;
#1 = EDGE_CURVE ( 'NONE', #2, #5, #125, .T. ) ;
#2 = VERTEX_POINT ( 'NONE', #120 ) ;
#3 = EDGE_CURVE ( 'NONE', #39, #5, #119, .T. ) ;
#4 = ORIENTED_EDGE ( 'NONE', *, *, #1, .F. ) ;
#5 = VERTEX_POINT ( 'NONE', #115 ) ;
#6 = ORIENTED_EDGE ( 'NONE', *, *, #3, .T. ) ;
#7 = VERTEX_POINT ( 'NONE', #114 ) ;
#8 = ORIENTED_EDGE ( 'NONE', *, *, #10, .F. ) ;
#9 = EDGE_LOOP ( 'NONE', ( #8, #70, #20, #15, #16 ) ) ;
#10 = EDGE_CURVE ( 'NONE', #11, #7, #113, .T. ) ;
#11 = VERTEX_POINT ( 'NONE', #108 ) ;
#12 = ADVANCED_FACE ( 'NONE', ( #107 ), #105, .F. ) ;
#13 = EDGE_CURVE ( 'NONE', #31, #38, #100, .T. ) ;
#14 = EDGE_CURVE ( 'NONE', #230, #17, #95, .T. ) ;
#15 = ORIENTED_EDGE ( 'NONE', *, *, #19, .F. ) ;
#16 = ORIENTED_EDGE ( 'NONE', *, *, #28, .F. ) ;
#17 = VERTEX_POINT ( 'NONE', #132 ) ;
#18 = VERTEX_POINT ( 'NONE', #131 ) ;
#19 = EDGE_CURVE ( 'NONE', #18, #17, #130, .T. ) ;
#20 = ORIENTED_EDGE ( 'NONE', *, *, #14, .T. ) ;
#21 = EDGE_CURVE ( 'NONE', #187, #42, #126, .T. ) ;
#22 = VERTEX_POINT ( 'NONE', #78 ) ;
#23 = VERTEX_POINT ( 'NONE', #77 ) ;
#24 = ORIENTED_EDGE ( 'NONE', *, *, #25, .T. ) ;
#25 = EDGE_CURVE ( 'NONE', #23, #22, #76, .T. ) ;
#26 = EDGE_LOOP ( 'NONE', ( #24, #40, #43, #215 ) ) ;
#27 = ADVANCED_FACE ( 'NONE', ( #71 ), #154, .T. ) ;
#28 = EDGE_CURVE ( 'NONE', #7, #18, #155, .T. ) ;
#29 = ORIENTED_EDGE ( 'NONE', *, *, #30, .F. ) ;
#30 = EDGE_CURVE ( 'NONE', #31, #2, #145, .T. ) ;
#31 = VERTEX_POINT ( 'NONE', #141 ) ;
#32 = ORIENTED_EDGE ( 'NONE', *, *, #13, .T. ) ;
#33 = MANIFOLD_SOLID_BREP ( 'NONE', #58 ) ;
#34 = ADVANCED_FACE ( 'NONE', ( #140 ), #139, .F. ) ;
#35 = EDGE_LOOP ( 'NONE', ( #36, #6, #4, #29, #32 ) ) ;
#36 = ORIENTED_EDGE ( 'NONE', *, *, #37, .T. ) ;
#37 = EDGE_CURVE ( 'NONE', #38, #39, #90, .T. ) ;
#38 = VERTEX_POINT ( 'NONE', #85 ) ;
#39 = VERTEX_POINT ( 'NONE', #186 ) ;
#40 = ORIENTED_EDGE ( 'NONE', *, *, #41, .T. ) ;
#41 = EDGE_CURVE ( 'NONE', #22, #42, #185, .T. ) ;
#42 = VERTEX_POINT ( 'NONE', #181 ) ;
#43 = ORIENTED_EDGE ( 'NONE', *, *, #21, .F. ) ;
#44 = ORIENTED_EDGE ( 'NONE', *, *, #28, .T. ) ;
#45 = ORIENTED_EDGE ( 'NONE', *, *, #25, .F. ) ;
#46 = ORIENTED_EDGE ( 'NONE', *, *, #47, .F. ) ;
#47 = EDGE_CURVE ( 'NONE', #22, #23, #179, .T. ) ;
#48 = EDGE_LOOP ( 'NONE', ( #67, #44, #213, #62, #63, #65 ) ) ;
#49 = DIRECTION ( 'NONE',  ( 0.0000000000000000000, -0.0000000000000000000, 1.000000000000000000 ) ) ;
#50 = AXIS2_PLACEMENT_3D ( 'NONE', #51, #49, #259 ) ;
#51 = CARTESIAN_POINT ( 'NONE',  ( 0.0000000000000000000, 10.75000000000000000, -60.00000000000000000 ) ) ;
#52 = PLANE ( 'NONE',  #50 ) ;
#53 = FACE_BOUND ( 'NONE', #68, .T. ) ;
#54 = FACE_OUTER_BOUND ( 'NONE', #138, .T. ) ;
#55 = DIRECTION ( 'NONE',  ( -0.7071067811865489100, 8.659274570719371400E-017, 0.7071067811865462400 ) ) ;
#56 = VECTOR ( 'NONE', #55, 999.9999999999998900 ) ;
#57 = CARTESIAN_POINT ( 'NONE',  ( -8.330999999999997700, 1.020219553369422300E-015, -0.2909249306356903600 ) ) ;
#58 = CLOSED_SHELL ( 'NONE', ( #34, #12, #27, #217, #216, #137, #200, #192, #208, #223 ) ) ;
#59 = ORIENTED_EDGE ( 'NONE', *, *, #1, .T. ) ;
#60 = ORIENTED_EDGE ( 'NONE', *, *, #61, .T. ) ;
#61 = EDGE_CURVE ( 'NONE', #5, #2, #174, .T. ) ;
#62 = ORIENTED_EDGE ( 'NONE', *, *, #66, .T. ) ;
#63 = ORIENTED_EDGE ( 'NONE', *, *, #64, .F. ) ;
#64 = EDGE_CURVE ( 'NONE', #39, #231, #170, .T. ) ;
#65 = ORIENTED_EDGE ( 'NONE', *, *, #37, .F. ) ;
#66 = EDGE_CURVE ( 'NONE', #220, #231, #165, .T. ) ;
#67 = ORIENTED_EDGE ( 'NONE', *, *, #199, .F. ) ;
#68 = EDGE_LOOP ( 'NONE', ( #59, #60 ) ) ;
#69 = ORIENTED_EDGE ( 'NONE', *, *, #13, .F. ) ;
#70 = ORIENTED_EDGE ( 'NONE', *, *, #136, .T. ) ;
#71 = FACE_OUTER_BOUND ( 'NONE', #26, .T. ) ;
#72 = DIRECTION ( 'NONE',  ( 1.000000000000000000, 0.0000000000000000000, 0.0000000000000000000 ) ) ;
#73 = DIRECTION ( 'NONE',  ( -0.0000000000000000000, -0.0000000000000000000, 1.000000000000000000 ) ) ;
#74 = CARTESIAN_POINT ( 'NONE',  ( 0.0000000000000000000, 0.0000000000000000000, -60.00000000000000000 ) ) ;
#75 = AXIS2_PLACEMENT_3D ( 'NONE', #74, #73, #72 ) ;
#76 = CIRCLE ( 'NONE', #75, 10.75000000000000000 ) ;
#77 = CARTESIAN_POINT ( 'NONE',  ( 10.75000000000000000, 0.0000000000000000000, -60.00000000000000000 ) ) ;
#78 = CARTESIAN_POINT ( 'NONE',  ( -10.75000000000000000, 1.316451830359055400E-015, -60.00000000000000000 ) ) ;
#79 = DIRECTION ( 'NONE',  ( 1.000000000000000000, 0.0000000000000000000, 0.0000000000000000000 ) ) ;
#80 = DIRECTION ( 'NONE',  ( -0.0000000000000000000, -0.0000000000000000000, 1.000000000000000000 ) ) ;
#81 = CARTESIAN_POINT ( 'NONE',  ( 0.0000000000000000000, 0.0000000000000000000, 0.0000000000000000000 ) ) ;
#82 = AXIS2_PLACEMENT_3D ( 'NONE', #81, #80, #79 ) ;
#83 = ORIENTED_EDGE ( 'NONE', *, *, #84, .F. ) ;
#84 = EDGE_CURVE ( 'NONE', #231, #31, #160, .T. ) ;
#85 = CARTESIAN_POINT ( 'NONE',  ( 1.020219553369423100E-015, -8.330999999999997700, -59.70907506936424600 ) ) ;
#86 = DIRECTION ( 'NONE',  ( 1.000000000000000000, 0.0000000000000000000, 0.0000000000000000000 ) ) ;
#87 = DIRECTION ( 'NONE',  ( -0.0000000000000000000, -0.0000000000000000000, 1.000000000000000000 ) ) ;
#88 = CARTESIAN_POINT ( 'NONE',  ( 0.0000000000000000000, 0.0000000000000000000, -59.70907506936424600 ) ) ;
#89 = AXIS2_PLACEMENT_3D ( 'NONE', #88, #87, #86 ) ;
#90 = CIRCLE ( 'NONE', #89, 8.330999999999997700 ) ;
#91 = DIRECTION ( 'NONE',  ( -1.000000000000000000, 0.0000000000000000000, 0.0000000000000000000 ) ) ;
#92 = DIRECTION ( 'NONE',  ( 0.0000000000000000000, 0.0000000000000000000, -1.000000000000000000 ) ) ;
#93 = CARTESIAN_POINT ( 'NONE',  ( 0.0000000000000000000, 0.0000000000000000000, -60.00000000000000000 ) ) ;
#94 = AXIS2_PLACEMENT_3D ( 'NONE', #93, #92, #91 ) ;
#95 = CIRCLE ( 'NONE', #135, 8.621924930635689300 ) ;
#96 = DIRECTION ( 'NONE',  ( 1.000000000000000000, 0.0000000000000000000, 0.0000000000000000000 ) ) ;
#97 = DIRECTION ( 'NONE',  ( -0.0000000000000000000, -0.0000000000000000000, 1.000000000000000000 ) ) ;
#98 = CARTESIAN_POINT ( 'NONE',  ( 0.0000000000000000000, 0.0000000000000000000, -59.70907506936424600 ) ) ;
#99 = AXIS2_PLACEMENT_3D ( 'NONE', #98, #97, #96 ) ;
#100 = CIRCLE ( 'NONE', #99, 8.330999999999997700 ) ;
#101 = CARTESIAN_POINT ( 'NONE',  ( 0.0000000000000000000, 0.0000000000000000000, -3.304181524667523600E-019 ) ) ;
#102 = DIRECTION ( 'NONE',  ( 1.000000000000000000, 0.0000000000000000000, 0.0000000000000000000 ) ) ;
#103 = DIRECTION ( 'NONE',  ( -0.0000000000000000000, -0.0000000000000000000, 1.000000000000000000 ) ) ;
#104 = AXIS2_PLACEMENT_3D ( 'NONE', #106, #103, #102 ) ;
#105 = CONICAL_SURFACE ( 'NONE', #104, 8.330999999999997700, 0.7853981633974501700 ) ;
#106 = CARTESIAN_POINT ( 'NONE',  ( 0.0000000000000000000, 0.0000000000000000000, -0.2909249306356903600 ) ) ;
#107 = FACE_OUTER_BOUND ( 'NONE', #9, .T. ) ;
#108 = CARTESIAN_POINT ( 'NONE',  ( -8.330999999999997700, 1.038032979296512500E-015, -0.2909249306356903600 ) ) ;
#109 = DIRECTION ( 'NONE',  ( 1.000000000000000000, 0.0000000000000000000, 0.0000000000000000000 ) ) ;
#110 = DIRECTION ( 'NONE',  ( -0.0000000000000000000, -0.0000000000000000000, 1.000000000000000000 ) ) ;
#111 = CARTESIAN_POINT ( 'NONE',  ( 0.0000000000000000000, 0.0000000000000000000, -0.2909249306356903600 ) ) ;
#112 = AXIS2_PLACEMENT_3D ( 'NONE', #111, #110, #109 ) ;
#113 = CIRCLE ( 'NONE', #112, 8.330999999999997700 ) ;
#114 = CARTESIAN_POINT ( 'NONE',  ( 1.020219553369423100E-015, -8.330999999999997700, -0.2909249306356903600 ) ) ;
#115 = CARTESIAN_POINT ( 'NONE',  ( 8.621924930635755000, 1.055846405223610600E-015, -60.00000000000000000 ) ) ;
#116 = DIRECTION ( 'NONE',  ( 0.7071067811865517900, 8.659274570719408400E-017, -0.7071067811865433500 ) ) ;
#117 = VECTOR ( 'NONE', #116, 1000.000000000000000 ) ;
#118 = CARTESIAN_POINT ( 'NONE',  ( 8.621924930635755000, 1.055846405223610600E-015, -60.00000000000000000 ) ) ;
#119 = LINE ( 'NONE', #118, #117 ) ;
#120 = CARTESIAN_POINT ( 'NONE',  ( -8.621924930635755000, 0.0000000000000000000, -60.00000000000000000 ) ) ;
#121 = DIRECTION ( 'NONE',  ( 1.000000000000000000, 0.0000000000000000000, 0.0000000000000000000 ) ) ;
#122 = DIRECTION ( 'NONE',  ( -0.0000000000000000000, -0.0000000000000000000, 1.000000000000000000 ) ) ;
#123 = CARTESIAN_POINT ( 'NONE',  ( 0.0000000000000000000, 0.0000000000000000000, -60.00000000000000000 ) ) ;
#124 = AXIS2_PLACEMENT_3D ( 'NONE', #123, #122, #121 ) ;
#125 = CIRCLE ( 'NONE', #124, 8.621924930635755000 ) ;
#126 = CIRCLE ( 'NONE', #82, 10.75000000000000000 ) ;
#127 = DIRECTION ( 'NONE',  ( 0.7071067811865489100, 0.0000000000000000000, 0.7071067811865462400 ) ) ;
#128 = VECTOR ( 'NONE', #127, 999.9999999999998900 ) ;
#129 = CARTESIAN_POINT ( 'NONE',  ( 8.330999999999997700, 0.0000000000000000000, -0.2909249306356903600 ) ) ;
#130 = LINE ( 'NONE', #129, #128 ) ;
#131 = CARTESIAN_POINT ( 'NONE',  ( 8.330999999999997700, 0.0000000000000000000, -0.2909249306356903600 ) ) ;
#132 = CARTESIAN_POINT ( 'NONE',  ( 8.621924930635689300, 0.0000000000000000000, -3.304181524667523600E-019 ) ) ;
#133 = DIRECTION ( 'NONE',  ( 1.000000000000000000, 0.0000000000000000000, 0.0000000000000000000 ) ) ;
#134 = DIRECTION ( 'NONE',  ( -0.0000000000000000000, -0.0000000000000000000, 1.000000000000000000 ) ) ;
#135 = AXIS2_PLACEMENT_3D ( 'NONE', #101, #134, #133 ) ;
#136 = EDGE_CURVE ( 'NONE', #11, #230, #161, .T. ) ;
#137 = ADVANCED_FACE ( 'NONE', ( #54, #53 ), #52, .F. ) ;
#138 = EDGE_LOOP ( 'NONE', ( #45, #46 ) ) ;
#139 = CONICAL_SURFACE ( 'NONE', #94, 8.621924930635755000, 0.7853981633974542700 ) ;
#140 = FACE_OUTER_BOUND ( 'NONE', #35, .T. ) ;
#141 = CARTESIAN_POINT ( 'NONE',  ( -8.330999999999997700, 0.0000000000000000000, -59.70907506936424600 ) ) ;
#142 = DIRECTION ( 'NONE',  ( -0.7071067811865517900, 0.0000000000000000000, -0.7071067811865433500 ) ) ;
#143 = VECTOR ( 'NONE', #142, 1000.000000000000000 ) ;
#144 = CARTESIAN_POINT ( 'NONE',  ( -8.621924930635755000, 0.0000000000000000000, -60.00000000000000000 ) ) ;
#145 = LINE ( 'NONE', #144, #143 ) ;
#146 = DIRECTION ( 'NONE',  ( 1.000000000000000000, 0.0000000000000000000, 0.0000000000000000000 ) ) ;
#147 = DIRECTION ( 'NONE',  ( -0.0000000000000000000, -0.0000000000000000000, 1.000000000000000000 ) ) ;
#148 = CARTESIAN_POINT ( 'NONE',  ( 0.0000000000000000000, 0.0000000000000000000, -0.2909249306356903600 ) ) ;
#149 = AXIS2_PLACEMENT_3D ( 'NONE', #148, #147, #146 ) ;
#150 = DIRECTION ( 'NONE',  ( 1.000000000000000000, 0.0000000000000000000, 0.0000000000000000000 ) ) ;
#151 = DIRECTION ( 'NONE',  ( -0.0000000000000000000, -0.0000000000000000000, 1.000000000000000000 ) ) ;
#152 = CARTESIAN_POINT ( 'NONE',  ( 0.0000000000000000000, 0.0000000000000000000, -4.336808689942017700E-016 ) ) ;
#153 = AXIS2_PLACEMENT_3D ( 'NONE', #152, #151, #150 ) ;
#154 = CYLINDRICAL_SURFACE ( 'NONE', #153, 10.75000000000000000 ) ;
#155 = CIRCLE ( 'NONE', #149, 8.330999999999997700 ) ;
#156 = DIRECTION ( 'NONE',  ( 1.000000000000000000, 0.0000000000000000000, 0.0000000000000000000 ) ) ;
#157 = DIRECTION ( 'NONE',  ( -0.0000000000000000000, -0.0000000000000000000, 1.000000000000000000 ) ) ;
#158 = CARTESIAN_POINT ( 'NONE',  ( 0.0000000000000000000, 0.0000000000000000000, -59.70907506936424600 ) ) ;
#159 = AXIS2_PLACEMENT_3D ( 'NONE', #158, #157, #156 ) ;
#160 = CIRCLE ( 'NONE', #159, 8.330999999999997700 ) ;
#161 = LINE ( 'NONE', #57, #56 ) ;
#162 = DIRECTION ( 'NONE',  ( -0.0000000000000000000, 1.108921438289454000E-016, -1.000000000000000000 ) ) ;
#163 = VECTOR ( 'NONE', #162, 1000.000000000000000 ) ;
#164 = CARTESIAN_POINT ( 'NONE',  ( 0.0000000000000000000, 8.331000000000008400, -60.00000000000002800 ) ) ;
#165 = LINE ( 'NONE', #164, #163 ) ;
#166 = DIRECTION ( 'NONE',  ( 1.000000000000000000, 0.0000000000000000000, 0.0000000000000000000 ) ) ;
#167 = DIRECTION ( 'NONE',  ( -0.0000000000000000000, -0.0000000000000000000, 1.000000000000000000 ) ) ;
#168 = CARTESIAN_POINT ( 'NONE',  ( 0.0000000000000000000, 0.0000000000000000000, -59.70907506936424600 ) ) ;
#169 = AXIS2_PLACEMENT_3D ( 'NONE', #168, #167, #166 ) ;
#170 = CIRCLE ( 'NONE', #169, 8.330999999999997700 ) ;
#171 = DIRECTION ( 'NONE',  ( 1.000000000000000000, 0.0000000000000000000, 0.0000000000000000000 ) ) ;
#172 = DIRECTION ( 'NONE',  ( -0.0000000000000000000, -0.0000000000000000000, 1.000000000000000000 ) ) ;
#173 = AXIS2_PLACEMENT_3D ( 'NONE', #180, #172, #171 ) ;
#174 = CIRCLE ( 'NONE', #173, 8.621924930635755000 ) ;
#175 = DIRECTION ( 'NONE',  ( 1.000000000000000000, 0.0000000000000000000, 0.0000000000000000000 ) ) ;
#176 = DIRECTION ( 'NONE',  ( -0.0000000000000000000, -0.0000000000000000000, 1.000000000000000000 ) ) ;
#177 = CARTESIAN_POINT ( 'NONE',  ( 0.0000000000000000000, 0.0000000000000000000, -60.00000000000000000 ) ) ;
#178 = AXIS2_PLACEMENT_3D ( 'NONE', #177, #176, #175 ) ;
#179 = CIRCLE ( 'NONE', #178, 10.75000000000000000 ) ;
#180 = CARTESIAN_POINT ( 'NONE',  ( 0.0000000000000000000, 0.0000000000000000000, -60.00000000000000000 ) ) ;
#181 = CARTESIAN_POINT ( 'NONE',  ( -10.75000000000000000, 1.316451830359055400E-015, 0.0000000000000000000 ) ) ;
#182 = DIRECTION ( 'NONE',  ( -0.0000000000000000000, -0.0000000000000000000, 1.000000000000000000 ) ) ;
#183 = VECTOR ( 'NONE', #182, 1000.000000000000000 ) ;
#184 = CARTESIAN_POINT ( 'NONE',  ( -10.75000000000000000, 1.316451830359055400E-015, -4.336808689942017700E-016 ) ) ;
#185 = LINE ( 'NONE', #184, #183 ) ;
#186 = CARTESIAN_POINT ( 'NONE',  ( 8.330999999999997700, 1.038032979296516400E-015, -59.70907506936424600 ) ) ;
#187 = VERTEX_POINT ( 'NONE', #265 ) ;
#188 = EDGE_CURVE ( 'NONE', #23, #187, #264, .T. ) ;
#189 = ORIENTED_EDGE ( 'NONE', *, *, #190, .F. ) ;
#190 = EDGE_CURVE ( 'NONE', #17, #230, #389, .T. ) ;
#191 = ORIENTED_EDGE ( 'NONE', *, *, #14, .F. ) ;
#192 = ADVANCED_FACE ( 'NONE', ( #385 ), #384, .T. ) ;
#193 = EDGE_LOOP ( 'NONE', ( #194, #195, #206, #207 ) ) ;
#194 = ORIENTED_EDGE ( 'NONE', *, *, #41, .F. ) ;
#195 = ORIENTED_EDGE ( 'NONE', *, *, #47, .T. ) ;
#196 = EDGE_CURVE ( 'NONE', #220, #11, #379, .T. ) ;
#197 = ORIENTED_EDGE ( 'NONE', *, *, #10, .T. ) ;
#198 = ORIENTED_EDGE ( 'NONE', *, *, #199, .T. ) ;
#199 = EDGE_CURVE ( 'NONE', #7, #38, #374, .T. ) ;
#200 = ADVANCED_FACE ( 'NONE', ( #370, #369 ), #368, .F. ) ;
#201 = EDGE_LOOP ( 'NONE', ( #202, #203 ) ) ;
#202 = ORIENTED_EDGE ( 'NONE', *, *, #21, .T. ) ;
#203 = ORIENTED_EDGE ( 'NONE', *, *, #204, .T. ) ;
#204 = EDGE_CURVE ( 'NONE', #42, #187, #362, .T. ) ;
#205 = EDGE_LOOP ( 'NONE', ( #189, #191 ) ) ;
#206 = ORIENTED_EDGE ( 'NONE', *, *, #188, .T. ) ;
#207 = ORIENTED_EDGE ( 'NONE', *, *, #204, .F. ) ;
#208 = ADVANCED_FACE ( 'NONE', ( #358 ), #357, .F. ) ;
#209 = EDGE_LOOP ( 'NONE', ( #210, #211, #212, #221, #222 ) ) ;
#210 = ORIENTED_EDGE ( 'NONE', *, *, #136, .F. ) ;
#211 = ORIENTED_EDGE ( 'NONE', *, *, #196, .F. ) ;
#212 = ORIENTED_EDGE ( 'NONE', *, *, #214, .F. ) ;
#213 = ORIENTED_EDGE ( 'NONE', *, *, #214, .T. ) ;
#214 = EDGE_CURVE ( 'NONE', #18, #220, #352, .T. ) ;
#215 = ORIENTED_EDGE ( 'NONE', *, *, #188, .F. ) ;
#216 = ADVANCED_FACE ( 'NONE', ( #347 ), #346, .F. ) ;
#217 = ADVANCED_FACE ( 'NONE', ( #345 ), #340, .F. ) ;
#218 = EDGE_LOOP ( 'NONE', ( #219, #197, #198, #69, #83, #232 ) ) ;
#219 = ORIENTED_EDGE ( 'NONE', *, *, #196, .T. ) ;
#220 = VERTEX_POINT ( 'NONE', #339 ) ;
#221 = ORIENTED_EDGE ( 'NONE', *, *, #19, .T. ) ;
#222 = ORIENTED_EDGE ( 'NONE', *, *, #190, .T. ) ;
#223 = ADVANCED_FACE ( 'NONE', ( #334 ), #330, .F. ) ;
#224 = EDGE_LOOP ( 'NONE', ( #225, #226, #227, #228, #229 ) ) ;
#225 = ORIENTED_EDGE ( 'NONE', *, *, #3, .F. ) ;
#226 = ORIENTED_EDGE ( 'NONE', *, *, #64, .T. ) ;
#227 = ORIENTED_EDGE ( 'NONE', *, *, #84, .T. ) ;
#228 = ORIENTED_EDGE ( 'NONE', *, *, #30, .T. ) ;
#229 = ORIENTED_EDGE ( 'NONE', *, *, #61, .F. ) ;
#230 = VERTEX_POINT ( 'NONE', #332 ) ;
#231 = VERTEX_POINT ( 'NONE', #331 ) ;
#232 = ORIENTED_EDGE ( 'NONE', *, *, #66, .F. ) ;
#233 = COORDINATED_UNIVERSAL_TIME_OFFSET ( 1, 0, .AHEAD. ) ;
#234 = APPROVAL_PERSON_ORGANIZATION ( #238, #236, #235 ) ;
#235 = APPROVAL_ROLE ( '' ) ;
#236 = APPROVAL ( #237, 'UNSPECIFIED' ) ;
#237 = APPROVAL_STATUS ( 'not_yet_approved' ) ;
#238 = PERSON_AND_ORGANIZATION ( #278, #318 ) ;
#239 = CC_DESIGN_DATE_AND_TIME_ASSIGNMENT ( #241, #240, ( #248 ) ) ;
#240 = DATE_TIME_ROLE ( 'classification_date' ) ;
#241 = DATE_AND_TIME ( #242, #243 ) ;
#242 = CALENDAR_DATE ( 2015, 11, 8 ) ;
#243 = LOCAL_TIME ( 11, 24, 35.00000000000000000, #244 ) ;
#244 = COORDINATED_UNIVERSAL_TIME_OFFSET ( 1, 0, .AHEAD. ) ;
#245 = CC_DESIGN_PERSON_AND_ORGANIZATION_ASSIGNMENT ( #247, #246, ( #248 ) ) ;
#246 = PERSON_AND_ORGANIZATION_ROLE ( 'classification_officer' ) ;
#247 = PERSON_AND_ORGANIZATION ( #278, #318 ) ;
#248 = SECURITY_CLASSIFICATION ( '', '', #249 ) ;
#249 = SECURITY_CLASSIFICATION_LEVEL ( 'unclassified' ) ;
#250 = CC_DESIGN_PERSON_AND_ORGANIZATION_ASSIGNMENT ( #252, #251, ( #290 ) ) ;
#251 = PERSON_AND_ORGANIZATION_ROLE ( 'design_supplier' ) ;
#252 = PERSON_AND_ORGANIZATION ( #278, #318 ) ;
#253 = CC_DESIGN_PERSON_AND_ORGANIZATION_ASSIGNMENT ( #255, #254, ( #290 ) ) ;
#254 = PERSON_AND_ORGANIZATION_ROLE ( 'creator' ) ;
#255 = PERSON_AND_ORGANIZATION ( #278, #318 ) ;
#256 = CC_DESIGN_APPROVAL ( #287, ( #290 ) ) ;
#257 = APPROVAL_DATE_TIME ( #258, #287 ) ;
#258 = DATE_AND_TIME ( #282, #283 ) ;
#259 = DIRECTION ( 'NONE',  ( 1.000000000000000000, 0.0000000000000000000, 0.0000000000000000000 ) ) ;
#260 = CARTESIAN_POINT ( 'NONE',  ( 0.0000000000000000000, 0.0000000000000000000, -3.304181524667523600E-019 ) ) ;
#261 = DIRECTION ( 'NONE',  ( -0.0000000000000000000, -0.0000000000000000000, 1.000000000000000000 ) ) ;
#262 = VECTOR ( 'NONE', #261, 1000.000000000000000 ) ;
#263 = CARTESIAN_POINT ( 'NONE',  ( 10.75000000000000000, 0.0000000000000000000, -4.336808689942017700E-016 ) ) ;
#264 = LINE ( 'NONE', #263, #262 ) ;
#265 = CARTESIAN_POINT ( 'NONE',  ( 10.75000000000000000, 0.0000000000000000000, 0.0000000000000000000 ) ) ;
#266 = CARTESIAN_POINT ( 'NONE',  ( 0.0000000000000000000, 0.0000000000000000000, 0.0000000000000000000 ) ) ;
#267 = AXIS2_PLACEMENT_3D ( 'NONE', #266, #269, #268 ) ;
#268 = DIRECTION ( 'NONE',  ( 1.000000000000000000, 0.0000000000000000000, 0.0000000000000000000 ) ) ;
#269 = DIRECTION ( 'NONE',  ( 0.0000000000000000000, 0.0000000000000000000, 1.000000000000000000 ) ) ;
#270 = APPLICATION_CONTEXT ( 'configuration controlled 3d designs of mechanical parts and assemblies' ) ;
#271 = SHAPE_DEFINITION_REPRESENTATION ( #319, #272 ) ;
#272 = ADVANCED_BREP_SHAPE_REPRESENTATION ( '19-0402-53_outokumpu', ( #33, #267 ), #273 ) ;
#273 =( GEOMETRIC_REPRESENTATION_CONTEXT ( 3 ) GLOBAL_UNCERTAINTY_ASSIGNED_CONTEXT ( ( #274 ) ) GLOBAL_UNIT_ASSIGNED_CONTEXT ( ( #277, #276, #275 ) ) REPRESENTATION_CONTEXT ( 'NONE', 'WORKASPACE' ) );
#274 = UNCERTAINTY_MEASURE_WITH_UNIT (LENGTH_MEASURE( 1.000000000000000100E-005 ), #277, 'distance_accuracy_value', 'NONE');
#275 =( NAMED_UNIT ( * ) SI_UNIT ( $, .STERADIAN. ) SOLID_ANGLE_UNIT ( ) );
#276 =( NAMED_UNIT ( * ) PLANE_ANGLE_UNIT ( ) SI_UNIT ( $, .RADIAN. ) );
#277 =( LENGTH_UNIT ( ) NAMED_UNIT ( * ) SI_UNIT ( .MILLI., .METRE. ) );
#278 = PERSON ( 'UNSPECIFIED', 'UNSPECIFIED', 'UNSPECIFIED', ('UNSPECIFIED'), ('UNSPECIFIED'), ('UNSPECIFIED') ) ;
#279 = PRODUCT ( '19-0402-53_outokumpu', '19-0402-53_outokumpu', '', ( #280 ) ) ;
#280 = MECHANICAL_CONTEXT ( 'NONE', #270, 'mechanical' ) ;
#281 = APPLICATION_PROTOCOL_DEFINITION ( 'international standard', 'config_control_design', 1994, #270 ) ;
#282 = CALENDAR_DATE ( 2015, 11, 8 ) ;
#283 = LOCAL_TIME ( 11, 24, 35.00000000000000000, #284 ) ;
#284 = COORDINATED_UNIVERSAL_TIME_OFFSET ( 1, 0, .AHEAD. ) ;
#285 = APPROVAL_PERSON_ORGANIZATION ( #289, #287, #286 ) ;
#286 = APPROVAL_ROLE ( '' ) ;
#287 = APPROVAL ( #288, 'UNSPECIFIED' ) ;
#288 = APPROVAL_STATUS ( 'not_yet_approved' ) ;
#289 = PERSON_AND_ORGANIZATION ( #278, #318 ) ;
#290 = PRODUCT_DEFINITION_FORMATION_WITH_SPECIFIED_SOURCE ( 'ANY', '', #279, .NOT_KNOWN. ) ;
#291 = CC_DESIGN_DATE_AND_TIME_ASSIGNMENT ( #293, #292, ( #311 ) ) ;
#292 = DATE_TIME_ROLE ( 'creation_date' ) ;
#293 = DATE_AND_TIME ( #294, #295 ) ;
#294 = CALENDAR_DATE ( 2015, 11, 8 ) ;
#295 = LOCAL_TIME ( 11, 24, 35.00000000000000000, #296 ) ;
#296 = COORDINATED_UNIVERSAL_TIME_OFFSET ( 1, 0, .AHEAD. ) ;
#297 = CC_DESIGN_PERSON_AND_ORGANIZATION_ASSIGNMENT ( #299, #298, ( #311 ) ) ;
#298 = PERSON_AND_ORGANIZATION_ROLE ( 'creator' ) ;
#299 = PERSON_AND_ORGANIZATION ( #278, #318 ) ;
#300 = CC_DESIGN_APPROVAL ( #308, ( #311 ) ) ;
#301 = APPROVAL_DATE_TIME ( #302, #308 ) ;
#302 = DATE_AND_TIME ( #303, #304 ) ;
#303 = CALENDAR_DATE ( 2015, 11, 8 ) ;
#304 = LOCAL_TIME ( 11, 24, 35.00000000000000000, #305 ) ;
#305 = COORDINATED_UNIVERSAL_TIME_OFFSET ( 1, 0, .AHEAD. ) ;
#306 = APPROVAL_PERSON_ORGANIZATION ( #310, #308, #307 ) ;
#307 = APPROVAL_ROLE ( '' ) ;
#308 = APPROVAL ( #309, 'UNSPECIFIED' ) ;
#309 = APPROVAL_STATUS ( 'not_yet_approved' ) ;
#310 = PERSON_AND_ORGANIZATION ( #278, #318 ) ;
#311 = PRODUCT_DEFINITION ( 'UNKNOWN', '', #290, #312 ) ;
#312 = DESIGN_CONTEXT ( 'detailed design', #314, 'design' ) ;
#313 = APPLICATION_PROTOCOL_DEFINITION ( 'international standard', 'config_control_design', 1994, #314 ) ;
#314 = APPLICATION_CONTEXT ( 'configuration controlled 3d designs of mechanical parts and assemblies' ) ;
#315 = CC_DESIGN_PERSON_AND_ORGANIZATION_ASSIGNMENT ( #317, #316, ( #279 ) ) ;
#316 = PERSON_AND_ORGANIZATION_ROLE ( 'design_owner' ) ;
#317 = PERSON_AND_ORGANIZATION ( #278, #318 ) ;
#318 = ORGANIZATION ( 'UNSPECIFIED', 'UNSPECIFIED', '' ) ;
#319 = PRODUCT_DEFINITION_SHAPE ( 'NONE', 'NONE',  #311 ) ;
#320 = PRODUCT_RELATED_PRODUCT_CATEGORY ( 'detail', '', ( #279 ) ) ;
#321 = CC_DESIGN_SECURITY_CLASSIFICATION ( #248, ( #290 ) ) ;
#322 = CC_DESIGN_APPROVAL ( #236, ( #248 ) ) ;
#323 = APPROVAL_DATE_TIME ( #324, #236 ) ;
#324 = DATE_AND_TIME ( #325, #326 ) ;
#325 = CALENDAR_DATE ( 2015, 11, 8 ) ;
#326 = LOCAL_TIME ( 11, 24, 35.00000000000000000, #233 ) ;
#327 = DIRECTION ( 'NONE',  ( -1.000000000000000000, 0.0000000000000000000, 0.0000000000000000000 ) ) ;
#328 = DIRECTION ( 'NONE',  ( 0.0000000000000000000, 0.0000000000000000000, -1.000000000000000000 ) ) ;
#329 = AXIS2_PLACEMENT_3D ( 'NONE', #333, #328, #327 ) ;
#330 = CONICAL_SURFACE ( 'NONE', #329, 8.621924930635755000, 0.7853981633974542700 ) ;
#331 = CARTESIAN_POINT ( 'NONE',  ( 0.0000000000000000000, 8.330999999999997700, -59.70907506936424600 ) ) ;
#332 = CARTESIAN_POINT ( 'NONE',  ( -8.621924930635689300, 1.055846405223602500E-015, -3.304181524667523600E-019 ) ) ;
#333 = CARTESIAN_POINT ( 'NONE',  ( 0.0000000000000000000, 0.0000000000000000000, -60.00000000000000000 ) ) ;
#334 = FACE_OUTER_BOUND ( 'NONE', #224, .T. ) ;
#335 = DIRECTION ( 'NONE',  ( 0.0000000000000000000, 1.000000000000000000, 0.0000000000000000000 ) ) ;
#336 = DIRECTION ( 'NONE',  ( -0.0000000000000000000, 1.108921438289454000E-016, -1.000000000000000000 ) ) ;
#337 = CARTESIAN_POINT ( 'NONE',  ( 0.0000000000000000000, 3.184081677783111500E-015, -60.00000000000002800 ) ) ;
#338 = AXIS2_PLACEMENT_3D ( 'NONE', #337, #336, #335 ) ;
#339 = CARTESIAN_POINT ( 'NONE',  ( 0.0000000000000000000, 8.330999999999997700, -0.2909249306356903600 ) ) ;
#340 = CYLINDRICAL_SURFACE ( 'NONE', #338, 8.331000000000004800 ) ;
#341 = DIRECTION ( 'NONE',  ( 0.0000000000000000000, 1.000000000000000000, 0.0000000000000000000 ) ) ;
#342 = DIRECTION ( 'NONE',  ( -0.0000000000000000000, 1.108921438289454000E-016, -1.000000000000000000 ) ) ;
#343 = CARTESIAN_POINT ( 'NONE',  ( 0.0000000000000000000, 3.184081677783111500E-015, -60.00000000000002800 ) ) ;
#344 = AXIS2_PLACEMENT_3D ( 'NONE', #343, #342, #341 ) ;
#345 = FACE_OUTER_BOUND ( 'NONE', #218, .T. ) ;
#346 = CYLINDRICAL_SURFACE ( 'NONE', #344, 8.331000000000004800 ) ;
#347 = FACE_OUTER_BOUND ( 'NONE', #48, .T. ) ;
#348 = DIRECTION ( 'NONE',  ( 1.000000000000000000, 0.0000000000000000000, 0.0000000000000000000 ) ) ;
#349 = DIRECTION ( 'NONE',  ( -0.0000000000000000000, -0.0000000000000000000, 1.000000000000000000 ) ) ;
#350 = CARTESIAN_POINT ( 'NONE',  ( 0.0000000000000000000, 0.0000000000000000000, -0.2909249306356903600 ) ) ;
#351 = AXIS2_PLACEMENT_3D ( 'NONE', #350, #349, #348 ) ;
#352 = CIRCLE ( 'NONE', #351, 8.330999999999997700 ) ;
#353 = DIRECTION ( 'NONE',  ( 1.000000000000000000, 0.0000000000000000000, 0.0000000000000000000 ) ) ;
#354 = DIRECTION ( 'NONE',  ( -0.0000000000000000000, -0.0000000000000000000, 1.000000000000000000 ) ) ;
#355 = CARTESIAN_POINT ( 'NONE',  ( 0.0000000000000000000, 0.0000000000000000000, -0.2909249306356903600 ) ) ;
#356 = AXIS2_PLACEMENT_3D ( 'NONE', #355, #354, #353 ) ;
#357 = CONICAL_SURFACE ( 'NONE', #356, 8.330999999999997700, 0.7853981633974501700 ) ;
#358 = FACE_OUTER_BOUND ( 'NONE', #209, .T. ) ;
#359 = DIRECTION ( 'NONE',  ( 1.000000000000000000, 0.0000000000000000000, 0.0000000000000000000 ) ) ;
#360 = DIRECTION ( 'NONE',  ( -0.0000000000000000000, -0.0000000000000000000, 1.000000000000000000 ) ) ;
#361 = AXIS2_PLACEMENT_3D ( 'NONE', #366, #360, #359 ) ;
#362 = CIRCLE ( 'NONE', #361, 10.75000000000000000 ) ;
#363 = DIRECTION ( 'NONE',  ( -1.000000000000000000, 0.0000000000000000000, -0.0000000000000000000 ) ) ;
#364 = DIRECTION ( 'NONE',  ( 0.0000000000000000000, 0.0000000000000000000, -1.000000000000000000 ) ) ;
#365 = AXIS2_PLACEMENT_3D ( 'NONE', #367, #364, #363 ) ;
#366 = CARTESIAN_POINT ( 'NONE',  ( 0.0000000000000000000, 0.0000000000000000000, 0.0000000000000000000 ) ) ;
#367 = CARTESIAN_POINT ( 'NONE',  ( 0.0000000000000000000, 10.75000000000000000, -2.168404344971008900E-016 ) ) ;
#368 = PLANE ( 'NONE',  #365 ) ;
#369 = FACE_BOUND ( 'NONE', #205, .T. ) ;
#370 = FACE_OUTER_BOUND ( 'NONE', #201, .T. ) ;
#371 = DIRECTION ( 'NONE',  ( -0.0000000000000000000, 1.108921438289454000E-016, -1.000000000000000000 ) ) ;
#372 = VECTOR ( 'NONE', #371, 1000.000000000000000 ) ;
#373 = CARTESIAN_POINT ( 'NONE',  ( 1.020219553369423200E-015, -8.331000000000001300, -60.00000000000002800 ) ) ;
#374 = LINE ( 'NONE', #373, #372 ) ;
#375 = DIRECTION ( 'NONE',  ( 1.000000000000000000, 0.0000000000000000000, 0.0000000000000000000 ) ) ;
#376 = DIRECTION ( 'NONE',  ( -0.0000000000000000000, -0.0000000000000000000, 1.000000000000000000 ) ) ;
#377 = CARTESIAN_POINT ( 'NONE',  ( 0.0000000000000000000, 0.0000000000000000000, -0.2909249306356903600 ) ) ;
#378 = AXIS2_PLACEMENT_3D ( 'NONE', #377, #376, #375 ) ;
#379 = CIRCLE ( 'NONE', #378, 8.330999999999997700 ) ;
#380 = DIRECTION ( 'NONE',  ( 1.000000000000000000, 0.0000000000000000000, 0.0000000000000000000 ) ) ;
#381 = DIRECTION ( 'NONE',  ( -0.0000000000000000000, -0.0000000000000000000, 1.000000000000000000 ) ) ;
#382 = CARTESIAN_POINT ( 'NONE',  ( 0.0000000000000000000, 0.0000000000000000000, -4.336808689942017700E-016 ) ) ;
#383 = AXIS2_PLACEMENT_3D ( 'NONE', #382, #381, #380 ) ;
#384 = CYLINDRICAL_SURFACE ( 'NONE', #383, 10.75000000000000000 ) ;
#385 = FACE_OUTER_BOUND ( 'NONE', #193, .T. ) ;
#386 = DIRECTION ( 'NONE',  ( 1.000000000000000000, 0.0000000000000000000, 0.0000000000000000000 ) ) ;
#387 = DIRECTION ( 'NONE',  ( -0.0000000000000000000, -0.0000000000000000000, 1.000000000000000000 ) ) ;
#388 = AXIS2_PLACEMENT_3D ( 'NONE', #260, #387, #386 ) ;
#389 = CIRCLE ( 'NONE', #388, 8.621924930635689300 ) ;
ENDSEC;
END-ISO-10303-21;
