ISO-10303-21;
HEADER;
/****************************************************************
 * Generated by software with PDElib inside                    *
 * PDElib Version v51a, created Wed 07/06/2011                  *
 * ITI Transcendata (http://www.transcendata.com/)              *
 ****************************************************************/
FILE_DESCRIPTION(('Hygienic Clamp Joint-63,5x1,65'),'2;1');
FILE_NAME('E090_CC_63,5x1,65_MR95,3_L139,7_Fl77,5_00.stp','2013-09-04T15:17:46',(''),('DOCKWEILER AG'),'Autodesk Inventor 2012','Autodesk Inventor 2012','');
FILE_SCHEMA(('CONFIG_CONTROL_DESIGN'));
ENDSEC;
DATA;
#5=APPLICATION_CONTEXT('configuration controlled 3D designs of mechanical parts and assemblies');
#6=APPLICATION_PROTOCOL_DEFINITION('International Standard','ap203_configuration_controlled_3d_design_of_mechanical_parts_and_assemblies_mim_lf',2004,#5);
#7=PRODUCT_CONTEXT('',#5,'mechanical');
#8=PRODUCT('N0001_005_001','N0001_005_001',$,(#7));
#9=PRODUCT_RELATED_PRODUCT_CATEGORY('part',$,(#8));
#10=PRODUCT_DEFINITION_FORMATION('',$,#8);
#11=PRODUCT_DEFINITION_CONTEXT('part definition',#5,'design');
#12=PRODUCT_DEFINITION('',$,#10,#11);
#18=(NAMED_UNIT(*)PLANE_ANGLE_UNIT()SI_UNIT($,.RADIAN.));
#19=DIMENSIONAL_EXPONENTS(0.0,0.0,0.0,0.0,0.0,0.0,0.0);
#20=PLANE_ANGLE_MEASURE_WITH_UNIT(PLANE_ANGLE_MEASURE(0.0174532925),#18);
#24=(CONVERSION_BASED_UNIT('DEGREE',#20)NAMED_UNIT(#19)PLANE_ANGLE_UNIT());
#28=(NAMED_UNIT(*)SI_UNIT($,.STERADIAN.)SOLID_ANGLE_UNIT());
#32=(LENGTH_UNIT()NAMED_UNIT(*)SI_UNIT(.MILLI.,.METRE.));
#34=UNCERTAINTY_MEASURE_WITH_UNIT(LENGTH_MEASURE(0.01),#32,'DISTANCE_ACCURACY_VALUE','');
#36=(GEOMETRIC_REPRESENTATION_CONTEXT(3)GLOBAL_UNCERTAINTY_ASSIGNED_CONTEXT((#34))GLOBAL_UNIT_ASSIGNED_CONTEXT((#24,#28,#32))REPRESENTATION_CONTEXT('None','None'));
#37=AXIS2_PLACEMENT_3D('',#38,#39,#40);
#38=CARTESIAN_POINT('',(0.0,0.0,0.0));
#39=DIRECTION('',(0.0,0.0,1.0));
#40=DIRECTION('',(1.0,0.0,0.0));
#41=SHAPE_REPRESENTATION('',(#37,#252,#627),#36);
#42=PRODUCT_DEFINITION_SHAPE('','',#12);
#43=SHAPE_DEFINITION_REPRESENTATION(#42,#41);
#44=APPLICATION_CONTEXT('configuration controlled 3D designs of mechanical parts and assemblies');
#45=APPLICATION_PROTOCOL_DEFINITION('International Standard','ap203_configuration_controlled_3d_design_of_mechanical_parts_and_assemblies_mim_lf',2004,#44);
#46=PRODUCT_CONTEXT('',#44,'mechanical');
#47=PRODUCT('N0001_001_001_27','N0001_001_001_27',$,(#46));
#48=PRODUCT_RELATED_PRODUCT_CATEGORY('part',$,(#47));
#49=PRODUCT_DEFINITION_FORMATION('',$,#47);
#50=PRODUCT_DEFINITION_CONTEXT('part definition',#44,'design');
#51=PRODUCT_DEFINITION('',$,#49,#50);
#57=(NAMED_UNIT(*)PLANE_ANGLE_UNIT()SI_UNIT($,.RADIAN.));
#58=DIMENSIONAL_EXPONENTS(0.0,0.0,0.0,0.0,0.0,0.0,0.0);
#59=PLANE_ANGLE_MEASURE_WITH_UNIT(PLANE_ANGLE_MEASURE(0.0174532925),#57);
#63=(CONVERSION_BASED_UNIT('DEGREE',#59)NAMED_UNIT(#58)PLANE_ANGLE_UNIT());
#67=(NAMED_UNIT(*)SI_UNIT($,.STERADIAN.)SOLID_ANGLE_UNIT());
#71=(LENGTH_UNIT()NAMED_UNIT(*)SI_UNIT(.MILLI.,.METRE.));
#73=UNCERTAINTY_MEASURE_WITH_UNIT(LENGTH_MEASURE(0.01),#71,'DISTANCE_ACCURACY_VALUE','');
#75=(GEOMETRIC_REPRESENTATION_CONTEXT(3)GLOBAL_UNCERTAINTY_ASSIGNED_CONTEXT((#73))GLOBAL_UNIT_ASSIGNED_CONTEXT((#63,#67,#71))REPRESENTATION_CONTEXT('None','None'));
#76=AXIS2_PLACEMENT_3D('',#77,#78,#79);
#77=CARTESIAN_POINT('',(0.0,0.0,0.0));
#78=DIRECTION('',(0.0,0.0,1.0));
#79=DIRECTION('',(1.0,0.0,0.0));
#80=SHAPE_REPRESENTATION('',(#76),#75);
#81=PRODUCT_DEFINITION_SHAPE('','',#51);
#82=SHAPE_DEFINITION_REPRESENTATION(#81,#80);
#88=(NAMED_UNIT(*)PLANE_ANGLE_UNIT()SI_UNIT($,.RADIAN.));
#89=DIMENSIONAL_EXPONENTS(0.0,0.0,0.0,0.0,0.0,0.0,0.0);
#90=PLANE_ANGLE_MEASURE_WITH_UNIT(PLANE_ANGLE_MEASURE(0.0174532925),#88);
#94=(CONVERSION_BASED_UNIT('DEGREE',#90)NAMED_UNIT(#89)PLANE_ANGLE_UNIT());
#98=(NAMED_UNIT(*)SI_UNIT($,.STERADIAN.)SOLID_ANGLE_UNIT());
#102=(LENGTH_UNIT()NAMED_UNIT(*)SI_UNIT(.MILLI.,.METRE.));
#104=UNCERTAINTY_MEASURE_WITH_UNIT(LENGTH_MEASURE(0.000001),#102,'DISTANCE_ACCURACY_VALUE','');
#106=(GEOMETRIC_REPRESENTATION_CONTEXT(3)GLOBAL_UNCERTAINTY_ASSIGNED_CONTEXT((#104))GLOBAL_UNIT_ASSIGNED_CONTEXT((#94,#98,#102))REPRESENTATION_CONTEXT('','3D'));
#107=CARTESIAN_POINT('',(95.299999999999997,0.0,139.69999999999999));
#108=DIRECTION('',(1.0,0.0,0.0));
#109=DIRECTION('',(0.0,0.0,-1.0));
#110=AXIS2_PLACEMENT_3D('',#107,#108,#109);
#111=PLANE('',#110);
#112=CARTESIAN_POINT('',(95.299999999999997,-31.750000000000007,139.69999999999999));
#113=VERTEX_POINT('',#112);
#114=CARTESIAN_POINT('',(95.300000000000011,0.0,139.69999999999996));
#115=DIRECTION('',(-1.0,0.0,0.0));
#116=DIRECTION('',(0.0,0.0,1.0));
#117=AXIS2_PLACEMENT_3D('',#114,#115,#116);
#118=CIRCLE('',#117,31.750000000000007);
#119=EDGE_CURVE('',#113,#113,#118,.T.);
#120=ORIENTED_EDGE('',*,*,#119,.F.);
#121=EDGE_LOOP('',(#120));
#122=FACE_OUTER_BOUND('',#121,.T.);
#123=CARTESIAN_POINT('',(95.300000000000011,3.686187E-015,109.59999999999997));
#124=VERTEX_POINT('',#123);
#125=CARTESIAN_POINT('',(95.300000000000011,0.0,139.69999999999996));
#126=DIRECTION('',(-1.0,0.0,0.0));
#127=DIRECTION('',(0.0,0.0,1.0));
#128=AXIS2_PLACEMENT_3D('',#125,#126,#127);
#129=CIRCLE('',#128,30.100000000000016);
#130=EDGE_CURVE('',#124,#124,#129,.T.);
#131=ORIENTED_EDGE('',*,*,#130,.T.);
#132=EDGE_LOOP('',(#131));
#133=FACE_BOUND('',#132,.T.);
#134=ADVANCED_FACE('',(#122,#133),#111,.T.);
#135=CARTESIAN_POINT('',(95.300000000000011,0.0,44.399999999999984));
#136=DIRECTION('',(0.0,1.0,0.0));
#137=DIRECTION('',(0.0,0.0,1.0));
#138=AXIS2_PLACEMENT_3D('',#135,#136,#137);
#139=TOROIDAL_SURFACE('',#138,95.300000000000011,30.100000000000016);
#140=ORIENTED_EDGE('',*,*,#130,.F.);
#141=EDGE_LOOP('',(#140));
#142=FACE_OUTER_BOUND('',#141,.T.);
#143=CARTESIAN_POINT('',(30.100000000000016,3.686187E-015,44.399999999999984));
#144=VERTEX_POINT('',#143);
#145=CARTESIAN_POINT('',(2.660915E-016,0.0,44.399999999999984));
#146=DIRECTION('',(0.0,0.0,-1.0));
#147=DIRECTION('',(-1.0,0.0,0.0));
#148=AXIS2_PLACEMENT_3D('',#145,#146,#147);
#149=CIRCLE('',#148,30.100000000000016);
#150=EDGE_CURVE('',#144,#144,#149,.T.);
#151=ORIENTED_EDGE('',*,*,#150,.T.);
#152=EDGE_LOOP('',(#151));
#153=FACE_BOUND('',#152,.T.);
#154=ADVANCED_FACE('',(#142,#153),#139,.F.);
#155=CARTESIAN_POINT('',(0.0,0.0,0.0));
#156=DIRECTION('',(5.993052E-018,0.0,1.0));
#157=DIRECTION('',(-1.0,0.0,0.0));
#158=AXIS2_PLACEMENT_3D('',#155,#156,#157);
#159=CYLINDRICAL_SURFACE('',#158,30.100000000000016);
#160=ORIENTED_EDGE('',*,*,#150,.F.);
#161=EDGE_LOOP('',(#160));
#162=FACE_OUTER_BOUND('',#161,.T.);
#163=CARTESIAN_POINT('',(30.100000000000016,3.686187E-015,0.0));
#164=VERTEX_POINT('',#163);
#165=CARTESIAN_POINT('',(0.0,0.0,0.0));
#166=DIRECTION('',(0.0,0.0,1.0));
#167=DIRECTION('',(-1.0,0.0,0.0));
#168=AXIS2_PLACEMENT_3D('',#165,#166,#167);
#169=CIRCLE('',#168,30.100000000000016);
#170=EDGE_CURVE('',#164,#164,#169,.T.);
#171=ORIENTED_EDGE('',*,*,#170,.F.);
#172=EDGE_LOOP('',(#171));
#173=FACE_BOUND('',#172,.T.);
#174=ADVANCED_FACE('',(#162,#173),#159,.F.);
#175=CARTESIAN_POINT('',(95.300000000000011,0.0,44.399999999999984));
#176=DIRECTION('',(0.0,1.0,0.0));
#177=DIRECTION('',(0.0,0.0,1.0));
#178=AXIS2_PLACEMENT_3D('',#175,#176,#177);
#179=TOROIDAL_SURFACE('',#178,95.300000000000011,31.750000000000007);
#180=ORIENTED_EDGE('',*,*,#119,.T.);
#181=EDGE_LOOP('',(#180));
#182=FACE_OUTER_BOUND('',#181,.T.);
#183=CARTESIAN_POINT('',(31.750000000000007,3.888254E-015,44.399999999999984));
#184=VERTEX_POINT('',#183);
#185=CARTESIAN_POINT('',(2.660915E-016,0.0,44.399999999999984));
#186=DIRECTION('',(0.0,0.0,-1.0));
#187=DIRECTION('',(-1.0,0.0,0.0));
#188=AXIS2_PLACEMENT_3D('',#185,#186,#187);
#189=CIRCLE('',#188,31.750000000000007);
#190=EDGE_CURVE('',#184,#184,#189,.T.);
#191=ORIENTED_EDGE('',*,*,#190,.F.);
#192=EDGE_LOOP('',(#191));
#193=FACE_BOUND('',#192,.T.);
#194=ADVANCED_FACE('',(#182,#193),#179,.T.);
#195=CARTESIAN_POINT('',(0.0,0.0,0.0));
#196=DIRECTION('',(5.993052E-018,0.0,1.0));
#197=DIRECTION('',(-1.0,0.0,0.0));
#198=AXIS2_PLACEMENT_3D('',#195,#196,#197);
#199=CYLINDRICAL_SURFACE('',#198,31.750000000000007);
#200=ORIENTED_EDGE('',*,*,#190,.T.);
#201=EDGE_LOOP('',(#200));
#202=FACE_OUTER_BOUND('',#201,.T.);
#203=CARTESIAN_POINT('',(31.750000000000007,3.888254E-015,0.0));
#204=VERTEX_POINT('',#203);
#205=CARTESIAN_POINT('',(0.0,0.0,0.0));
#206=DIRECTION('',(0.0,0.0,-1.0));
#207=DIRECTION('',(-1.0,0.0,0.0));
#208=AXIS2_PLACEMENT_3D('',#205,#206,#207);
#209=CIRCLE('',#208,31.750000000000007);
#210=EDGE_CURVE('',#204,#204,#209,.T.);
#211=ORIENTED_EDGE('',*,*,#210,.F.);
#212=EDGE_LOOP('',(#211));
#213=FACE_BOUND('',#212,.T.);
#214=ADVANCED_FACE('',(#202,#213),#199,.T.);
#215=CARTESIAN_POINT('',(0.0,0.0,0.0));
#216=DIRECTION('',(0.0,0.0,-1.0));
#217=DIRECTION('',(-1.0,0.0,0.0));
#218=AXIS2_PLACEMENT_3D('',#215,#216,#217);
#219=PLANE('',#218);
#220=ORIENTED_EDGE('',*,*,#210,.T.);
#221=EDGE_LOOP('',(#220));
#222=FACE_OUTER_BOUND('',#221,.T.);
#223=ORIENTED_EDGE('',*,*,#170,.T.);
#224=EDGE_LOOP('',(#223));
#225=FACE_BOUND('',#224,.T.);
#226=ADVANCED_FACE('',(#222,#225),#219,.T.);
#227=CLOSED_SHELL('',(#134,#154,#174,#194,#214,#226));
#228=MANIFOLD_SOLID_BREP('',#227);
#229=COLOUR_RGB('',0.639216005802155,0.639216005802155,0.686275005340576);
#230=FILL_AREA_STYLE_COLOUR('',#229);
#231=FILL_AREA_STYLE('',(#230));
#232=SURFACE_STYLE_FILL_AREA(#231);
#233=SURFACE_SIDE_STYLE('',(#232));
#234=SURFACE_STYLE_USAGE(.BOTH.,#233);
#235=PRESENTATION_STYLE_ASSIGNMENT((#234));
#236=STYLED_ITEM('',(#235),#154);
#237=STYLED_ITEM('',(#235),#174);
#238=STYLED_ITEM('',(#235),#194);
#239=STYLED_ITEM('',(#235),#214);
#240=STYLED_ITEM('',(#235),#226);
#241=MECHANICAL_DESIGN_GEOMETRIC_PRESENTATION_REPRESENTATION('',(#236,#237,#238,#239,#240,#249,#624),#106);
#242=COLOUR_RGB('Metall - Stahl',0.639216005802155,0.639216005802155,0.686275005340576);
#243=FILL_AREA_STYLE_COLOUR('Metall - Stahl',#242);
#244=FILL_AREA_STYLE('Metall - Stahl',(#243));
#245=SURFACE_STYLE_FILL_AREA(#244);
#246=SURFACE_SIDE_STYLE('Metall - Stahl',(#245));
#247=SURFACE_STYLE_USAGE(.BOTH.,#246);
#248=PRESENTATION_STYLE_ASSIGNMENT((#247));
#249=STYLED_ITEM('',(#248),#228);
#250=ADVANCED_BREP_SHAPE_REPRESENTATION('ABSR',(#228),#75);
#251=SHAPE_REPRESENTATION_RELATIONSHIP('SRR','None',#250,#80);
#252=AXIS2_PLACEMENT_3D('',#253,#254,#255);
#253=CARTESIAN_POINT('',(0.0,0.0,0.0));
#254=DIRECTION('',(0.0,0.0,1.0));
#255=DIRECTION('',(1.0,0.0,0.0));
#256=NEXT_ASSEMBLY_USAGE_OCCURRENCE('N0001_001_001_27_1:1','N0001_001_001_27_1:1','N0001_001_001_27_1:1',#12,#51,'N0001_001_001_27_1:1');
#257=PRODUCT_DEFINITION_SHAPE('N0001_001_001_27_1:1','N0001_001_001_27_1:1',#256);
#258=ITEM_DEFINED_TRANSFORMATION('N0001_001_001_27_1:1','N0001_001_001_27_1:1',#76,#252);
#262=(REPRESENTATION_RELATIONSHIP('N0001_001_001_27_1:1','N0001_001_001_27_1:1',#80,#41)REPRESENTATION_RELATIONSHIP_WITH_TRANSFORMATION(#258)SHAPE_REPRESENTATION_RELATIONSHIP());
#263=CONTEXT_DEPENDENT_SHAPE_REPRESENTATION(#262,#257);
#264=APPLICATION_CONTEXT('configuration controlled 3D designs of mechanical parts and assemblies');
#265=APPLICATION_PROTOCOL_DEFINITION('International Standard','ap203_configuration_controlled_3d_design_of_mechanical_parts_and_assemblies_mim_lf',2004,#264);
#266=PRODUCT_CONTEXT('',#264,'mechanical');
#267=PRODUCT('N0003_003_001_74','N0003_003_001_74',$,(#266));
#268=PRODUCT_RELATED_PRODUCT_CATEGORY('part',$,(#267));
#269=PRODUCT_DEFINITION_FORMATION('',$,#267);
#270=PRODUCT_DEFINITION_CONTEXT('part definition',#264,'design');
#271=PRODUCT_DEFINITION('',$,#269,#270);
#277=(NAMED_UNIT(*)PLANE_ANGLE_UNIT()SI_UNIT($,.RADIAN.));
#278=DIMENSIONAL_EXPONENTS(0.0,0.0,0.0,0.0,0.0,0.0,0.0);
#279=PLANE_ANGLE_MEASURE_WITH_UNIT(PLANE_ANGLE_MEASURE(0.0174532925),#277);
#283=(CONVERSION_BASED_UNIT('DEGREE',#279)NAMED_UNIT(#278)PLANE_ANGLE_UNIT());
#287=(NAMED_UNIT(*)SI_UNIT($,.STERADIAN.)SOLID_ANGLE_UNIT());
#291=(LENGTH_UNIT()NAMED_UNIT(*)SI_UNIT(.MILLI.,.METRE.));
#293=UNCERTAINTY_MEASURE_WITH_UNIT(LENGTH_MEASURE(0.01),#291,'DISTANCE_ACCURACY_VALUE','');
#295=(GEOMETRIC_REPRESENTATION_CONTEXT(3)GLOBAL_UNCERTAINTY_ASSIGNED_CONTEXT((#293))GLOBAL_UNIT_ASSIGNED_CONTEXT((#283,#287,#291))REPRESENTATION_CONTEXT('None','None'));
#296=AXIS2_PLACEMENT_3D('',#297,#298,#299);
#297=CARTESIAN_POINT('',(0.0,0.0,0.0));
#298=DIRECTION('',(0.0,0.0,1.0));
#299=DIRECTION('',(1.0,0.0,0.0));
#300=SHAPE_REPRESENTATION('',(#296),#295);
#301=PRODUCT_DEFINITION_SHAPE('','',#271);
#302=SHAPE_DEFINITION_REPRESENTATION(#301,#300);
#308=(NAMED_UNIT(*)PLANE_ANGLE_UNIT()SI_UNIT($,.RADIAN.));
#309=DIMENSIONAL_EXPONENTS(0.0,0.0,0.0,0.0,0.0,0.0,0.0);
#310=PLANE_ANGLE_MEASURE_WITH_UNIT(PLANE_ANGLE_MEASURE(0.0174532925),#308);
#314=(CONVERSION_BASED_UNIT('DEGREE',#310)NAMED_UNIT(#309)PLANE_ANGLE_UNIT());
#318=(NAMED_UNIT(*)SI_UNIT($,.STERADIAN.)SOLID_ANGLE_UNIT());
#322=(LENGTH_UNIT()NAMED_UNIT(*)SI_UNIT(.MILLI.,.METRE.));
#324=UNCERTAINTY_MEASURE_WITH_UNIT(LENGTH_MEASURE(0.000001),#322,'DISTANCE_ACCURACY_VALUE','');
#326=(GEOMETRIC_REPRESENTATION_CONTEXT(3)GLOBAL_UNCERTAINTY_ASSIGNED_CONTEXT((#324))GLOBAL_UNIT_ASSIGNED_CONTEXT((#314,#318,#322))REPRESENTATION_CONTEXT('','3D'));
#327=CARTESIAN_POINT('',(30.925000000000008,12.700000000000005,0.0));
#328=DIRECTION('',(0.0,1.0,0.0));
#329=DIRECTION('',(0.0,0.0,1.0));
#330=AXIS2_PLACEMENT_3D('',#327,#328,#329);
#331=PLANE('',#330);
#332=CARTESIAN_POINT('',(31.750000000000007,12.700000000000005,0.0));
#333=VERTEX_POINT('',#332);
#334=CARTESIAN_POINT('',(0.0,12.700000000000005,0.0));
#335=DIRECTION('',(0.0,-1.0,0.0));
#336=DIRECTION('',(1.0,0.0,0.0));
#337=AXIS2_PLACEMENT_3D('',#334,#335,#336);
#338=CIRCLE('',#337,31.750000000000007);
#339=EDGE_CURVE('',#333,#333,#338,.T.);
#340=ORIENTED_EDGE('',*,*,#339,.F.);
#341=EDGE_LOOP('',(#340));
#342=FACE_OUTER_BOUND('',#341,.T.);
#343=CARTESIAN_POINT('',(30.100000000000009,12.700000000000005,0.0));
#344=VERTEX_POINT('',#343);
#345=CARTESIAN_POINT('',(0.0,12.700000000000005,0.0));
#346=DIRECTION('',(0.0,-1.0,0.0));
#347=DIRECTION('',(1.0,0.0,0.0));
#348=AXIS2_PLACEMENT_3D('',#345,#346,#347);
#349=CIRCLE('',#348,30.100000000000009);
#350=EDGE_CURVE('',#344,#344,#349,.T.);
#351=ORIENTED_EDGE('',*,*,#350,.T.);
#352=EDGE_LOOP('',(#351));
#353=FACE_BOUND('',#352,.T.);
#354=ADVANCED_FACE('',(#342,#353),#331,.T.);
#355=CARTESIAN_POINT('',(0.0,9.749103358141419,0.0));
#356=DIRECTION('',(0.0,-1.0,0.0));
#357=DIRECTION('',(1.0,0.0,0.0));
#358=AXIS2_PLACEMENT_3D('',#355,#356,#357);
#359=CYLINDRICAL_SURFACE('',#358,31.750000000000007);
#360=CARTESIAN_POINT('',(31.750000000000011,6.798206716282832,0.0));
#361=VERTEX_POINT('',#360);
#362=CARTESIAN_POINT('',(0.0,6.798206716282832,0.0));
#363=DIRECTION('',(0.0,-1.0,0.0));
#364=DIRECTION('',(1.0,0.0,0.0));
#365=AXIS2_PLACEMENT_3D('',#362,#363,#364);
#366=CIRCLE('',#365,31.750000000000011);
#367=EDGE_CURVE('',#361,#361,#366,.T.);
#368=ORIENTED_EDGE('',*,*,#367,.F.);
#369=EDGE_LOOP('',(#368));
#370=FACE_OUTER_BOUND('',#369,.T.);
#371=ORIENTED_EDGE('',*,*,#339,.T.);
#372=EDGE_LOOP('',(#371));
#373=FACE_BOUND('',#372,.T.);
#374=ADVANCED_FACE('',(#370,#373),#359,.T.);
#375=CARTESIAN_POINT('',(0.0,6.798206716282833,0.0));
#376=DIRECTION('',(0.0,-1.0,0.0));
#377=DIRECTION('',(0.0,0.0,-1.0));
#378=AXIS2_PLACEMENT_3D('',#375,#376,#377);
#379=TOROIDAL_SURFACE('',#378,33.750000000000014,2.0);
#380=CARTESIAN_POINT('',(33.065959713348676,4.918821474711017,0.0));
#381=VERTEX_POINT('',#380);
#382=CARTESIAN_POINT('',(0.0,4.918821474711017,0.0));
#383=DIRECTION('',(0.0,-1.0,0.0));
#384=DIRECTION('',(1.0,0.0,0.0));
#385=AXIS2_PLACEMENT_3D('',#382,#383,#384);
#386=CIRCLE('',#385,33.065959713348676);
#387=EDGE_CURVE('',#381,#381,#386,.T.);
#388=ORIENTED_EDGE('',*,*,#387,.F.);
#389=EDGE_LOOP('',(#388));
#390=FACE_OUTER_BOUND('',#389,.T.);
#391=ORIENTED_EDGE('',*,*,#367,.T.);
#392=EDGE_LOOP('',(#391));
#393=FACE_BOUND('',#392,.T.);
#394=ADVANCED_FACE('',(#390,#393),#379,.F.);
#395=CARTESIAN_POINT('',(0.0,3.98020477038599,0.0));
#396=DIRECTION('',(0.0,-1.0,0.0));
#397=DIRECTION('',(1.0,0.0,0.0));
#398=AXIS2_PLACEMENT_3D('',#395,#396,#397);
#399=CONICAL_SURFACE('',#398,35.644787914004603,70.000000000000014);
#400=CARTESIAN_POINT('',(38.22361611466053,3.041588066060963,0.0));
#401=VERTEX_POINT('',#400);
#402=CARTESIAN_POINT('',(0.0,3.041588066060963,0.0));
#403=DIRECTION('',(0.0,-1.0,0.0));
#404=DIRECTION('',(1.0,0.0,0.0));
#405=AXIS2_PLACEMENT_3D('',#402,#403,#404);
#406=CIRCLE('',#405,38.22361611466053);
#407=EDGE_CURVE('',#401,#401,#406,.T.);
#408=ORIENTED_EDGE('',*,*,#407,.F.);
#409=EDGE_LOOP('',(#408));
#410=FACE_OUTER_BOUND('',#409,.T.);
#411=ORIENTED_EDGE('',*,*,#387,.T.);
#412=EDGE_LOOP('',(#411));
#413=FACE_BOUND('',#412,.T.);
#414=ADVANCED_FACE('',(#410,#413),#399,.T.);
#415=CARTESIAN_POINT('',(0.0,2.289833969432237,0.0));
#416=DIRECTION('',(0.0,-1.0,0.0));
#417=DIRECTION('',(0.0,0.0,-1.0));
#418=AXIS2_PLACEMENT_3D('',#415,#416,#417);
#419=TOROIDAL_SURFACE('',#418,37.950000000000003,0.8);
#420=CARTESIAN_POINT('',(38.749999999999993,2.289833969432237,0.0));
#421=VERTEX_POINT('',#420);
#422=CARTESIAN_POINT('',(0.0,2.289833969432237,0.0));
#423=DIRECTION('',(0.0,-1.0,0.0));
#424=DIRECTION('',(1.0,0.0,0.0));
#425=AXIS2_PLACEMENT_3D('',#422,#423,#424);
#426=CIRCLE('',#425,38.749999999999993);
#427=EDGE_CURVE('',#421,#421,#426,.T.);
#428=ORIENTED_EDGE('',*,*,#427,.F.);
#429=EDGE_LOOP('',(#428));
#430=FACE_OUTER_BOUND('',#429,.T.);
#431=ORIENTED_EDGE('',*,*,#407,.T.);
#432=EDGE_LOOP('',(#431));
#433=FACE_BOUND('',#432,.T.);
#434=ADVANCED_FACE('',(#430,#433),#419,.T.);
#435=CARTESIAN_POINT('',(0.0,1.144916984716121,0.0));
#436=DIRECTION('',(0.0,-1.0,0.0));
#437=DIRECTION('',(1.0,0.0,0.0));
#438=AXIS2_PLACEMENT_3D('',#435,#436,#437);
#439=CYLINDRICAL_SURFACE('',#438,38.75);
#440=CARTESIAN_POINT('',(38.75,3.330669E-015,0.0));
#441=VERTEX_POINT('',#440);
#442=CARTESIAN_POINT('',(0.0,3.330669E-015,0.0));
#443=DIRECTION('',(0.0,-1.0,0.0));
#444=DIRECTION('',(1.0,0.0,0.0));
#445=AXIS2_PLACEMENT_3D('',#442,#443,#444);
#446=CIRCLE('',#445,38.75);
#447=EDGE_CURVE('',#441,#441,#446,.T.);
#448=ORIENTED_EDGE('',*,*,#447,.F.);
#449=EDGE_LOOP('',(#448));
#450=FACE_OUTER_BOUND('',#449,.T.);
#451=ORIENTED_EDGE('',*,*,#427,.T.);
#452=EDGE_LOOP('',(#451));
#453=FACE_BOUND('',#452,.T.);
#454=ADVANCED_FACE('',(#450,#453),#439,.T.);
#455=CARTESIAN_POINT('',(38.001465414163384,3.053113E-015,0.0));
#456=DIRECTION('',(0.0,-1.0,0.0));
#457=DIRECTION('',(0.0,0.0,-1.0));
#458=AXIS2_PLACEMENT_3D('',#455,#456,#457);
#459=PLANE('',#458);
#460=ORIENTED_EDGE('',*,*,#447,.T.);
#461=EDGE_LOOP('',(#460));
#462=FACE_OUTER_BOUND('',#461,.T.);
#463=CARTESIAN_POINT('',(37.252930828326761,2.775558E-015,0.0));
#464=VERTEX_POINT('',#463);
#465=CARTESIAN_POINT('',(0.0,2.775558E-015,0.0));
#466=DIRECTION('',(0.0,-1.0,0.0));
#467=DIRECTION('',(1.0,0.0,0.0));
#468=AXIS2_PLACEMENT_3D('',#465,#466,#467);
#469=CIRCLE('',#468,37.252930828326761);
#470=EDGE_CURVE('',#464,#464,#469,.T.);
#471=ORIENTED_EDGE('',*,*,#470,.F.);
#472=EDGE_LOOP('',(#471));
#473=FACE_BOUND('',#472,.T.);
#474=ADVANCED_FACE('',(#462,#473),#459,.T.);
#475=CARTESIAN_POINT('',(0.0,0.800000000000003,0.0));
#476=DIRECTION('',(0.0,-1.0,0.0));
#477=DIRECTION('',(0.0,0.0,-1.0));
#478=AXIS2_PLACEMENT_3D('',#475,#476,#477);
#479=TOROIDAL_SURFACE('',#478,37.252930828326761,0.8);
#480=CARTESIAN_POINT('',(36.516526945564806,0.487415097208584,0.0));
#481=VERTEX_POINT('',#480);
#482=CARTESIAN_POINT('',(0.0,0.487415097208584,0.0));
#483=DIRECTION('',(0.0,-1.0,0.0));
#484=DIRECTION('',(1.0,0.0,0.0));
#485=AXIS2_PLACEMENT_3D('',#482,#483,#484);
#486=CIRCLE('',#485,36.516526945564806);
#487=EDGE_CURVE('',#481,#481,#486,.T.);
#488=ORIENTED_EDGE('',*,*,#487,.F.);
#489=EDGE_LOOP('',(#488));
#490=FACE_OUTER_BOUND('',#489,.T.);
#491=ORIENTED_EDGE('',*,*,#470,.T.);
#492=EDGE_LOOP('',(#491));
#493=FACE_BOUND('',#492,.T.);
#494=ADVANCED_FACE('',(#490,#493),#479,.T.);
#495=CARTESIAN_POINT('',(0.0,0.678146225697855,0.0));
#496=DIRECTION('',(0.0,-1.0,0.0));
#497=DIRECTION('',(1.0,0.0,0.0));
#498=AXIS2_PLACEMENT_3D('',#495,#496,#497);
#499=CONICAL_SURFACE('',#498,36.435566384853871,23.000000000000714);
#500=CARTESIAN_POINT('',(36.354605824142936,0.868877354187125,0.0));
#501=VERTEX_POINT('',#500);
#502=CARTESIAN_POINT('',(0.0,0.868877354187125,0.0));
#503=DIRECTION('',(0.0,-1.0,0.0));
#504=DIRECTION('',(1.0,0.0,0.0));
#505=AXIS2_PLACEMENT_3D('',#502,#503,#504);
#506=CIRCLE('',#505,36.354605824142936);
#507=EDGE_CURVE('',#501,#501,#506,.T.);
#508=ORIENTED_EDGE('',*,*,#507,.F.);
#509=EDGE_LOOP('',(#508));
#510=FACE_OUTER_BOUND('',#509,.T.);
#511=ORIENTED_EDGE('',*,*,#487,.T.);
#512=EDGE_LOOP('',(#511));
#513=FACE_BOUND('',#512,.T.);
#514=ADVANCED_FACE('',(#510,#513),#499,.F.);
#515=CARTESIAN_POINT('',(0.0,0.399999999999996,0.0));
#516=DIRECTION('',(0.0,-1.0,0.0));
#517=DIRECTION('',(0.0,0.0,-1.0));
#518=AXIS2_PLACEMENT_3D('',#515,#516,#517);
#519=TOROIDAL_SURFACE('',#518,35.25,1.2);
#520=CARTESIAN_POINT('',(34.145394175857078,0.868877354187123,0.0));
#521=VERTEX_POINT('',#520);
#522=CARTESIAN_POINT('',(0.0,0.868877354187123,0.0));
#523=DIRECTION('',(0.0,-1.0,0.0));
#524=DIRECTION('',(1.0,0.0,0.0));
#525=AXIS2_PLACEMENT_3D('',#522,#523,#524);
#526=CIRCLE('',#525,34.145394175857078);
#527=EDGE_CURVE('',#521,#521,#526,.T.);
#528=ORIENTED_EDGE('',*,*,#527,.F.);
#529=EDGE_LOOP('',(#528));
#530=FACE_OUTER_BOUND('',#529,.T.);
#531=ORIENTED_EDGE('',*,*,#507,.T.);
#532=EDGE_LOOP('',(#531));
#533=FACE_BOUND('',#532,.T.);
#534=ADVANCED_FACE('',(#530,#533),#519,.F.);
#535=CARTESIAN_POINT('',(0.0,0.678146225697848,0.0));
#536=DIRECTION('',(0.0,1.0,0.0));
#537=DIRECTION('',(1.0,0.0,0.0));
#538=AXIS2_PLACEMENT_3D('',#535,#536,#537);
#539=CONICAL_SURFACE('',#538,34.064433615146143,23.000000000000234);
#540=CARTESIAN_POINT('',(33.983473054435208,0.487415097208573,0.0));
#541=VERTEX_POINT('',#540);
#542=CARTESIAN_POINT('',(0.0,0.487415097208573,0.0));
#543=DIRECTION('',(0.0,-1.0,0.0));
#544=DIRECTION('',(1.0,0.0,0.0));
#545=AXIS2_PLACEMENT_3D('',#542,#543,#544);
#546=CIRCLE('',#545,33.983473054435208);
#547=EDGE_CURVE('',#541,#541,#546,.T.);
#548=ORIENTED_EDGE('',*,*,#547,.F.);
#549=EDGE_LOOP('',(#548));
#550=FACE_OUTER_BOUND('',#549,.T.);
#551=ORIENTED_EDGE('',*,*,#527,.T.);
#552=EDGE_LOOP('',(#551));
#553=FACE_BOUND('',#552,.T.);
#554=ADVANCED_FACE('',(#550,#553),#539,.T.);
#555=CARTESIAN_POINT('',(0.0,0.799999999999993,0.0));
#556=DIRECTION('',(0.0,-1.0,0.0));
#557=DIRECTION('',(0.0,0.0,-1.0));
#558=AXIS2_PLACEMENT_3D('',#555,#556,#557);
#559=TOROIDAL_SURFACE('',#558,33.247069171673253,0.8);
#560=CARTESIAN_POINT('',(33.247069171673253,-6.938894E-015,0.0));
#561=VERTEX_POINT('',#560);
#562=CARTESIAN_POINT('',(0.0,-6.938894E-015,0.0));
#563=DIRECTION('',(0.0,-1.0,0.0));
#564=DIRECTION('',(1.0,0.0,0.0));
#565=AXIS2_PLACEMENT_3D('',#562,#563,#564);
#566=CIRCLE('',#565,33.247069171673253);
#567=EDGE_CURVE('',#561,#561,#566,.T.);
#568=ORIENTED_EDGE('',*,*,#567,.F.);
#569=EDGE_LOOP('',(#568));
#570=FACE_OUTER_BOUND('',#569,.T.);
#571=ORIENTED_EDGE('',*,*,#547,.T.);
#572=EDGE_LOOP('',(#571));
#573=FACE_BOUND('',#572,.T.);
#574=ADVANCED_FACE('',(#570,#573),#559,.T.);
#575=CARTESIAN_POINT('',(31.673534585836627,-6.453171E-015,0.0));
#576=DIRECTION('',(0.0,-1.0,0.0));
#577=DIRECTION('',(0.0,0.0,-1.0));
#578=AXIS2_PLACEMENT_3D('',#575,#576,#577);
#579=PLANE('',#578);
#580=ORIENTED_EDGE('',*,*,#567,.T.);
#581=EDGE_LOOP('',(#580));
#582=FACE_OUTER_BOUND('',#581,.T.);
#583=CARTESIAN_POINT('',(30.100000000000012,-5.967449E-015,0.0));
#584=VERTEX_POINT('',#583);
#585=CARTESIAN_POINT('',(0.0,-5.967449E-015,0.0));
#586=DIRECTION('',(0.0,-1.0,0.0));
#587=DIRECTION('',(1.0,0.0,0.0));
#588=AXIS2_PLACEMENT_3D('',#585,#586,#587);
#589=CIRCLE('',#588,30.100000000000012);
#590=EDGE_CURVE('',#584,#584,#589,.T.);
#591=ORIENTED_EDGE('',*,*,#590,.F.);
#592=EDGE_LOOP('',(#591));
#593=FACE_BOUND('',#592,.T.);
#594=ADVANCED_FACE('',(#582,#593),#579,.T.);
#595=CARTESIAN_POINT('',(0.0,6.349999999999999,0.0));
#596=DIRECTION('',(0.0,-1.0,0.0));
#597=DIRECTION('',(1.0,0.0,0.0));
#598=AXIS2_PLACEMENT_3D('',#595,#596,#597);
#599=CYLINDRICAL_SURFACE('',#598,30.100000000000009);
#600=ORIENTED_EDGE('',*,*,#350,.F.);
#601=EDGE_LOOP('',(#600));
#602=FACE_OUTER_BOUND('',#601,.T.);
#603=ORIENTED_EDGE('',*,*,#590,.T.);
#604=EDGE_LOOP('',(#603));
#605=FACE_BOUND('',#604,.T.);
#606=ADVANCED_FACE('',(#602,#605),#599,.F.);
#607=CLOSED_SHELL('',(#354,#374,#394,#414,#434,#454,#474,#494,#514,#534,#554,#574,#594,#606));
#608=MANIFOLD_SOLID_BREP('Volumenk\S\vrper1',#607);
#609=STYLED_ITEM('',(#235),#354);
#610=STYLED_ITEM('',(#235),#374);
#611=STYLED_ITEM('',(#235),#394);
#612=STYLED_ITEM('',(#235),#414);
#613=STYLED_ITEM('',(#235),#434);
#614=STYLED_ITEM('',(#235),#454);
#615=STYLED_ITEM('',(#235),#474);
#616=STYLED_ITEM('',(#235),#494);
#617=STYLED_ITEM('',(#235),#514);
#618=STYLED_ITEM('',(#235),#534);
#619=STYLED_ITEM('',(#235),#554);
#620=STYLED_ITEM('',(#235),#574);
#621=STYLED_ITEM('',(#235),#594);
#622=STYLED_ITEM('',(#235),#606);
#623=MECHANICAL_DESIGN_GEOMETRIC_PRESENTATION_REPRESENTATION('',(#609,#610,#611,#612,#613,#614,#615,#616,#617,#618,#619,#620,#621,#622),#326);
#624=STYLED_ITEM('',(#248),#608);
#625=ADVANCED_BREP_SHAPE_REPRESENTATION('ABSR',(#608),#295);
#626=SHAPE_REPRESENTATION_RELATIONSHIP('SRR','None',#625,#300);
#627=AXIS2_PLACEMENT_3D('',#628,#629,#630);
#628=CARTESIAN_POINT('',(108.0,5.208584E-015,139.69999999999999));
#629=DIRECTION('',(-1.104097E-015,0.361027976644002,0.932554985017147));
#630=DIRECTION('',(1.282158E-015,0.932554985017147,-0.361027976644002));
#631=NEXT_ASSEMBLY_USAGE_OCCURRENCE('N0003_003_001_74:1','N0003_003_001_74:1','N0003_003_001_74:1',#12,#271,'N0003_003_001_74:1');
#632=PRODUCT_DEFINITION_SHAPE('N0003_003_001_74:1','N0003_003_001_74:1',#631);
#633=ITEM_DEFINED_TRANSFORMATION('N0003_003_001_74:1','N0003_003_001_74:1',#296,#627);
#637=(REPRESENTATION_RELATIONSHIP('N0003_003_001_74:1','N0003_003_001_74:1',#300,#41)REPRESENTATION_RELATIONSHIP_WITH_TRANSFORMATION(#633)SHAPE_REPRESENTATION_RELATIONSHIP());
#638=CONTEXT_DEPENDENT_SHAPE_REPRESENTATION(#637,#632);
ENDSEC;
END-ISO-10303-21;
