ISO-10303-21;
HEADER;
FILE_DESCRIPTION (( 'STEP AP203' ),
    '1' );
FILE_NAME ('3D_M8012_DN50_17481135.STEP',
    '2024-09-03T14:08:18',
    ( '' ),
    ( '' ),
    'SwSTEP 2.0',
    'SolidWorks 2024',
    '' );
FILE_SCHEMA (( 'CONFIG_CONTROL_DESIGN' ));
ENDSEC;

DATA;
#1 = CARTESIAN_POINT ( 'NONE',  ( 24.50000000000000711, 2817.965330118411202, 3.000384657911014680E-15 ) ) ;
#2 = AXIS2_PLACEMENT_3D ( 'NONE', #79, #78, #265 ) ;
#3 = CIRCLE ( 'NONE', #229, 24.49999999999999289 ) ;
#4 = EDGE_LOOP ( 'NONE', ( #262, #359, #40, #400 ) ) ;
#5 = VERTEX_POINT ( 'NONE', #235 ) ;
#6 = APPROVAL_ROLE ( '' ) ;
#7 = VERTEX_POINT ( 'NONE', #266 ) ;
#8 = ORIENTED_EDGE ( 'NONE', *, *, #292, .F. ) ;
#9 = PERSON_AND_ORGANIZATION_ROLE ( 'creator' ) ;
#10 = ORIENTED_EDGE ( 'NONE', *, *, #292, .T. ) ;
#11 = LOCAL_TIME ( 16, 8, 18.00000000000000000, #288 ) ;
#12 = APPROVAL_DATE_TIME ( #285, #399 ) ;
#13 = ORIENTED_EDGE ( 'NONE', *, *, #393, .F. ) ;
#14 = ADVANCED_BREP_SHAPE_REPRESENTATION ( '3D_M8012_DN50_17481135', ( #401, #256 ), #313 ) ;
#15 = CARTESIAN_POINT ( 'NONE',  ( 4.286263797015736496E-15, -19.00000000000000355, 0.000000000000000000 ) ) ;
#16 = CARTESIAN_POINT ( 'NONE',  ( 26.50000000000001066, 2817.965330118411202, 3.245314017740485370E-15 ) ) ;
#17 = CARTESIAN_POINT ( 'NONE',  ( -26.50000000000000000, 1.922475952907731989, 0.000000000000000000 ) ) ;
#18 = DIRECTION ( 'NONE',  ( -1.000000000000000000, 8.850629979473505395E-18, 0.000000000000000000 ) ) ;
#19 = APPROVAL ( #350, 'UNSPECIFIED' ) ;
#20 = DIRECTION ( 'NONE',  ( -1.000000000000000000, 0.000000000000000000, 0.000000000000000000 ) ) ;
#21 = DIRECTION ( 'NONE',  ( -1.000000000000000000, 0.000000000000000000, 0.000000000000000000 ) ) ;
#22 = CARTESIAN_POINT ( 'NONE',  ( 1.387778780781445676E-14, 2817.965330118411202, 0.000000000000000000 ) ) ;
#23 = AXIS2_PLACEMENT_3D ( 'NONE', #25, #144, #307 ) ;
#24 = PRODUCT_DEFINITION_FORMATION_WITH_SPECIFIED_SOURCE ( 'ANY', '', #72, .NOT_KNOWN. ) ;
#25 = CARTESIAN_POINT ( 'NONE',  ( 21.50000000000000000, 1.922475952907669372, 2.632990618166809630E-15 ) ) ;
#26 = DIRECTION ( 'NONE',  ( -0.000000000000000000, 0.000000000000000000, -1.000000000000000000 ) ) ;
#27 = DIRECTION ( 'NONE',  ( 4.596983092540343816E-18, 1.000000000000000000, -0.000000000000000000 ) ) ;
#28 = CARTESIAN_POINT ( 'NONE',  ( 4.286263797015736496E-15, -19.00000000000000355, 0.000000000000000000 ) ) ;
#29 = DIRECTION ( 'NONE',  ( -1.000000000000000000, 4.596983092540343046E-18, 0.000000000000000000 ) ) ;
#30 = TOROIDAL_SURFACE ( 'NONE', #213, 21.50000000000000000, 4.999999999999997335 ) ;
#31 = DIRECTION ( 'NONE',  ( 4.596983092540343816E-18, 1.000000000000000000, -0.000000000000000000 ) ) ;
#32 = SPHERICAL_SURFACE ( 'NONE', #394, 33.00000000000000000 ) ;
#33 = PRODUCT_DEFINITION_SHAPE ( 'NONE', 'NONE',  #201 ) ;
#34 = CARTESIAN_POINT ( 'NONE',  ( 0.000000000000000000, 1.922475952907669372, 0.000000000000000000 ) ) ;
#35 = DATE_AND_TIME ( #385, #52 ) ;
#36 = AXIS2_PLACEMENT_3D ( 'NONE', #368, #215, #279 ) ;
#37 = AXIS2_PLACEMENT_3D ( 'NONE', #211, #121, #410 ) ;
#38 = ORIENTED_EDGE ( 'NONE', *, *, #187, .T. ) ;
#39 = APPROVAL_ROLE ( '' ) ;
#40 = ORIENTED_EDGE ( 'NONE', *, *, #69, .F. ) ;
#41 = CC_DESIGN_PERSON_AND_ORGANIZATION_ASSIGNMENT ( #125, #225, ( #72 ) ) ;
#42 = CALENDAR_DATE ( 2024, 3, 9 ) ;
#43 = ORIENTED_EDGE ( 'NONE', *, *, #411, .T. ) ;
#44 = PERSON_AND_ORGANIZATION ( #387, #199 ) ;
#45 = ORIENTED_EDGE ( 'NONE', *, *, #169, .T. ) ;
#46 = EDGE_CURVE ( 'NONE', #158, #362, #236, .T. ) ;
#47 = ORIENTED_EDGE ( 'NONE', *, *, #206, .F. ) ;
#48 = CARTESIAN_POINT ( 'NONE',  ( 4.392062092046295957E-15, 4.014723548198487535, 0.000000000000000000 ) ) ;
#49 = CARTESIAN_POINT ( 'NONE',  ( -24.50000000000000000, 1.922475952907707120, 0.000000000000000000 ) ) ;
#50 = AXIS2_PLACEMENT_3D ( 'NONE', #302, #269, #172 ) ;
#51 = CIRCLE ( 'NONE', #37, 24.49999999999999289 ) ;
#52 = LOCAL_TIME ( 16, 8, 18.00000000000000000, #324 ) ;
#53 = ORIENTED_EDGE ( 'NONE', *, *, #393, .T. ) ;
#54 = VERTEX_POINT ( 'NONE', #49 ) ;
#55 = DIRECTION ( 'NONE',  ( -1.000000000000000000, 0.000000000000000000, 0.000000000000000000 ) ) ;
#56 = AXIS2_PLACEMENT_3D ( 'NONE', #340, #87, #66 ) ;
#57 = ADVANCED_FACE ( 'NONE', ( #334 ), #327, .T. ) ;
#58 =( NAMED_UNIT ( * ) PLANE_ANGLE_UNIT ( ) SI_UNIT ( $, .RADIAN. ) );
#59 = DIRECTION ( 'NONE',  ( 4.596983092540343816E-18, 1.000000000000000000, -0.000000000000000000 ) ) ;
#60 = LINE ( 'NONE', #145, #392 ) ;
#61 = CARTESIAN_POINT ( 'NONE',  ( 0.000000000000000000, 0.000000000000000000, 0.000000000000000000 ) ) ;
#62 = CC_DESIGN_PERSON_AND_ORGANIZATION_ASSIGNMENT ( #257, #388, ( #230 ) ) ;
#63 = CIRCLE ( 'NONE', #370, 26.49999999999999645 ) ;
#64 = LINE ( 'NONE', #409, #183 ) ;
#65 = AXIS2_PLACEMENT_3D ( 'NONE', #28, #26, #146 ) ;
#66 = DIRECTION ( 'NONE',  ( -1.000000000000000000, 0.000000000000000000, 0.000000000000000000 ) ) ;
#67 = COORDINATED_UNIVERSAL_TIME_OFFSET ( 1, 0, .AHEAD. ) ;
#68 = ORIENTED_EDGE ( 'NONE', *, *, #341, .T. ) ;
#69 = EDGE_CURVE ( 'NONE', #84, #156, #344, .T. ) ;
#70 = CIRCLE ( 'NONE', #165, 26.49999999999999645 ) ;
#71 = ORIENTED_EDGE ( 'NONE', *, *, #98, .T. ) ;
#72 = PRODUCT ( '3D_M8012_DN50_17481135', '3D_M8012_DN50_17481135', '', ( #151 ) ) ;
#73 = DATE_AND_TIME ( #323, #11 ) ;
#74 = VERTEX_POINT ( 'NONE', #361 ) ;
#75 = ADVANCED_FACE ( 'NONE', ( #203 ), #363, .T. ) ;
#76 = EDGE_LOOP ( 'NONE', ( #251, #258, #43 ) ) ;
#77 = LOCAL_TIME ( 16, 8, 18.00000000000000000, #358 ) ;
#78 = DIRECTION ( 'NONE',  ( -1.224646799147353207E-16, 5.629680630014033300E-34, 1.000000000000000000 ) ) ;
#79 = CARTESIAN_POINT ( 'NONE',  ( 4.286263797015736496E-15, -19.00000000000000355, 0.000000000000000000 ) ) ;
#80 = CARTESIAN_POINT ( 'NONE',  ( 4.286263797015736496E-15, -19.00000000000000355, 0.000000000000000000 ) ) ;
#81 = ADVANCED_FACE ( 'NONE', ( #83 ), #137, .F. ) ;
#82 = CLOSED_SHELL ( 'NONE', ( #214, #115, #81, #75, #318, #404, #131, #233, #366, #57, #273, #110, #92 ) ) ;
#83 = FACE_OUTER_BOUND ( 'NONE', #283, .T. ) ;
#84 = VERTEX_POINT ( 'NONE', #17 ) ;
#85 = EDGE_CURVE ( 'NONE', #5, #7, #138, .T. ) ;
#86 = DIRECTION ( 'NONE',  ( 4.596983092540343816E-18, 1.000000000000000000, -0.000000000000000000 ) ) ;
#87 = DIRECTION ( 'NONE',  ( -0.000000000000000000, 0.000000000000000000, -1.000000000000000000 ) ) ;
#88 = CIRCLE ( 'NONE', #212, 25.08333333333333215 ) ;
#89 = DIRECTION ( 'NONE',  ( -1.000000000000000000, 0.000000000000000000, 0.000000000000000000 ) ) ;
#90 = DIRECTION ( 'NONE',  ( -1.000000000000000000, 4.596983092540343816E-18, 0.000000000000000000 ) ) ;
#91 = DIRECTION ( 'NONE',  ( -0.000000000000000000, 0.000000000000000000, -1.000000000000000000 ) ) ;
#92 = ADVANCED_FACE ( 'NONE', ( #208 ), #398, .F. ) ;
#93 = CARTESIAN_POINT ( 'NONE',  ( 23.64999999999996305, 4.014723548198487535, 2.948337168947251137E-15 ) ) ;
#94 = DIRECTION ( 'NONE',  ( 0.000000000000000000, 0.000000000000000000, 1.000000000000000000 ) ) ;
#95 = CARTESIAN_POINT ( 'NONE',  ( 26.50000000000000355, 1.922475952907731545, 3.245314017740486159E-15 ) ) ;
#96 = DIRECTION ( 'NONE',  ( 1.000000000000000000, -4.596983092540344586E-18, 0.000000000000000000 ) ) ;
#97 = ORIENTED_EDGE ( 'NONE', *, *, #173, .F. ) ;
#98 = EDGE_CURVE ( 'NONE', #158, #133, #176, .T. ) ;
#99 = ORIENTED_EDGE ( 'NONE', *, *, #284, .T. ) ;
#100 = CIRCLE ( 'NONE', #36, 35.00000000000000000 ) ;
#101 = EDGE_LOOP ( 'NONE', ( #53, #10 ) ) ;
#102 = PERSON_AND_ORGANIZATION ( #387, #199 ) ;
#103 = ORIENTED_EDGE ( 'NONE', *, *, #85, .T. ) ;
#104 = EDGE_CURVE ( 'NONE', #135, #156, #234, .T. ) ;
#105 = CALENDAR_DATE ( 2024, 3, 9 ) ;
#106 = VERTEX_POINT ( 'NONE', #107 ) ;
#107 = CARTESIAN_POINT ( 'NONE',  ( 24.50000000000000000, 1.922475952907706676, 3.000384657911015074E-15 ) ) ;
#108 = VECTOR ( 'NONE', #141, 1000.000000000000000 ) ;
#109 = CARTESIAN_POINT ( 'NONE',  ( 1.387778780781445676E-14, 2817.965330118411202, 0.000000000000000000 ) ) ;
#110 = ADVANCED_FACE ( 'NONE', ( #333 ), #405, .F. ) ;
#111 = CARTESIAN_POINT ( 'NONE',  ( 4.392062092046295957E-15, 4.014723548198487535, 0.000000000000000000 ) ) ;
#112 = ORIENTED_EDGE ( 'NONE', *, *, #142, .T. ) ;
#113 = AXIS2_PLACEMENT_3D ( 'NONE', #247, #378, #305 ) ;
#114 = DIRECTION ( 'NONE',  ( 4.596983092540343816E-18, 1.000000000000000000, -0.000000000000000000 ) ) ;
#115 = ADVANCED_FACE ( 'NONE', ( #267 ), #312, .F. ) ;
#116 = APPLICATION_CONTEXT ( 'configuration controlled 3d designs of mechanical parts and assemblies' ) ;
#117 = CARTESIAN_POINT ( 'NONE',  ( 9.236488298952508525E-16, 0.000000000000000000, 0.000000000000000000 ) ) ;
#118 = FACE_OUTER_BOUND ( 'NONE', #197, .T. ) ;
#119 = CIRCLE ( 'NONE', #351, 2.999999999999999112 ) ;
#120 = CARTESIAN_POINT ( 'NONE',  ( 0.000000000000000000, 1.922475952907669372, 0.000000000000000000 ) ) ;
#121 = DIRECTION ( 'NONE',  ( 4.596983092540343816E-18, 1.000000000000000000, -0.000000000000000000 ) ) ;
#122 = DIRECTION ( 'NONE',  ( -1.000000000000000000, 0.000000000000000000, 0.000000000000000000 ) ) ;
#123 = DIRECTION ( 'NONE',  ( 4.596983092540343816E-18, 1.000000000000000000, -0.000000000000000000 ) ) ;
#124 = CYLINDRICAL_SURFACE ( 'NONE', #113, 26.49999999999999645 ) ;
#125 = PERSON_AND_ORGANIZATION ( #387, #199 ) ;
#126 = DIRECTION ( 'NONE',  ( -1.000000000000000000, 0.000000000000000000, 0.000000000000000000 ) ) ;
#127 = ORIENTED_EDGE ( 'NONE', *, *, #227, .F. ) ;
#128 = EDGE_CURVE ( 'NONE', #325, #135, #63, .T. ) ;
#129 = APPLICATION_CONTEXT ( 'configuration controlled 3d designs of mechanical parts and assemblies' ) ;
#130 = ORIENTED_EDGE ( 'NONE', *, *, #169, .F. ) ;
#131 = ADVANCED_FACE ( 'NONE', ( #216, #118 ), #239, .T. ) ;
#132 = PERSON_AND_ORGANIZATION ( #387, #199 ) ;
#133 = VERTEX_POINT ( 'NONE', #175 ) ;
#134 = CALENDAR_DATE ( 2024, 3, 9 ) ;
#135 = VERTEX_POINT ( 'NONE', #244 ) ;
#136 = DIRECTION ( 'NONE',  ( 4.596983092540343816E-18, 1.000000000000000000, -0.000000000000000000 ) ) ;
#137 = CYLINDRICAL_SURFACE ( 'NONE', #198, 24.49999999999999289 ) ;
#138 = CIRCLE ( 'NONE', #249, 25.08333333333333215 ) ;
#139 = CC_DESIGN_APPROVAL ( #19, ( #201 ) ) ;
#140 = UNCERTAINTY_MEASURE_WITH_UNIT (LENGTH_MEASURE( 1.000000000000000082E-05 ), #337, 'distance_accuracy_value', 'NONE');
#141 = DIRECTION ( 'NONE',  ( 4.596983092540343816E-18, 1.000000000000000000, -0.000000000000000000 ) ) ;
#142 = EDGE_CURVE ( 'NONE', #325, #84, #60, .T. ) ;
#143 = CARTESIAN_POINT ( 'NONE',  ( 0.000000000000000000, 1.922475952907669372, 0.000000000000000000 ) ) ;
#144 = DIRECTION ( 'NONE',  ( -1.224646799147353207E-16, 5.629680630014033300E-34, 1.000000000000000000 ) ) ;
#145 = CARTESIAN_POINT ( 'NONE',  ( -26.49999999999998224, 2817.965330118411202, 0.000000000000000000 ) ) ;
#146 = DIRECTION ( 'NONE',  ( -1.000000000000000000, 0.000000000000000000, 0.000000000000000000 ) ) ;
#147 = DIRECTION ( 'NONE',  ( 4.596983092540343816E-18, 1.000000000000000000, -0.000000000000000000 ) ) ;
#148 = CIRCLE ( 'NONE', #205, 35.00000000000000000 ) ;
#149 = TOROIDAL_SURFACE ( 'NONE', #282, 21.50000000000000000, 4.999999999999997335 ) ;
#150 = CARTESIAN_POINT ( 'NONE',  ( 9.236488298952508525E-16, 0.000000000000000000, 0.000000000000000000 ) ) ;
#151 = MECHANICAL_CONTEXT ( 'NONE', #129, 'mechanical' ) ;
#152 = CARTESIAN_POINT ( 'NONE',  ( 4.286263797015736496E-15, -19.00000000000000355, 0.000000000000000000 ) ) ;
#153 = FACE_OUTER_BOUND ( 'NONE', #4, .T. ) ;
#154 = CC_DESIGN_DATE_AND_TIME_ASSIGNMENT ( #35, #250, ( #230 ) ) ;
#155 = AXIS2_PLACEMENT_3D ( 'NONE', #120, #220, #338 ) ;
#156 = VERTEX_POINT ( 'NONE', #95 ) ;
#157 = APPROVAL_STATUS ( 'not_yet_approved' ) ;
#158 = VERTEX_POINT ( 'NONE', #93 ) ;
#159 = EDGE_CURVE ( 'NONE', #7, #286, #100, .T. ) ;
#160 = ORIENTED_EDGE ( 'NONE', *, *, #85, .F. ) ;
#161 = DATE_AND_TIME ( #42, #77 ) ;
#162 = ORIENTED_EDGE ( 'NONE', *, *, #46, .T. ) ;
#163 = AXIS2_PLACEMENT_3D ( 'NONE', #15, #207, #21 ) ;
#164 = APPROVAL_ROLE ( '' ) ;
#165 = AXIS2_PLACEMENT_3D ( 'NONE', #117, #59, #29 ) ;
#166 = ORIENTED_EDGE ( 'NONE', *, *, #159, .F. ) ;
#167 = ORIENTED_EDGE ( 'NONE', *, *, #309, .T. ) ;
#168 = DIRECTION ( 'NONE',  ( 4.596983092540343816E-18, 1.000000000000000000, -0.000000000000000000 ) ) ;
#169 = EDGE_CURVE ( 'NONE', #7, #5, #88, .T. ) ;
#170 = DIRECTION ( 'NONE',  ( 4.596983092540343816E-18, 1.000000000000000000, -0.000000000000000000 ) ) ;
#171 = LOCAL_TIME ( 16, 8, 18.00000000000000000, #67 ) ;
#172 = DIRECTION ( 'NONE',  ( -1.000000000000000000, 0.000000000000000000, 0.000000000000000000 ) ) ;
#173 = EDGE_CURVE ( 'NONE', #54, #106, #263, .T. ) ;
#174 = DIRECTION ( 'NONE',  ( -1.000000000000000000, 8.182657905550977355E-18, 0.000000000000000000 ) ) ;
#175 = CARTESIAN_POINT ( 'NONE',  ( -23.64999999999995239, 4.014723548198487535, 0.000000000000000000 ) ) ;
#176 = CIRCLE ( 'NONE', #228, 23.64999999999995595 ) ;
#177 = AXIS2_PLACEMENT_3D ( 'NONE', #48, #297, #221 ) ;
#178 = CARTESIAN_POINT ( 'NONE',  ( 9.485164640481830365E-16, 5.409555278392375044, 0.000000000000000000 ) ) ;
#179 = DIRECTION ( 'NONE',  ( 4.596983092540343816E-18, 1.000000000000000000, -0.000000000000000000 ) ) ;
#180 = FACE_OUTER_BOUND ( 'NONE', #287, .T. ) ;
#181 = DIRECTION ( 'NONE',  ( -1.000000000000000000, 8.182657905550977355E-18, 0.000000000000000000 ) ) ;
#182 = DIRECTION ( 'NONE',  ( -4.596983092540343816E-18, -1.000000000000000000, 0.000000000000000000 ) ) ;
#183 = VECTOR ( 'NONE', #86, 1000.000000000000000 ) ;
#184 = CC_DESIGN_APPROVAL ( #399, ( #230 ) ) ;
#185 = DIRECTION ( 'NONE',  ( -1.000000000000000000, 4.596983092540343046E-18, 0.000000000000000000 ) ) ;
#186 = CARTESIAN_POINT ( 'NONE',  ( 2.417297020476435500E-15, 13.99999999999999822, 0.000000000000000000 ) ) ;
#187 = EDGE_CURVE ( 'NONE', #54, #133, #190, .T. ) ;
#188 = DIRECTION ( 'NONE',  ( 4.596983092540343816E-18, 1.000000000000000000, -0.000000000000000000 ) ) ;
#189 = PERSON_AND_ORGANIZATION ( #387, #199 ) ;
#190 = CIRCLE ( 'NONE', #331, 2.999999999999999112 ) ;
#191 = PERSON_AND_ORGANIZATION_ROLE ( 'creator' ) ;
#192 = ORIENTED_EDGE ( 'NONE', *, *, #195, .F. ) ;
#193 = PERSON_AND_ORGANIZATION ( #387, #199 ) ;
#194 = ORIENTED_EDGE ( 'NONE', *, *, #69, .T. ) ;
#195 = EDGE_CURVE ( 'NONE', #5, #286, #148, .T. ) ;
#196 = APPROVAL_DATE_TIME ( #73, #330 ) ;
#197 = EDGE_LOOP ( 'NONE', ( #386, #47 ) ) ;
#198 = AXIS2_PLACEMENT_3D ( 'NONE', #109, #168, #20 ) ;
#199 = ORGANIZATION ( 'UNSPECIFIED', 'UNSPECIFIED', '' ) ;
#200 = EDGE_LOOP ( 'NONE', ( #357, #224, #71, #289 ) ) ;
#201 = PRODUCT_DEFINITION ( 'UNKNOWN', '', #24, #396 ) ;
#202 = CARTESIAN_POINT ( 'NONE',  ( 9.236488298952508525E-16, 0.000000000000000000, 0.000000000000000000 ) ) ;
#203 = FACE_OUTER_BOUND ( 'NONE', #329, .T. ) ;
#204 = DIRECTION ( 'NONE',  ( -1.000000000000000000, 0.000000000000000000, 0.000000000000000000 ) ) ;
#205 = AXIS2_PLACEMENT_3D ( 'NONE', #310, #245, #375 ) ;
#206 = EDGE_CURVE ( 'NONE', #135, #325, #70, .T. ) ;
#207 = DIRECTION ( 'NONE',  ( 0.000000000000000000, 0.000000000000000000, 1.000000000000000000 ) ) ;
#208 = FACE_OUTER_BOUND ( 'NONE', #76, .T. ) ;
#209 = FACE_OUTER_BOUND ( 'NONE', #299, .T. ) ;
#210 = FACE_OUTER_BOUND ( 'NONE', #222, .T. ) ;
#211 = CARTESIAN_POINT ( 'NONE',  ( 9.236488298952508525E-16, 0.000000000000000000, 0.000000000000000000 ) ) ;
#212 = AXIS2_PLACEMENT_3D ( 'NONE', #178, #27, #408 ) ;
#213 = AXIS2_PLACEMENT_3D ( 'NONE', #34, #31, #90 ) ;
#214 = ADVANCED_FACE ( 'NONE', ( #180 ), #32, .F. ) ;
#215 = DIRECTION ( 'NONE',  ( -1.224646799147353207E-16, 5.629680630014033300E-34, 1.000000000000000000 ) ) ;
#216 = FACE_BOUND ( 'NONE', #101, .T. ) ;
#217 = LINE ( 'NONE', #1, #407 ) ;
#218 = ORIENTED_EDGE ( 'NONE', *, *, #159, .T. ) ;
#219 = AXIS2_PLACEMENT_3D ( 'NONE', #369, #188, #181 ) ;
#220 = DIRECTION ( 'NONE',  ( 4.596983092540343816E-18, 1.000000000000000000, -0.000000000000000000 ) ) ;
#221 = DIRECTION ( 'NONE',  ( -1.000000000000000000, 0.000000000000000000, 0.000000000000000000 ) ) ;
#222 = EDGE_LOOP ( 'NONE', ( #377, #384, #112, #349 ) ) ;
#223 = COORDINATED_UNIVERSAL_TIME_OFFSET ( 1, 0, .AHEAD. ) ;
#224 = ORIENTED_EDGE ( 'NONE', *, *, #304, .T. ) ;
#225 = PERSON_AND_ORGANIZATION_ROLE ( 'design_owner' ) ;
#226 = EDGE_LOOP ( 'NONE', ( #166, #45, #326 ) ) ;
#227 = EDGE_CURVE ( 'NONE', #397, #54, #64, .T. ) ;
#228 = AXIS2_PLACEMENT_3D ( 'NONE', #111, #136, #296 ) ;
#229 = AXIS2_PLACEMENT_3D ( 'NONE', #202, #248, #96 ) ;
#230 = SECURITY_CLASSIFICATION ( '', '', #321 ) ;
#231 = DIRECTION ( 'NONE',  ( 4.596983092540343816E-18, 1.000000000000000000, -0.000000000000000000 ) ) ;
#232 = ORIENTED_EDGE ( 'NONE', *, *, #261, .T. ) ;
#233 = ADVANCED_FACE ( 'NONE', ( #210 ), #124, .T. ) ;
#234 = LINE ( 'NONE', #16, #108 ) ;
#235 = CARTESIAN_POINT ( 'NONE',  ( -25.08333333333333215, 5.409555278392375044, 0.000000000000000000 ) ) ;
#236 = CIRCLE ( 'NONE', #2, 33.00000000000000000 ) ;
#237 = CIRCLE ( 'NONE', #56, 4.999999999999997335 ) ;
#238 = DIRECTION ( 'NONE',  ( -1.000000000000000000, 4.596983092540343816E-18, 0.000000000000000000 ) ) ;
#239 = PLANE ( 'NONE',  #290 ) ;
#240 = EDGE_CURVE ( 'NONE', #156, #7, #380, .T. ) ;
#241 = CARTESIAN_POINT ( 'NONE',  ( -2.800023595785985867E-34, -6.091002597615954170E-17, 0.000000000000000000 ) ) ;
#242 = CARTESIAN_POINT ( 'NONE',  ( 0.000000000000000000, 1.922475952907669372, 0.000000000000000000 ) ) ;
#243 = CC_DESIGN_APPROVAL ( #330, ( #24 ) ) ;
#244 = CARTESIAN_POINT ( 'NONE',  ( 26.49999999999999645, -1.218200519523190834E-16, 3.245314017740485370E-15 ) ) ;
#245 = DIRECTION ( 'NONE',  ( -0.000000000000000000, 0.000000000000000000, -1.000000000000000000 ) ) ;
#246 =( NAMED_UNIT ( * ) SI_UNIT ( $, .STERADIAN. ) SOLID_ANGLE_UNIT ( ) );
#247 = CARTESIAN_POINT ( 'NONE',  ( 1.387778780781445676E-14, 2817.965330118411202, 0.000000000000000000 ) ) ;
#248 = DIRECTION ( 'NONE',  ( 4.596983092540343816E-18, 1.000000000000000000, -0.000000000000000000 ) ) ;
#249 = AXIS2_PLACEMENT_3D ( 'NONE', #303, #231, #55 ) ;
#250 = DATE_TIME_ROLE ( 'classification_date' ) ;
#251 = ORIENTED_EDGE ( 'NONE', *, *, #46, .F. ) ;
#252 = DATE_TIME_ROLE ( 'creation_date' ) ;
#253 = ORIENTED_EDGE ( 'NONE', *, *, #341, .F. ) ;
#254 = CC_DESIGN_PERSON_AND_ORGANIZATION_ASSIGNMENT ( #353, #294, ( #24 ) ) ;
#255 = EDGE_LOOP ( 'NONE', ( #354, #97, #38, #99 ) ) ;
#256 = AXIS2_PLACEMENT_3D ( 'NONE', #61, #94, #376 ) ;
#257 = PERSON_AND_ORGANIZATION ( #387, #199 ) ;
#258 = ORIENTED_EDGE ( 'NONE', *, *, #284, .F. ) ;
#259 = SHAPE_DEFINITION_REPRESENTATION ( #33, #14 ) ;
#260 = ORIENTED_EDGE ( 'NONE', *, *, #240, .F. ) ;
#261 = EDGE_CURVE ( 'NONE', #106, #54, #371, .T. ) ;
#262 = ORIENTED_EDGE ( 'NONE', *, *, #128, .T. ) ;
#263 = CIRCLE ( 'NONE', #320, 24.50000000000000000 ) ;
#264 = APPROVAL_PERSON_ORGANIZATION ( #193, #19, #39 ) ;
#265 = DIRECTION ( 'NONE',  ( 1.000000000000000000, 0.000000000000000000, 1.224646799147353454E-16 ) ) ;
#266 = CARTESIAN_POINT ( 'NONE',  ( 25.08333333333332860, 5.409555278392375044, 3.158568202800881702E-15 ) ) ;
#267 = FACE_OUTER_BOUND ( 'NONE', #200, .T. ) ;
#268 = AXIS2_PLACEMENT_3D ( 'NONE', #332, #170, #174 ) ;
#269 = DIRECTION ( 'NONE',  ( 0.000000000000000000, 0.000000000000000000, 1.000000000000000000 ) ) ;
#270 = APPROVAL_PERSON_ORGANIZATION ( #44, #399, #164 ) ;
#271 = APPROVAL_PERSON_ORGANIZATION ( #102, #330, #6 ) ;
#272 = CARTESIAN_POINT ( 'NONE',  ( 1.719869967136379587E-31, 1.922475952907706898, 0.000000000000000000 ) ) ;
#273 = ADVANCED_FACE ( 'NONE', ( #209 ), #300, .F. ) ;
#274 = DIRECTION ( 'NONE',  ( 0.000000000000000000, 0.000000000000000000, 1.000000000000000000 ) ) ;
#275 = DIRECTION ( 'NONE',  ( 4.596983092540343816E-18, 1.000000000000000000, -0.000000000000000000 ) ) ;
#276 = CYLINDRICAL_SURFACE ( 'NONE', #402, 26.49999999999999645 ) ;
#277 = CIRCLE ( 'NONE', #65, 33.00000000000000000 ) ;
#278 = CC_DESIGN_PERSON_AND_ORGANIZATION_ASSIGNMENT ( #189, #9, ( #24 ) ) ;
#279 = DIRECTION ( 'NONE',  ( 1.000000000000000000, 0.000000000000000000, 1.224646799147353207E-16 ) ) ;
#280 = CARTESIAN_POINT ( 'NONE',  ( -26.49999999999999645, 1.218200519523190834E-16, 0.000000000000000000 ) ) ;
#281 = DIRECTION ( 'NONE',  ( 1.000000000000000000, 0.000000000000000000, 1.224646799147352221E-16 ) ) ;
#282 = AXIS2_PLACEMENT_3D ( 'NONE', #242, #123, #306 ) ;
#283 = EDGE_LOOP ( 'NONE', ( #8, #167, #232, #127 ) ) ;
#284 = EDGE_CURVE ( 'NONE', #133, #158, #360, .T. ) ;
#285 = DATE_AND_TIME ( #134, #171 ) ;
#286 = VERTEX_POINT ( 'NONE', #374 ) ;
#287 = EDGE_LOOP ( 'NONE', ( #365, #162, #319 ) ) ;
#288 = COORDINATED_UNIVERSAL_TIME_OFFSET ( 1, 0, .AHEAD. ) ;
#289 = ORIENTED_EDGE ( 'NONE', *, *, #187, .F. ) ;
#290 = AXIS2_PLACEMENT_3D ( 'NONE', #241, #182, #314 ) ;
#291 = AXIS2_PLACEMENT_3D ( 'NONE', #22, #335, #328 ) ;
#292 = EDGE_CURVE ( 'NONE', #74, #397, #3, .T. ) ;
#293 = DATE_AND_TIME ( #105, #364 ) ;
#294 = PERSON_AND_ORGANIZATION_ROLE ( 'design_supplier' ) ;
#295 = ORIENTED_EDGE ( 'NONE', *, *, #240, .T. ) ;
#296 = DIRECTION ( 'NONE',  ( -1.000000000000000000, 0.000000000000000000, 0.000000000000000000 ) ) ;
#297 = DIRECTION ( 'NONE',  ( 4.596983092540343816E-18, 1.000000000000000000, -0.000000000000000000 ) ) ;
#298 = AXIS2_PLACEMENT_3D ( 'NONE', #80, #391, #204 ) ;
#299 = EDGE_LOOP ( 'NONE', ( #382, #13, #352, #390 ) ) ;
#300 = CYLINDRICAL_SURFACE ( 'NONE', #291, 24.49999999999999289 ) ;
#301 = PRODUCT_RELATED_PRODUCT_CATEGORY ( 'detail', '', ( #72 ) ) ;
#302 = CARTESIAN_POINT ( 'NONE',  ( 4.286263797015736496E-15, -19.00000000000000355, 0.000000000000000000 ) ) ;
#303 = CARTESIAN_POINT ( 'NONE',  ( 9.485164640481830365E-16, 5.409555278392375044, 0.000000000000000000 ) ) ;
#304 = EDGE_CURVE ( 'NONE', #106, #158, #119, .T. ) ;
#305 = DIRECTION ( 'NONE',  ( -1.000000000000000000, 0.000000000000000000, 0.000000000000000000 ) ) ;
#306 = DIRECTION ( 'NONE',  ( -1.000000000000000000, 4.596983092540343816E-18, 0.000000000000000000 ) ) ;
#307 = DIRECTION ( 'NONE',  ( 1.000000000000000000, 0.000000000000000000, 1.224646799147353454E-16 ) ) ;
#308 = FACE_OUTER_BOUND ( 'NONE', #389, .T. ) ;
#309 = EDGE_CURVE ( 'NONE', #74, #106, #217, .T. ) ;
#310 = CARTESIAN_POINT ( 'NONE',  ( 4.286263797015736496E-15, -19.00000000000000355, 0.000000000000000000 ) ) ;
#311 = APPLICATION_PROTOCOL_DEFINITION ( 'international standard', 'config_control_design', 1994, #129 ) ;
#312 = TOROIDAL_SURFACE ( 'NONE', #155, 21.50000000000000000, 2.999999999999997335 ) ;
#313 =( GEOMETRIC_REPRESENTATION_CONTEXT ( 3 ) GLOBAL_UNCERTAINTY_ASSIGNED_CONTEXT ( ( #140 ) ) GLOBAL_UNIT_ASSIGNED_CONTEXT ( ( #337, #58, #246 ) ) REPRESENTATION_CONTEXT ( 'NONE', 'WORKASPACE' ) );
#314 = DIRECTION ( 'NONE',  ( 1.000000000000000000, -4.596983092540343816E-18, 0.000000000000000000 ) ) ;
#315 = CARTESIAN_POINT ( 'NONE',  ( -24.49999999999999289, 1.126260857672384081E-16, 0.000000000000000000 ) ) ;
#316 = DIRECTION ( 'NONE',  ( -1.224646799147353207E-16, 5.629680630014033300E-34, 1.000000000000000000 ) ) ;
#317 = APPLICATION_PROTOCOL_DEFINITION ( 'international standard', 'config_control_design', 1994, #116 ) ;
#318 = ADVANCED_FACE ( 'NONE', ( #347 ), #149, .T. ) ;
#319 = ORIENTED_EDGE ( 'NONE', *, *, #411, .F. ) ;
#320 = AXIS2_PLACEMENT_3D ( 'NONE', #342, #373, #346 ) ;
#321 = SECURITY_CLASSIFICATION_LEVEL ( 'unclassified' ) ;
#322 = EDGE_LOOP ( 'NONE', ( #194, #295, #160, #253 ) ) ;
#323 = CALENDAR_DATE ( 2024, 3, 9 ) ;
#324 = COORDINATED_UNIVERSAL_TIME_OFFSET ( 1, 0, .AHEAD. ) ;
#325 = VERTEX_POINT ( 'NONE', #280 ) ;
#326 = ORIENTED_EDGE ( 'NONE', *, *, #195, .T. ) ;
#327 = SPHERICAL_SURFACE ( 'NONE', #298, 35.00000000000000000 ) ;
#328 = DIRECTION ( 'NONE',  ( -1.000000000000000000, 0.000000000000000000, 0.000000000000000000 ) ) ;
#329 = EDGE_LOOP ( 'NONE', ( #103, #218, #192 ) ) ;
#330 = APPROVAL ( #383, 'UNSPECIFIED' ) ;
#331 = AXIS2_PLACEMENT_3D ( 'NONE', #339, #91, #122 ) ;
#332 = CARTESIAN_POINT ( 'NONE',  ( 9.324864193465836979E-16, 1.922475952907731767, 0.000000000000000000 ) ) ;
#333 = FACE_OUTER_BOUND ( 'NONE', #255, .T. ) ;
#334 = FACE_OUTER_BOUND ( 'NONE', #226, .T. ) ;
#335 = DIRECTION ( 'NONE',  ( 4.596983092540343816E-18, 1.000000000000000000, -0.000000000000000000 ) ) ;
#336 = AXIS2_PLACEMENT_3D ( 'NONE', #143, #114, #238 ) ;
#337 =( LENGTH_UNIT ( ) NAMED_UNIT ( * ) SI_UNIT ( .MILLI., .METRE. ) );
#338 = DIRECTION ( 'NONE',  ( -1.000000000000000000, 4.596983092540343816E-18, 0.000000000000000000 ) ) ;
#339 = CARTESIAN_POINT ( 'NONE',  ( -21.50000000000000000, 1.922475952907669372, 0.000000000000000000 ) ) ;
#340 = CARTESIAN_POINT ( 'NONE',  ( -21.50000000000000000, 1.922475952907669372, 0.000000000000000000 ) ) ;
#341 = EDGE_CURVE ( 'NONE', #84, #5, #237, .T. ) ;
#342 = CARTESIAN_POINT ( 'NONE',  ( 1.719869967136379587E-31, 1.922475952907706898, 0.000000000000000000 ) ) ;
#343 = CARTESIAN_POINT ( 'NONE',  ( 1.387778780781445676E-14, 2817.965330118411202, 0.000000000000000000 ) ) ;
#344 = CIRCLE ( 'NONE', #268, 26.50000000000000000 ) ;
#345 = CIRCLE ( 'NONE', #219, 26.50000000000000000 ) ;
#346 = DIRECTION ( 'NONE',  ( -1.000000000000000000, 8.850629979473505395E-18, 0.000000000000000000 ) ) ;
#347 = FACE_OUTER_BOUND ( 'NONE', #322, .T. ) ;
#348 = EDGE_CURVE ( 'NONE', #156, #84, #345, .T. ) ;
#349 = ORIENTED_EDGE ( 'NONE', *, *, #348, .F. ) ;
#350 = APPROVAL_STATUS ( 'not_yet_approved' ) ;
#351 = AXIS2_PLACEMENT_3D ( 'NONE', #372, #316, #281 ) ;
#352 = ORIENTED_EDGE ( 'NONE', *, *, #227, .T. ) ;
#353 = PERSON_AND_ORGANIZATION ( #387, #199 ) ;
#354 = ORIENTED_EDGE ( 'NONE', *, *, #304, .F. ) ;
#355 = CC_DESIGN_DATE_AND_TIME_ASSIGNMENT ( #161, #252, ( #201 ) ) ;
#356 = APPROVAL_DATE_TIME ( #293, #19 ) ;
#357 = ORIENTED_EDGE ( 'NONE', *, *, #261, .F. ) ;
#358 = COORDINATED_UNIVERSAL_TIME_OFFSET ( 1, 0, .AHEAD. ) ;
#359 = ORIENTED_EDGE ( 'NONE', *, *, #104, .T. ) ;
#360 = CIRCLE ( 'NONE', #177, 23.64999999999995595 ) ;
#361 = CARTESIAN_POINT ( 'NONE',  ( 24.49999999999999289, -1.126260857672384081E-16, 3.000384657911014680E-15 ) ) ;
#362 = VERTEX_POINT ( 'NONE', #186 ) ;
#363 = SPHERICAL_SURFACE ( 'NONE', #163, 35.00000000000000000 ) ;
#364 = LOCAL_TIME ( 16, 8, 18.00000000000000000, #223 ) ;
#365 = ORIENTED_EDGE ( 'NONE', *, *, #98, .F. ) ;
#366 = ADVANCED_FACE ( 'NONE', ( #308 ), #30, .T. ) ;
#367 = ORIENTED_EDGE ( 'NONE', *, *, #348, .T. ) ;
#368 = CARTESIAN_POINT ( 'NONE',  ( 4.286263797015736496E-15, -19.00000000000000355, 0.000000000000000000 ) ) ;
#369 = CARTESIAN_POINT ( 'NONE',  ( 9.324864193465836979E-16, 1.922475952907731767, 0.000000000000000000 ) ) ;
#370 = AXIS2_PLACEMENT_3D ( 'NONE', #150, #406, #185 ) ;
#371 = CIRCLE ( 'NONE', #403, 24.50000000000000000 ) ;
#372 = CARTESIAN_POINT ( 'NONE',  ( 21.50000000000000000, 1.922475952907669372, 2.632990618166809630E-15 ) ) ;
#373 = DIRECTION ( 'NONE',  ( 4.596983092540343816E-18, 1.000000000000000000, -0.000000000000000000 ) ) ;
#374 = CARTESIAN_POINT ( 'NONE',  ( 2.304026306746780584E-15, 16.00000000000000000, 0.000000000000000000 ) ) ;
#375 = DIRECTION ( 'NONE',  ( -1.000000000000000000, 0.000000000000000000, 0.000000000000000000 ) ) ;
#376 = DIRECTION ( 'NONE',  ( 1.000000000000000000, 0.000000000000000000, 0.000000000000000000 ) ) ;
#377 = ORIENTED_EDGE ( 'NONE', *, *, #104, .F. ) ;
#378 = DIRECTION ( 'NONE',  ( 4.596983092540343816E-18, 1.000000000000000000, -0.000000000000000000 ) ) ;
#379 = DIRECTION ( 'NONE',  ( 4.596983092540343816E-18, 1.000000000000000000, -0.000000000000000000 ) ) ;
#380 = CIRCLE ( 'NONE', #23, 4.999999999999997335 ) ;
#381 = CC_DESIGN_PERSON_AND_ORGANIZATION_ASSIGNMENT ( #132, #191, ( #201 ) ) ;
#382 = ORIENTED_EDGE ( 'NONE', *, *, #309, .F. ) ;
#383 = APPROVAL_STATUS ( 'not_yet_approved' ) ;
#384 = ORIENTED_EDGE ( 'NONE', *, *, #206, .T. ) ;
#385 = CALENDAR_DATE ( 2024, 3, 9 ) ;
#386 = ORIENTED_EDGE ( 'NONE', *, *, #128, .F. ) ;
#387 = PERSON ( 'UNSPECIFIED', 'UNSPECIFIED', 'UNSPECIFIED', ('UNSPECIFIED'), ('UNSPECIFIED'), ('UNSPECIFIED') ) ;
#388 = PERSON_AND_ORGANIZATION_ROLE ( 'classification_officer' ) ;
#389 = EDGE_LOOP ( 'NONE', ( #260, #367, #68, #130 ) ) ;
#390 = ORIENTED_EDGE ( 'NONE', *, *, #173, .T. ) ;
#391 = DIRECTION ( 'NONE',  ( 0.000000000000000000, 0.000000000000000000, 1.000000000000000000 ) ) ;
#392 = VECTOR ( 'NONE', #275, 1000.000000000000000 ) ;
#393 = EDGE_CURVE ( 'NONE', #397, #74, #51, .T. ) ;
#394 = AXIS2_PLACEMENT_3D ( 'NONE', #152, #274, #89 ) ;
#395 = CC_DESIGN_SECURITY_CLASSIFICATION ( #230, ( #24 ) ) ;
#396 = DESIGN_CONTEXT ( 'detailed design', #116, 'design' ) ;
#397 = VERTEX_POINT ( 'NONE', #315 ) ;
#398 = SPHERICAL_SURFACE ( 'NONE', #50, 33.00000000000000000 ) ;
#399 = APPROVAL ( #157, 'UNSPECIFIED' ) ;
#400 = ORIENTED_EDGE ( 'NONE', *, *, #142, .F. ) ;
#401 = MANIFOLD_SOLID_BREP ( 'Wandung1', #82 ) ;
#402 = AXIS2_PLACEMENT_3D ( 'NONE', #343, #179, #126 ) ;
#403 = AXIS2_PLACEMENT_3D ( 'NONE', #272, #147, #18 ) ;
#404 = ADVANCED_FACE ( 'NONE', ( #153 ), #276, .T. ) ;
#405 = TOROIDAL_SURFACE ( 'NONE', #336, 21.50000000000000000, 2.999999999999997335 ) ;
#406 = DIRECTION ( 'NONE',  ( 4.596983092540343816E-18, 1.000000000000000000, -0.000000000000000000 ) ) ;
#407 = VECTOR ( 'NONE', #379, 1000.000000000000000 ) ;
#408 = DIRECTION ( 'NONE',  ( -1.000000000000000000, 0.000000000000000000, 0.000000000000000000 ) ) ;
#409 = CARTESIAN_POINT ( 'NONE',  ( -24.49999999999997868, 2817.965330118411202, 0.000000000000000000 ) ) ;
#410 = DIRECTION ( 'NONE',  ( 1.000000000000000000, -4.596983092540344586E-18, 0.000000000000000000 ) ) ;
#411 = EDGE_CURVE ( 'NONE', #133, #362, #277, .T. ) ;
ENDSEC;
END-ISO-10303-21;
