ISO-10303-21;
HEADER;
FILE_DESCRIPTION (( 'STEP AP203' ),
    '1' );
FILE_NAME ('3D_R169-K_42-21_17325230.STEP',
    '2024-07-11T10:19:58',
    ( '' ),
    ( '' ),
    'SwSTEP 2.0',
    'SolidWorks 2024',
    '' );
FILE_SCHEMA (( 'CONFIG_CONTROL_DESIGN' ));
ENDSEC;

DATA;
#1 = DATE_AND_TIME ( #95, #62 ) ;
#2 = EDGE_CURVE ( 'NONE', #17, #202, #57, .T. ) ;
#3 = PERSON_AND_ORGANIZATION ( #187, #52 ) ;
#4 = CARTESIAN_POINT ( 'NONE',  ( 40.00000000000000000, 1.304248841091931261E-15, -10.65000000000000036 ) ) ;
#5 = DESIGN_CONTEXT ( 'detailed design', #232, 'design' ) ;
#6 =( GEOMETRIC_REPRESENTATION_CONTEXT ( 3 ) GLOBAL_UNCERTAINTY_ASSIGNED_CONTEXT ( ( #196 ) ) GLOBAL_UNIT_ASSIGNED_CONTEXT ( ( #158, #193, #215 ) ) REPRESENTATION_CONTEXT ( 'NONE', 'WORKASPACE' ) );
#7 = ORIENTED_EDGE ( 'NONE', *, *, #2, .T. ) ;
#8 = VECTOR ( 'NONE', #170, 1000.000000000000227 ) ;
#9 = CC_DESIGN_APPROVAL ( #117, ( #161 ) ) ;
#10 = CALENDAR_DATE ( 2024, 11, 7 ) ;
#11 = EDGE_LOOP ( 'NONE', ( #160, #102, #99, #120 ) ) ;
#12 = CIRCLE ( 'NONE', #129, 19.13160539306446850 ) ;
#13 = ORIENTED_EDGE ( 'NONE', *, *, #178, .F. ) ;
#14 = APPLICATION_CONTEXT ( 'configuration controlled 3d designs of mechanical parts and assemblies' ) ;
#15 = PRODUCT ( '3D_R169-K_42-21_17325230', '3D_R169-K_42-21_17325230', '', ( #113 ) ) ;
#16 = ORIENTED_EDGE ( 'NONE', *, *, #78, .T. ) ;
#17 = VERTEX_POINT ( 'NONE', #221 ) ;
#18 = CARTESIAN_POINT ( 'NONE',  ( 0.000000000000000000, 0.000000000000000000, 0.000000000000000000 ) ) ;
#19 = DIRECTION ( 'NONE',  ( 1.000000000000000000, 0.000000000000000000, 0.000000000000000000 ) ) ;
#20 = DIRECTION ( 'NONE',  ( 1.000000000000000000, 0.000000000000000000, 0.000000000000000000 ) ) ;
#21 = CARTESIAN_POINT ( 'NONE',  ( 0.000000000000000000, 3.894376821288583549E-15, -21.20000000000000284 ) ) ;
#22 = FACE_OUTER_BOUND ( 'NONE', #11, .T. ) ;
#23 = CIRCLE ( 'NONE', #69, 10.65000000000000036 ) ;
#24 = PERSON_AND_ORGANIZATION_ROLE ( 'creator' ) ;
#25 = CARTESIAN_POINT ( 'NONE',  ( 40.00000000000000000, 0.000000000000000000, 0.000000000000000000 ) ) ;
#26 = CC_DESIGN_APPROVAL ( #112, ( #96 ) ) ;
#27 = APPROVAL_DATE_TIME ( #77, #173 ) ;
#28 = CLOSED_SHELL ( 'NONE', ( #53, #84, #217, #209, #125, #35 ) ) ;
#29 = COORDINATED_UNIVERSAL_TIME_OFFSET ( 1, 0, .AHEAD. ) ;
#30 = EDGE_LOOP ( 'NONE', ( #16, #82 ) ) ;
#31 = CARTESIAN_POINT ( 'NONE',  ( 0.000000000000000000, 0.000000000000000000, 0.000000000000000000 ) ) ;
#32 = DIRECTION ( 'NONE',  ( 0.000000000000000000, 0.000000000000000000, -1.000000000000000000 ) ) ;
#33 = CARTESIAN_POINT ( 'NONE',  ( 40.00000000000000000, 0.000000000000000000, 8.581605393064466014 ) ) ;
#34 = DIRECTION ( 'NONE',  ( 0.000000000000000000, 0.000000000000000000, 1.000000000000000000 ) ) ;
#35 = ADVANCED_FACE ( 'NONE', ( #49 ), #142, .F. ) ;
#36 = CARTESIAN_POINT ( 'NONE',  ( 40.00000000000000000, 6.521244205459656303E-16, 10.65000000000000036 ) ) ;
#37 = COORDINATED_UNIVERSAL_TIME_OFFSET ( 1, 0, .AHEAD. ) ;
#38 = CALENDAR_DATE ( 2024, 11, 7 ) ;
#39 = AXIS2_PLACEMENT_3D ( 'NONE', #240, #127, #188 ) ;
#40 = LINE ( 'NONE', #4, #148 ) ;
#41 = DATE_AND_TIME ( #233, #157 ) ;
#42 = EDGE_CURVE ( 'NONE', #202, #44, #243, .T. ) ;
#43 = ORIENTED_EDGE ( 'NONE', *, *, #59, .F. ) ;
#44 = VERTEX_POINT ( 'NONE', #51 ) ;
#45 = CARTESIAN_POINT ( 'NONE',  ( 40.00000000000000000, 0.000000000000000000, 0.000000000000000000 ) ) ;
#46 = MANIFOLD_SOLID_BREP ( 'Wandung2', #28 ) ;
#47 = VERTEX_POINT ( 'NONE', #21 ) ;
#48 = CARTESIAN_POINT ( 'NONE',  ( 40.00000000000000000, 0.000000000000000000, 10.65000000000000036 ) ) ;
#49 = FACE_OUTER_BOUND ( 'NONE', #61, .T. ) ;
#50 = DIRECTION ( 'NONE',  ( 0.000000000000000000, 0.000000000000000000, -1.000000000000000000 ) ) ;
#51 = CARTESIAN_POINT ( 'NONE',  ( 0.000000000000000000, 0.000000000000000000, 19.13160539306446495 ) ) ;
#52 = ORGANIZATION ( 'UNSPECIFIED', 'UNSPECIFIED', '' ) ;
#53 = ADVANCED_FACE ( 'NONE', ( #213 ), #124, .F. ) ;
#54 = CARTESIAN_POINT ( 'NONE',  ( 40.00000000000000000, 0.000000000000000000, 0.000000000000000000 ) ) ;
#55 = CALENDAR_DATE ( 2024, 11, 7 ) ;
#56 = DATE_TIME_ROLE ( 'classification_date' ) ;
#57 = CIRCLE ( 'NONE', #89, 8.581605393064466014 ) ;
#58 = APPROVAL_ROLE ( '' ) ;
#59 = EDGE_CURVE ( 'NONE', #47, #66, #174, .T. ) ;
#60 = APPROVAL_STATUS ( 'not_yet_approved' ) ;
#61 = EDGE_LOOP ( 'NONE', ( #79, #7, #218, #199 ) ) ;
#62 = LOCAL_TIME ( 12, 19, 58.00000000000000000, #228 ) ;
#63 = ORIENTED_EDGE ( 'NONE', *, *, #94, .T. ) ;
#64 = CIRCLE ( 'NONE', #128, 10.65000000000000036 ) ;
#65 = CC_DESIGN_PERSON_AND_ORGANIZATION_ASSIGNMENT ( #227, #214, ( #96 ) ) ;
#66 = VERTEX_POINT ( 'NONE', #185 ) ;
#67 = CARTESIAN_POINT ( 'NONE',  ( 39.48994258810071045, 1.067418442280990501E-15, -8.716133035452905631 ) ) ;
#68 = FACE_BOUND ( 'NONE', #104, .T. ) ;
#69 = AXIS2_PLACEMENT_3D ( 'NONE', #144, #189, #50 ) ;
#70 = FACE_BOUND ( 'NONE', #180, .T. ) ;
#71 = CARTESIAN_POINT ( 'NONE',  ( 39.48994258810071045, 0.000000000000000000, 0.000000000000000000 ) ) ;
#72 = DIRECTION ( 'NONE',  ( 0.000000000000000000, 0.000000000000000000, -1.000000000000000000 ) ) ;
#73 = COORDINATED_UNIVERSAL_TIME_OFFSET ( 1, 0, .AHEAD. ) ;
#74 = PERSON_AND_ORGANIZATION ( #187, #52 ) ;
#75 = PERSON_AND_ORGANIZATION ( #187, #52 ) ;
#76 = PERSON_AND_ORGANIZATION_ROLE ( 'design_owner' ) ;
#77 = DATE_AND_TIME ( #38, #212 ) ;
#78 = EDGE_CURVE ( 'NONE', #123, #200, #64, .T. ) ;
#79 = ORIENTED_EDGE ( 'NONE', *, *, #94, .F. ) ;
#80 = APPROVAL_PERSON_ORGANIZATION ( #122, #112, #141 ) ;
#81 = AXIS2_PLACEMENT_3D ( 'NONE', #92, #126, #206 ) ;
#82 = ORIENTED_EDGE ( 'NONE', *, *, #107, .T. ) ;
#83 = CONICAL_SURFACE ( 'NONE', #164, 10.65000000000000036, 0.2578773907065749493 ) ;
#84 = ADVANCED_FACE ( 'NONE', ( #88 ), #235, .T. ) ;
#85 = ORIENTED_EDGE ( 'NONE', *, *, #197, .T. ) ;
#86 = DIRECTION ( 'NONE',  ( -0.9669334822735470292, 0.000000000000000000, 0.2550287059496480491 ) ) ;
#87 = CARTESIAN_POINT ( 'NONE',  ( 40.00000000000000000, 0.000000000000000000, 0.000000000000000000 ) ) ;
#88 = FACE_OUTER_BOUND ( 'NONE', #98, .T. ) ;
#89 = AXIS2_PLACEMENT_3D ( 'NONE', #45, #91, #239 ) ;
#90 = AXIS2_PLACEMENT_3D ( 'NONE', #210, #20, #72 ) ;
#91 = DIRECTION ( 'NONE',  ( 1.000000000000000000, 0.000000000000000000, 0.000000000000000000 ) ) ;
#92 = CARTESIAN_POINT ( 'NONE',  ( 40.00000000000000000, 0.000000000000000000, 0.000000000000000000 ) ) ;
#93 = CARTESIAN_POINT ( 'NONE',  ( 0.000000000000000000, 0.000000000000000000, 0.000000000000000000 ) ) ;
#94 = EDGE_CURVE ( 'NONE', #17, #181, #149, .T. ) ;
#95 = CALENDAR_DATE ( 2024, 11, 7 ) ;
#96 = SECURITY_CLASSIFICATION ( '', '', #153 ) ;
#97 = CC_DESIGN_PERSON_AND_ORGANIZATION_ASSIGNMENT ( #198, #171, ( #146 ) ) ;
#98 = EDGE_LOOP ( 'NONE', ( #237, #204, #121, #165 ) ) ;
#99 = ORIENTED_EDGE ( 'NONE', *, *, #103, .T. ) ;
#100 = VECTOR ( 'NONE', #86, 1000.000000000000227 ) ;
#101 = SHAPE_DEFINITION_REPRESENTATION ( #179, #140 ) ;
#102 = ORIENTED_EDGE ( 'NONE', *, *, #78, .F. ) ;
#103 = EDGE_CURVE ( 'NONE', #123, #66, #109, .T. ) ;
#104 = EDGE_LOOP ( 'NONE', ( #220, #85 ) ) ;
#105 = DIRECTION ( 'NONE',  ( 0.000000000000000000, 0.000000000000000000, -1.000000000000000000 ) ) ;
#106 = CARTESIAN_POINT ( 'NONE',  ( 40.00000000000000000, 6.521244205459656303E-16, -10.65000000000000036 ) ) ;
#107 = EDGE_CURVE ( 'NONE', #200, #123, #23, .T. ) ;
#108 = CARTESIAN_POINT ( 'NONE',  ( 0.000000000000000000, 0.000000000000000000, 0.000000000000000000 ) ) ;
#109 = LINE ( 'NONE', #48, #8 ) ;
#110 = AXIS2_PLACEMENT_3D ( 'NONE', #108, #241, #186 ) ;
#111 = CARTESIAN_POINT ( 'NONE',  ( 40.00000000000000000, 0.000000000000000000, 0.000000000000000000 ) ) ;
#112 = APPROVAL ( #60, 'UNSPECIFIED' ) ;
#113 = MECHANICAL_CONTEXT ( 'NONE', #14, 'mechanical' ) ;
#114 = DIRECTION ( 'NONE',  ( -0.9669334822735470292, 3.123200884319280398E-17, -0.2550287059496480491 ) ) ;
#115 = AXIS2_PLACEMENT_3D ( 'NONE', #31, #168, #105 ) ;
#116 = DIRECTION ( 'NONE',  ( 1.000000000000000000, 0.000000000000000000, 0.000000000000000000 ) ) ;
#117 = APPROVAL ( #248, 'UNSPECIFIED' ) ;
#118 = DATE_TIME_ROLE ( 'creation_date' ) ;
#119 = APPROVAL_DATE_TIME ( #41, #117 ) ;
#120 = ORIENTED_EDGE ( 'NONE', *, *, #178, .T. ) ;
#121 = ORIENTED_EDGE ( 'NONE', *, *, #59, .T. ) ;
#122 = PERSON_AND_ORGANIZATION ( #187, #52 ) ;
#123 = VERTEX_POINT ( 'NONE', #36 ) ;
#124 = CONICAL_SURFACE ( 'NONE', #39, 8.716133035452905631, 0.2578773907065749493 ) ;
#125 = ADVANCED_FACE ( 'NONE', ( #22 ), #83, .T. ) ;
#126 = DIRECTION ( 'NONE',  ( 1.000000000000000000, 0.000000000000000000, 0.000000000000000000 ) ) ;
#127 = DIRECTION ( 'NONE',  ( -1.000000000000000000, -0.000000000000000000, -0.000000000000000000 ) ) ;
#128 = AXIS2_PLACEMENT_3D ( 'NONE', #54, #19, #130 ) ;
#129 = AXIS2_PLACEMENT_3D ( 'NONE', #18, #224, #32 ) ;
#130 = DIRECTION ( 'NONE',  ( 0.000000000000000000, 0.000000000000000000, -1.000000000000000000 ) ) ;
#131 = DIRECTION ( 'NONE',  ( -1.000000000000000000, -0.000000000000000000, -0.000000000000000000 ) ) ;
#132 = DIRECTION ( 'NONE',  ( 1.000000000000000000, 0.000000000000000000, 0.000000000000000000 ) ) ;
#133 = LOCAL_TIME ( 12, 19, 58.00000000000000000, #29 ) ;
#134 = PLANE ( 'NONE',  #143 ) ;
#135 = APPLICATION_PROTOCOL_DEFINITION ( 'international standard', 'config_control_design', 1994, #14 ) ;
#136 = DIRECTION ( 'NONE',  ( 0.000000000000000000, 0.000000000000000000, -1.000000000000000000 ) ) ;
#137 = ORIENTED_EDGE ( 'NONE', *, *, #151, .F. ) ;
#138 = ORIENTED_EDGE ( 'NONE', *, *, #156, .T. ) ;
#139 = ORIENTED_EDGE ( 'NONE', *, *, #2, .F. ) ;
#140 = ADVANCED_BREP_SHAPE_REPRESENTATION ( '3D_R169-K_42-21_17325230', ( #46, #229 ), #6 ) ;
#141 = APPROVAL_ROLE ( '' ) ;
#142 = CONICAL_SURFACE ( 'NONE', #249, 8.716133035452905631, 0.2578773907065749493 ) ;
#143 = AXIS2_PLACEMENT_3D ( 'NONE', #25, #195, #136 ) ;
#144 = CARTESIAN_POINT ( 'NONE',  ( 40.00000000000000000, 0.000000000000000000, 0.000000000000000000 ) ) ;
#145 = FACE_OUTER_BOUND ( 'NONE', #201, .T. ) ;
#146 = PRODUCT_DEFINITION_FORMATION_WITH_SPECIFIED_SOURCE ( 'ANY', '', #15, .NOT_KNOWN. ) ;
#147 = FACE_OUTER_BOUND ( 'NONE', #30, .T. ) ;
#148 = VECTOR ( 'NONE', #114, 1000.000000000000227 ) ;
#149 = LINE ( 'NONE', #67, #211 ) ;
#150 = DIRECTION ( 'NONE',  ( 0.000000000000000000, 0.000000000000000000, 1.000000000000000000 ) ) ;
#151 = EDGE_CURVE ( 'NONE', #44, #181, #242, .T. ) ;
#152 = CC_DESIGN_APPROVAL ( #173, ( #146 ) ) ;
#153 = SECURITY_CLASSIFICATION_LEVEL ( 'unclassified' ) ;
#154 = AXIS2_PLACEMENT_3D ( 'NONE', #226, #132, #207 ) ;
#155 = COORDINATED_UNIVERSAL_TIME_OFFSET ( 1, 0, .AHEAD. ) ;
#156 = EDGE_CURVE ( 'NONE', #202, #17, #192, .T. ) ;
#157 = LOCAL_TIME ( 12, 19, 58.00000000000000000, #37 ) ;
#158 =( LENGTH_UNIT ( ) NAMED_UNIT ( * ) SI_UNIT ( .MILLI., .METRE. ) );
#159 = CC_DESIGN_DATE_AND_TIME_ASSIGNMENT ( #190, #56, ( #96 ) ) ;
#160 = ORIENTED_EDGE ( 'NONE', *, *, #236, .F. ) ;
#161 = PRODUCT_DEFINITION ( 'UNKNOWN', '', #146, #5 ) ;
#162 = EDGE_LOOP ( 'NONE', ( #138, #63, #137, #163 ) ) ;
#163 = ORIENTED_EDGE ( 'NONE', *, *, #42, .F. ) ;
#164 = AXIS2_PLACEMENT_3D ( 'NONE', #111, #244, #150 ) ;
#165 = ORIENTED_EDGE ( 'NONE', *, *, #103, .F. ) ;
#166 = PRODUCT_RELATED_PRODUCT_CATEGORY ( 'detail', '', ( #15 ) ) ;
#167 = CARTESIAN_POINT ( 'NONE',  ( 39.48994258810071045, 0.000000000000000000, 8.716133035452905631 ) ) ;
#168 = DIRECTION ( 'NONE',  ( 1.000000000000000000, 0.000000000000000000, 0.000000000000000000 ) ) ;
#169 = DIRECTION ( 'NONE',  ( 0.000000000000000000, 0.000000000000000000, 1.000000000000000000 ) ) ;
#170 = DIRECTION ( 'NONE',  ( -0.9669334822735470292, 0.000000000000000000, 0.2550287059496480491 ) ) ;
#171 = PERSON_AND_ORGANIZATION_ROLE ( 'design_supplier' ) ;
#172 = APPLICATION_PROTOCOL_DEFINITION ( 'international standard', 'config_control_design', 1994, #232 ) ;
#173 = APPROVAL ( #246, 'UNSPECIFIED' ) ;
#174 = CIRCLE ( 'NONE', #90, 21.19999999999999929 ) ;
#175 = APPROVAL_ROLE ( '' ) ;
#176 = DIRECTION ( 'NONE',  ( 0.000000000000000000, 0.000000000000000000, 1.000000000000000000 ) ) ;
#177 = PERSON_AND_ORGANIZATION ( #187, #52 ) ;
#178 = EDGE_CURVE ( 'NONE', #66, #47, #223, .T. ) ;
#179 = PRODUCT_DEFINITION_SHAPE ( 'NONE', 'NONE',  #161 ) ;
#180 = EDGE_LOOP ( 'NONE', ( #216, #139 ) ) ;
#181 = VERTEX_POINT ( 'NONE', #184 ) ;
#182 = LOCAL_TIME ( 12, 19, 58.00000000000000000, #155 ) ;
#183 = CC_DESIGN_DATE_AND_TIME_ASSIGNMENT ( #1, #118, ( #161 ) ) ;
#184 = CARTESIAN_POINT ( 'NONE',  ( 0.000000000000000000, 2.342945930716663845E-15, -19.13160539306446495 ) ) ;
#185 = CARTESIAN_POINT ( 'NONE',  ( 0.000000000000000000, -1.298125607096194779E-15, 21.20000000000000284 ) ) ;
#186 = DIRECTION ( 'NONE',  ( 0.000000000000000000, 0.000000000000000000, -1.000000000000000000 ) ) ;
#187 = PERSON ( 'UNSPECIFIED', 'UNSPECIFIED', 'UNSPECIFIED', ('UNSPECIFIED'), ('UNSPECIFIED'), ('UNSPECIFIED') ) ;
#188 = DIRECTION ( 'NONE',  ( 0.000000000000000000, 0.000000000000000000, 1.000000000000000000 ) ) ;
#189 = DIRECTION ( 'NONE',  ( 1.000000000000000000, 0.000000000000000000, 0.000000000000000000 ) ) ;
#190 = DATE_AND_TIME ( #55, #182 ) ;
#191 = CC_DESIGN_PERSON_AND_ORGANIZATION_ASSIGNMENT ( #74, #230, ( #146 ) ) ;
#192 = CIRCLE ( 'NONE', #81, 8.581605393064466014 ) ;
#193 =( NAMED_UNIT ( * ) PLANE_ANGLE_UNIT ( ) SI_UNIT ( $, .RADIAN. ) );
#194 = CC_DESIGN_SECURITY_CLASSIFICATION ( #96, ( #146 ) ) ;
#195 = DIRECTION ( 'NONE',  ( 1.000000000000000000, 0.000000000000000000, 0.000000000000000000 ) ) ;
#196 = UNCERTAINTY_MEASURE_WITH_UNIT (LENGTH_MEASURE( 1.000000000000000082E-05 ), #158, 'distance_accuracy_value', 'NONE');
#197 = EDGE_CURVE ( 'NONE', #181, #44, #12, .T. ) ;
#198 = PERSON_AND_ORGANIZATION ( #187, #52 ) ;
#199 = ORIENTED_EDGE ( 'NONE', *, *, #197, .F. ) ;
#200 = VERTEX_POINT ( 'NONE', #106 ) ;
#201 = EDGE_LOOP ( 'NONE', ( #13, #43 ) ) ;
#202 = VERTEX_POINT ( 'NONE', #33 ) ;
#203 = APPROVAL_DATE_TIME ( #234, #112 ) ;
#204 = ORIENTED_EDGE ( 'NONE', *, *, #236, .T. ) ;
#205 = CC_DESIGN_PERSON_AND_ORGANIZATION_ASSIGNMENT ( #75, #24, ( #161 ) ) ;
#206 = DIRECTION ( 'NONE',  ( 0.000000000000000000, 0.000000000000000000, -1.000000000000000000 ) ) ;
#207 = DIRECTION ( 'NONE',  ( 0.000000000000000000, 0.000000000000000000, -1.000000000000000000 ) ) ;
#208 = DIRECTION ( 'NONE',  ( -1.000000000000000000, -0.000000000000000000, -0.000000000000000000 ) ) ;
#209 = ADVANCED_FACE ( 'NONE', ( #68, #145 ), #222, .F. ) ;
#210 = CARTESIAN_POINT ( 'NONE',  ( 0.000000000000000000, 0.000000000000000000, 0.000000000000000000 ) ) ;
#211 = VECTOR ( 'NONE', #225, 1000.000000000000227 ) ;
#212 = LOCAL_TIME ( 12, 19, 58.00000000000000000, #73 ) ;
#213 = FACE_OUTER_BOUND ( 'NONE', #162, .T. ) ;
#214 = PERSON_AND_ORGANIZATION_ROLE ( 'classification_officer' ) ;
#215 =( NAMED_UNIT ( * ) SI_UNIT ( $, .STERADIAN. ) SOLID_ANGLE_UNIT ( ) );
#216 = ORIENTED_EDGE ( 'NONE', *, *, #156, .F. ) ;
#217 = ADVANCED_FACE ( 'NONE', ( #70, #147 ), #134, .T. ) ;
#218 = ORIENTED_EDGE ( 'NONE', *, *, #42, .T. ) ;
#219 = APPROVAL_PERSON_ORGANIZATION ( #177, #173, #58 ) ;
#220 = ORIENTED_EDGE ( 'NONE', *, *, #151, .T. ) ;
#221 = CARTESIAN_POINT ( 'NONE',  ( 40.00000000000000000, 1.696944744166435386E-15, -8.581605393064466014 ) ) ;
#222 = PLANE ( 'NONE',  #110 ) ;
#223 = CIRCLE ( 'NONE', #115, 21.19999999999999929 ) ;
#224 = DIRECTION ( 'NONE',  ( 1.000000000000000000, 0.000000000000000000, 0.000000000000000000 ) ) ;
#225 = DIRECTION ( 'NONE',  ( -0.9669334822735470292, 3.123200884319280398E-17, -0.2550287059496480491 ) ) ;
#226 = CARTESIAN_POINT ( 'NONE',  ( 0.000000000000000000, 0.000000000000000000, 0.000000000000000000 ) ) ;
#227 = PERSON_AND_ORGANIZATION ( #187, #52 ) ;
#228 = COORDINATED_UNIVERSAL_TIME_OFFSET ( 1, 0, .AHEAD. ) ;
#229 = AXIS2_PLACEMENT_3D ( 'NONE', #93, #176, #116 ) ;
#230 = PERSON_AND_ORGANIZATION_ROLE ( 'creator' ) ;
#231 = PERSON_AND_ORGANIZATION ( #187, #52 ) ;
#232 = APPLICATION_CONTEXT ( 'configuration controlled 3d designs of mechanical parts and assemblies' ) ;
#233 = CALENDAR_DATE ( 2024, 11, 7 ) ;
#234 = DATE_AND_TIME ( #10, #133 ) ;
#235 = CONICAL_SURFACE ( 'NONE', #238, 10.65000000000000036, 0.2578773907065749493 ) ;
#236 = EDGE_CURVE ( 'NONE', #200, #47, #40, .T. ) ;
#237 = ORIENTED_EDGE ( 'NONE', *, *, #107, .F. ) ;
#238 = AXIS2_PLACEMENT_3D ( 'NONE', #87, #208, #169 ) ;
#239 = DIRECTION ( 'NONE',  ( 0.000000000000000000, 0.000000000000000000, -1.000000000000000000 ) ) ;
#240 = CARTESIAN_POINT ( 'NONE',  ( 39.48994258810071045, 0.000000000000000000, 0.000000000000000000 ) ) ;
#241 = DIRECTION ( 'NONE',  ( 1.000000000000000000, 0.000000000000000000, 0.000000000000000000 ) ) ;
#242 = CIRCLE ( 'NONE', #154, 19.13160539306446850 ) ;
#243 = LINE ( 'NONE', #167, #100 ) ;
#244 = DIRECTION ( 'NONE',  ( -1.000000000000000000, -0.000000000000000000, -0.000000000000000000 ) ) ;
#245 = APPROVAL_PERSON_ORGANIZATION ( #231, #117, #175 ) ;
#246 = APPROVAL_STATUS ( 'not_yet_approved' ) ;
#247 = CC_DESIGN_PERSON_AND_ORGANIZATION_ASSIGNMENT ( #3, #76, ( #15 ) ) ;
#248 = APPROVAL_STATUS ( 'not_yet_approved' ) ;
#249 = AXIS2_PLACEMENT_3D ( 'NONE', #71, #131, #34 ) ;
ENDSEC;
END-ISO-10303-21;
