ISO-10303-21;
HEADER;
FILE_DESCRIPTION (( 'STEP AP203' ),
    '1' );
FILE_NAME ('3D_R169_ DN38-25_17323184.STEP',
    '2024-07-17T12:13:17',
    ( '' ),
    ( '' ),
    'SwSTEP 2.0',
    'SolidWorks 2024',
    '' );
FILE_SCHEMA (( 'CONFIG_CONTROL_DESIGN' ));
ENDSEC;

DATA;
#1 = DIRECTION ( 'NONE',  ( -0.9863939238321437486, 2.013306935865721687E-17, -0.1643989873053572637 ) ) ;
#2 = AXIS2_PLACEMENT_3D ( 'NONE', #182, #225, #52 ) ;
#3 = ADVANCED_FACE ( 'NONE', ( #32 ), #80, .F. ) ;
#4 = EDGE_LOOP ( 'NONE', ( #120, #195, #176, #143 ) ) ;
#5 = EDGE_CURVE ( 'NONE', #237, #43, #243, .T. ) ;
#6 = VERTEX_POINT ( 'NONE', #146 ) ;
#7 = ORIENTED_EDGE ( 'NONE', *, *, #24, .T. ) ;
#8 = MANIFOLD_SOLID_BREP ( 'Wandung2', #191 ) ;
#9 = DIRECTION ( 'NONE',  ( -1.000000000000000000, -0.000000000000000000, -0.000000000000000000 ) ) ;
#10 = VECTOR ( 'NONE', #38, 1000.000000000000114 ) ;
#11 = FACE_OUTER_BOUND ( 'NONE', #196, .T. ) ;
#12 = DATE_AND_TIME ( #247, #134 ) ;
#13 = DIRECTION ( 'NONE',  ( 0.000000000000000000, 0.000000000000000000, -1.000000000000000000 ) ) ;
#14 = SHAPE_DEFINITION_REPRESENTATION ( #205, #209 ) ;
#15 = CARTESIAN_POINT ( 'NONE',  ( 0.000000000000000000, 2.078521062956531856E-15, -16.97241248990059148 ) ) ;
#16 = DATE_AND_TIME ( #48, #168 ) ;
#17 = CIRCLE ( 'NONE', #2, 19.00000000000000000 ) ;
#18 = EDGE_CURVE ( 'NONE', #160, #175, #133, .T. ) ;
#19 = DIRECTION ( 'NONE',  ( 1.000000000000000000, 0.000000000000000000, 0.000000000000000000 ) ) ;
#20 = UNCERTAINTY_MEASURE_WITH_UNIT (LENGTH_MEASURE( 1.000000000000000082E-05 ), #49, 'distance_accuracy_value', 'NONE');
#21 = DIRECTION ( 'NONE',  ( -1.000000000000000000, -0.000000000000000000, -0.000000000000000000 ) ) ;
#22 = EDGE_CURVE ( 'NONE', #6, #82, #235, .T. ) ;
#23 = EDGE_LOOP ( 'NONE', ( #42, #44 ) ) ;
#24 = EDGE_CURVE ( 'NONE', #218, #43, #17, .T. ) ;
#25 = ORIENTED_EDGE ( 'NONE', *, *, #47, .T. ) ;
#26 = EDGE_LOOP ( 'NONE', ( #236, #64 ) ) ;
#27 = AXIS2_PLACEMENT_3D ( 'NONE', #164, #246, #53 ) ;
#28 = APPROVAL_PERSON_ORGANIZATION ( #163, #95, #244 ) ;
#29 = DIRECTION ( 'NONE',  ( 0.000000000000000000, 0.000000000000000000, 1.000000000000000000 ) ) ;
#30 = ORIENTED_EDGE ( 'NONE', *, *, #5, .T. ) ;
#31 = PERSON_AND_ORGANIZATION ( #104, #74 ) ;
#32 = FACE_OUTER_BOUND ( 'NONE', #121, .T. ) ;
#33 = DIRECTION ( 'NONE',  ( -1.000000000000000000, -0.000000000000000000, -0.000000000000000000 ) ) ;
#34 = DATE_AND_TIME ( #167, #215 ) ;
#35 = FACE_OUTER_BOUND ( 'NONE', #23, .T. ) ;
#36 = CALENDAR_DATE ( 2024, 17, 7 ) ;
#37 = AXIS2_PLACEMENT_3D ( 'NONE', #129, #206, #109 ) ;
#38 = DIRECTION ( 'NONE',  ( -0.9863939238321437486, 0.000000000000000000, 0.1643989873053572637 ) ) ;
#39 = APPROVAL_PERSON_ORGANIZATION ( #75, #93, #56 ) ;
#40 = CC_DESIGN_PERSON_AND_ORGANIZATION_ASSIGNMENT ( #31, #108, ( #230 ) ) ;
#41 = AXIS2_PLACEMENT_3D ( 'NONE', #166, #33, #71 ) ;
#42 = ORIENTED_EDGE ( 'NONE', *, *, #67, .F. ) ;
#43 = VERTEX_POINT ( 'NONE', #128 ) ;
#44 = ORIENTED_EDGE ( 'NONE', *, *, #24, .F. ) ;
#45 = FACE_OUTER_BOUND ( 'NONE', #124, .T. ) ;
#46 = ADVANCED_FACE ( 'NONE', ( #11 ), #60, .T. ) ;
#47 = EDGE_CURVE ( 'NONE', #175, #160, #198, .T. ) ;
#48 = CALENDAR_DATE ( 2024, 17, 7 ) ;
#49 =( LENGTH_UNIT ( ) NAMED_UNIT ( * ) SI_UNIT ( .MILLI., .METRE. ) );
#50 = DIRECTION ( 'NONE',  ( 1.000000000000000000, 0.000000000000000000, 0.000000000000000000 ) ) ;
#51 = PERSON_AND_ORGANIZATION ( #104, #74 ) ;
#52 = DIRECTION ( 'NONE',  ( 0.000000000000000000, 0.000000000000000000, -1.000000000000000000 ) ) ;
#53 = DIRECTION ( 'NONE',  ( 0.000000000000000000, 0.000000000000000000, -1.000000000000000000 ) ) ;
#54 = PERSON_AND_ORGANIZATION ( #104, #74 ) ;
#55 = CARTESIAN_POINT ( 'NONE',  ( 39.00000000000000000, 7.654042494670957606E-16, -12.50000000000000000 ) ) ;
#56 = APPROVAL_ROLE ( '' ) ;
#57 = LOCAL_TIME ( 14, 13, 17.00000000000000000, #144 ) ;
#58 = DIRECTION ( 'NONE',  ( -0.9863939238321437486, 2.013306935865721687E-17, -0.1643989873053572637 ) ) ;
#59 = DIRECTION ( 'NONE',  ( 0.000000000000000000, 0.000000000000000000, 1.000000000000000000 ) ) ;
#60 = CONICAL_SURFACE ( 'NONE', #155, 12.50000000000000000, 0.1651486774146267988 ) ;
#61 = APPROVAL ( #68, 'UNSPECIFIED' ) ;
#62 = CC_DESIGN_APPROVAL ( #61, ( #230 ) ) ;
#63 = ORIENTED_EDGE ( 'NONE', *, *, #18, .F. ) ;
#64 = ORIENTED_EDGE ( 'NONE', *, *, #101, .F. ) ;
#65 = DIRECTION ( 'NONE',  ( 1.000000000000000000, 0.000000000000000000, 0.000000000000000000 ) ) ;
#66 = AXIS2_PLACEMENT_3D ( 'NONE', #159, #65, #238 ) ;
#67 = EDGE_CURVE ( 'NONE', #43, #218, #100, .T. ) ;
#68 = APPROVAL_STATUS ( 'not_yet_approved' ) ;
#69 = DIRECTION ( 'NONE',  ( -0.9863939238321437486, 0.000000000000000000, 0.1643989873053572637 ) ) ;
#70 = ORIENTED_EDGE ( 'NONE', *, *, #135, .F. ) ;
#71 = DIRECTION ( 'NONE',  ( 0.000000000000000000, 0.000000000000000000, 1.000000000000000000 ) ) ;
#72 = APPROVAL_DATE_TIME ( #106, #93 ) ;
#73 = CARTESIAN_POINT ( 'NONE',  ( 39.00000000000000000, 0.000000000000000000, 0.000000000000000000 ) ) ;
#74 = ORGANIZATION ( 'UNSPECIFIED', 'UNSPECIFIED', '' ) ;
#75 = PERSON_AND_ORGANIZATION ( #104, #74 ) ;
#76 = VECTOR ( 'NONE', #1, 1000.000000000000114 ) ;
#77 = CARTESIAN_POINT ( 'NONE',  ( 38.67120202538928453, 0.000000000000000000, 10.52721215233571250 ) ) ;
#78 = DIRECTION ( 'NONE',  ( 1.000000000000000000, 0.000000000000000000, 0.000000000000000000 ) ) ;
#79 = AXIS2_PLACEMENT_3D ( 'NONE', #179, #83, #103 ) ;
#80 = CONICAL_SURFACE ( 'NONE', #220, 10.52721215233571250, 0.1651486774146267988 ) ;
#81 = EDGE_LOOP ( 'NONE', ( #97, #85, #30, #118 ) ) ;
#82 = VERTEX_POINT ( 'NONE', #140 ) ;
#83 = DIRECTION ( 'NONE',  ( 1.000000000000000000, 0.000000000000000000, 0.000000000000000000 ) ) ;
#84 = ADVANCED_FACE ( 'NONE', ( #219, #45 ), #123, .T. ) ;
#85 = ORIENTED_EDGE ( 'NONE', *, *, #115, .F. ) ;
#86 = APPROVAL_DATE_TIME ( #34, #61 ) ;
#87 = CARTESIAN_POINT ( 'NONE',  ( 39.00000000000000000, 0.000000000000000000, 0.000000000000000000 ) ) ;
#88 = COORDINATED_UNIVERSAL_TIME_OFFSET ( 1, 0, .AHEAD. ) ;
#89 = CARTESIAN_POINT ( 'NONE',  ( 39.00000000000000000, 1.530808498934191521E-15, -12.50000000000000000 ) ) ;
#90 = AXIS2_PLACEMENT_3D ( 'NONE', #185, #50, #13 ) ;
#91 = FACE_BOUND ( 'NONE', #158, .T. ) ;
#92 = DATE_TIME_ROLE ( 'creation_date' ) ;
#93 = APPROVAL ( #125, 'UNSPECIFIED' ) ;
#94 = DIRECTION ( 'NONE',  ( 0.000000000000000000, 0.000000000000000000, 1.000000000000000000 ) ) ;
#95 = APPROVAL ( #241, 'UNSPECIFIED' ) ;
#96 = AXIS2_PLACEMENT_3D ( 'NONE', #73, #19, #208 ) ;
#97 = ORIENTED_EDGE ( 'NONE', *, *, #180, .F. ) ;
#98 = VERTEX_POINT ( 'NONE', #55 ) ;
#99 = ORIENTED_EDGE ( 'NONE', *, *, #101, .T. ) ;
#100 = CIRCLE ( 'NONE', #66, 19.00000000000000000 ) ;
#101 = EDGE_CURVE ( 'NONE', #82, #6, #174, .T. ) ;
#102 = CC_DESIGN_APPROVAL ( #93, ( #200 ) ) ;
#103 = DIRECTION ( 'NONE',  ( 0.000000000000000000, 0.000000000000000000, -1.000000000000000000 ) ) ;
#104 = PERSON ( 'UNSPECIFIED', 'UNSPECIFIED', 'UNSPECIFIED', ('UNSPECIFIED'), ('UNSPECIFIED'), ('UNSPECIFIED') ) ;
#105 = APPLICATION_CONTEXT ( 'configuration controlled 3d designs of mechanical parts and assemblies' ) ;
#106 = DATE_AND_TIME ( #110, #178 ) ;
#107 = CARTESIAN_POINT ( 'NONE',  ( 39.00000000000000000, 0.000000000000000000, 12.50000000000000000 ) ) ;
#108 = PERSON_AND_ORGANIZATION_ROLE ( 'creator' ) ;
#109 = DIRECTION ( 'NONE',  ( 0.000000000000000000, 0.000000000000000000, -1.000000000000000000 ) ) ;
#110 = CALENDAR_DATE ( 2024, 17, 7 ) ;
#111 = PLANE ( 'NONE',  #27 ) ;
#112 = CC_DESIGN_DATE_AND_TIME_ASSIGNMENT ( #12, #207, ( #248 ) ) ;
#113 = AXIS2_PLACEMENT_3D ( 'NONE', #199, #227, #189 ) ;
#114 = CONICAL_SURFACE ( 'NONE', #41, 12.50000000000000000, 0.1651486774146267988 ) ;
#115 = EDGE_CURVE ( 'NONE', #237, #98, #239, .T. ) ;
#116 = CARTESIAN_POINT ( 'NONE',  ( 38.67120202538928453, 0.000000000000000000, 0.000000000000000000 ) ) ;
#117 = PERSON_AND_ORGANIZATION ( #104, #74 ) ;
#118 = ORIENTED_EDGE ( 'NONE', *, *, #67, .T. ) ;
#119 = ORIENTED_EDGE ( 'NONE', *, *, #115, .T. ) ;
#120 = ORIENTED_EDGE ( 'NONE', *, *, #22, .T. ) ;
#121 = EDGE_LOOP ( 'NONE', ( #177, #99, #216, #63 ) ) ;
#122 = AXIS2_PLACEMENT_3D ( 'NONE', #87, #162, #126 ) ;
#123 = PLANE ( 'NONE',  #113 ) ;
#124 = EDGE_LOOP ( 'NONE', ( #119, #139 ) ) ;
#125 = APPROVAL_STATUS ( 'not_yet_approved' ) ;
#126 = DIRECTION ( 'NONE',  ( 0.000000000000000000, 0.000000000000000000, -1.000000000000000000 ) ) ;
#127 = APPROVAL_ROLE ( '' ) ;
#128 = CARTESIAN_POINT ( 'NONE',  ( 0.000000000000000000, -1.163414459189985485E-15, 19.00000000000000000 ) ) ;
#129 = CARTESIAN_POINT ( 'NONE',  ( 39.00000000000000000, 0.000000000000000000, 0.000000000000000000 ) ) ;
#130 = DIRECTION ( 'NONE',  ( 1.000000000000000000, 0.000000000000000000, 0.000000000000000000 ) ) ;
#131 = ADVANCED_FACE ( 'NONE', ( #91, #35 ), #111, .F. ) ;
#132 = FACE_OUTER_BOUND ( 'NONE', #4, .T. ) ;
#133 = CIRCLE ( 'NONE', #90, 16.97241248990059148 ) ;
#134 = LOCAL_TIME ( 14, 13, 17.00000000000000000, #186 ) ;
#135 = EDGE_CURVE ( 'NONE', #98, #237, #210, .T. ) ;
#136 = CC_DESIGN_DATE_AND_TIME_ASSIGNMENT ( #16, #92, ( #230 ) ) ;
#137 = ORIENTED_EDGE ( 'NONE', *, *, #5, .F. ) ;
#138 = VECTOR ( 'NONE', #58, 1000.000000000000114 ) ;
#139 = ORIENTED_EDGE ( 'NONE', *, *, #135, .T. ) ;
#140 = CARTESIAN_POINT ( 'NONE',  ( 39.00000000000000000, 1.680510853233642822E-15, -10.47241248990059503 ) ) ;
#141 = AXIS2_PLACEMENT_3D ( 'NONE', #149, #130, #245 ) ;
#142 = APPROVAL_DATE_TIME ( #152, #95 ) ;
#143 = ORIENTED_EDGE ( 'NONE', *, *, #229, .F. ) ;
#144 = COORDINATED_UNIVERSAL_TIME_OFFSET ( 1, 0, .AHEAD. ) ;
#145 = APPLICATION_PROTOCOL_DEFINITION ( 'international standard', 'config_control_design', 1994, #171 ) ;
#146 = CARTESIAN_POINT ( 'NONE',  ( 39.00000000000000000, 0.000000000000000000, 10.47241248990059503 ) ) ;
#147 = FACE_OUTER_BOUND ( 'NONE', #81, .T. ) ;
#148 = PERSON_AND_ORGANIZATION ( #104, #74 ) ;
#149 = CARTESIAN_POINT ( 'NONE',  ( 39.00000000000000000, 0.000000000000000000, 0.000000000000000000 ) ) ;
#150 = APPROVAL_PERSON_ORGANIZATION ( #203, #61, #127 ) ;
#151 = ADVANCED_FACE ( 'NONE', ( #147 ), #114, .T. ) ;
#152 = DATE_AND_TIME ( #36, #57 ) ;
#153 = AXIS2_PLACEMENT_3D ( 'NONE', #116, #21, #94 ) ;
#154 = CARTESIAN_POINT ( 'NONE',  ( 39.00000000000000000, 7.654042494670957606E-16, 12.50000000000000000 ) ) ;
#155 = AXIS2_PLACEMENT_3D ( 'NONE', #240, #9, #29 ) ;
#156 = CC_DESIGN_PERSON_AND_ORGANIZATION_ASSIGNMENT ( #117, #194, ( #242 ) ) ;
#157 = ORIENTED_EDGE ( 'NONE', *, *, #18, .T. ) ;
#158 = EDGE_LOOP ( 'NONE', ( #25, #157 ) ) ;
#159 = CARTESIAN_POINT ( 'NONE',  ( 0.000000000000000000, 0.000000000000000000, 0.000000000000000000 ) ) ;
#160 = VERTEX_POINT ( 'NONE', #15 ) ;
#161 = CC_DESIGN_SECURITY_CLASSIFICATION ( #248, ( #200 ) ) ;
#162 = DIRECTION ( 'NONE',  ( 1.000000000000000000, 0.000000000000000000, 0.000000000000000000 ) ) ;
#163 = PERSON_AND_ORGANIZATION ( #104, #74 ) ;
#164 = CARTESIAN_POINT ( 'NONE',  ( 0.000000000000000000, 0.000000000000000000, 0.000000000000000000 ) ) ;
#165 = AXIS2_PLACEMENT_3D ( 'NONE', #234, #59, #78 ) ;
#166 = CARTESIAN_POINT ( 'NONE',  ( 39.00000000000000000, 0.000000000000000000, 0.000000000000000000 ) ) ;
#167 = CALENDAR_DATE ( 2024, 17, 7 ) ;
#168 = LOCAL_TIME ( 14, 13, 17.00000000000000000, #181 ) ;
#169 = DESIGN_CONTEXT ( 'detailed design', #171, 'design' ) ;
#170 = LINE ( 'NONE', #233, #138 ) ;
#171 = APPLICATION_CONTEXT ( 'configuration controlled 3d designs of mechanical parts and assemblies' ) ;
#172 = APPLICATION_PROTOCOL_DEFINITION ( 'international standard', 'config_control_design', 1994, #105 ) ;
#173 = CC_DESIGN_PERSON_AND_ORGANIZATION_ASSIGNMENT ( #51, #228, ( #248 ) ) ;
#174 = CIRCLE ( 'NONE', #141, 10.47241248990059503 ) ;
#175 = VERTEX_POINT ( 'NONE', #187 ) ;
#176 = ORIENTED_EDGE ( 'NONE', *, *, #47, .F. ) ;
#177 = ORIENTED_EDGE ( 'NONE', *, *, #211, .F. ) ;
#178 = LOCAL_TIME ( 14, 13, 17.00000000000000000, #88 ) ;
#179 = CARTESIAN_POINT ( 'NONE',  ( 0.000000000000000000, 0.000000000000000000, 0.000000000000000000 ) ) ;
#180 = EDGE_CURVE ( 'NONE', #98, #218, #226, .T. ) ;
#181 = COORDINATED_UNIVERSAL_TIME_OFFSET ( 1, 0, .AHEAD. ) ;
#182 = CARTESIAN_POINT ( 'NONE',  ( 0.000000000000000000, 0.000000000000000000, 0.000000000000000000 ) ) ;
#183 = PERSON_AND_ORGANIZATION_ROLE ( 'design_supplier' ) ;
#184 =( NAMED_UNIT ( * ) PLANE_ANGLE_UNIT ( ) SI_UNIT ( $, .RADIAN. ) );
#185 = CARTESIAN_POINT ( 'NONE',  ( 0.000000000000000000, 0.000000000000000000, 0.000000000000000000 ) ) ;
#186 = COORDINATED_UNIVERSAL_TIME_OFFSET ( 1, 0, .AHEAD. ) ;
#187 = CARTESIAN_POINT ( 'NONE',  ( 0.000000000000000000, 0.000000000000000000, 16.97241248990059148 ) ) ;
#188 = PRODUCT_RELATED_PRODUCT_CATEGORY ( 'detail', '', ( #242 ) ) ;
#189 = DIRECTION ( 'NONE',  ( 0.000000000000000000, 0.000000000000000000, -1.000000000000000000 ) ) ;
#190 = VECTOR ( 'NONE', #69, 1000.000000000000114 ) ;
#191 = CLOSED_SHELL ( 'NONE', ( #249, #46, #84, #131, #151, #3 ) ) ;
#192 = PERSON_AND_ORGANIZATION_ROLE ( 'creator' ) ;
#193 = LINE ( 'NONE', #77, #10 ) ;
#194 = PERSON_AND_ORGANIZATION_ROLE ( 'design_owner' ) ;
#195 = ORIENTED_EDGE ( 'NONE', *, *, #211, .T. ) ;
#196 = EDGE_LOOP ( 'NONE', ( #70, #197, #7, #137 ) ) ;
#197 = ORIENTED_EDGE ( 'NONE', *, *, #180, .T. ) ;
#198 = CIRCLE ( 'NONE', #79, 16.97241248990059148 ) ;
#199 = CARTESIAN_POINT ( 'NONE',  ( 39.00000000000000000, 0.000000000000000000, 0.000000000000000000 ) ) ;
#200 = PRODUCT_DEFINITION_FORMATION_WITH_SPECIFIED_SOURCE ( 'ANY', '', #242, .NOT_KNOWN. ) ;
#201 = CC_DESIGN_PERSON_AND_ORGANIZATION_ASSIGNMENT ( #148, #192, ( #200 ) ) ;
#202 = DIRECTION ( 'NONE',  ( -1.000000000000000000, -0.000000000000000000, -0.000000000000000000 ) ) ;
#203 = PERSON_AND_ORGANIZATION ( #104, #74 ) ;
#204 = DIRECTION ( 'NONE',  ( 0.000000000000000000, 0.000000000000000000, 1.000000000000000000 ) ) ;
#205 = PRODUCT_DEFINITION_SHAPE ( 'NONE', 'NONE',  #230 ) ;
#206 = DIRECTION ( 'NONE',  ( 1.000000000000000000, 0.000000000000000000, 0.000000000000000000 ) ) ;
#207 = DATE_TIME_ROLE ( 'classification_date' ) ;
#208 = DIRECTION ( 'NONE',  ( 0.000000000000000000, 0.000000000000000000, -1.000000000000000000 ) ) ;
#209 = ADVANCED_BREP_SHAPE_REPRESENTATION ( '3D_R169_ DN38-25_17323184', ( #8, #165 ), #231 ) ;
#210 = CIRCLE ( 'NONE', #37, 12.50000000000000000 ) ;
#211 = EDGE_CURVE ( 'NONE', #82, #160, #170, .T. ) ;
#212 = CC_DESIGN_PERSON_AND_ORGANIZATION_ASSIGNMENT ( #54, #183, ( #200 ) ) ;
#213 = CARTESIAN_POINT ( 'NONE',  ( 0.000000000000000000, 3.490243377569956456E-15, -19.00000000000000000 ) ) ;
#214 = MECHANICAL_CONTEXT ( 'NONE', #105, 'mechanical' ) ;
#215 = LOCAL_TIME ( 14, 13, 17.00000000000000000, #221 ) ;
#216 = ORIENTED_EDGE ( 'NONE', *, *, #229, .T. ) ;
#217 = CONICAL_SURFACE ( 'NONE', #153, 10.52721215233571250, 0.1651486774146267988 ) ;
#218 = VERTEX_POINT ( 'NONE', #213 ) ;
#219 = FACE_BOUND ( 'NONE', #26, .T. ) ;
#220 = AXIS2_PLACEMENT_3D ( 'NONE', #222, #202, #204 ) ;
#221 = COORDINATED_UNIVERSAL_TIME_OFFSET ( 1, 0, .AHEAD. ) ;
#222 = CARTESIAN_POINT ( 'NONE',  ( 38.67120202538928453, 0.000000000000000000, 0.000000000000000000 ) ) ;
#223 = SECURITY_CLASSIFICATION_LEVEL ( 'unclassified' ) ;
#224 =( NAMED_UNIT ( * ) SI_UNIT ( $, .STERADIAN. ) SOLID_ANGLE_UNIT ( ) );
#225 = DIRECTION ( 'NONE',  ( 1.000000000000000000, 0.000000000000000000, 0.000000000000000000 ) ) ;
#226 = LINE ( 'NONE', #89, #76 ) ;
#227 = DIRECTION ( 'NONE',  ( 1.000000000000000000, 0.000000000000000000, 0.000000000000000000 ) ) ;
#228 = PERSON_AND_ORGANIZATION_ROLE ( 'classification_officer' ) ;
#229 = EDGE_CURVE ( 'NONE', #6, #175, #193, .T. ) ;
#230 = PRODUCT_DEFINITION ( 'UNKNOWN', '', #200, #169 ) ;
#231 =( GEOMETRIC_REPRESENTATION_CONTEXT ( 3 ) GLOBAL_UNCERTAINTY_ASSIGNED_CONTEXT ( ( #20 ) ) GLOBAL_UNIT_ASSIGNED_CONTEXT ( ( #49, #184, #224 ) ) REPRESENTATION_CONTEXT ( 'NONE', 'WORKASPACE' ) );
#232 = CC_DESIGN_APPROVAL ( #95, ( #248 ) ) ;
#233 = CARTESIAN_POINT ( 'NONE',  ( 38.67120202538928453, 1.289211666630304907E-15, -10.52721215233571250 ) ) ;
#234 = CARTESIAN_POINT ( 'NONE',  ( 0.000000000000000000, 0.000000000000000000, 0.000000000000000000 ) ) ;
#235 = CIRCLE ( 'NONE', #122, 10.47241248990059503 ) ;
#236 = ORIENTED_EDGE ( 'NONE', *, *, #22, .F. ) ;
#237 = VERTEX_POINT ( 'NONE', #154 ) ;
#238 = DIRECTION ( 'NONE',  ( 0.000000000000000000, 0.000000000000000000, -1.000000000000000000 ) ) ;
#239 = CIRCLE ( 'NONE', #96, 12.50000000000000000 ) ;
#240 = CARTESIAN_POINT ( 'NONE',  ( 39.00000000000000000, 0.000000000000000000, 0.000000000000000000 ) ) ;
#241 = APPROVAL_STATUS ( 'not_yet_approved' ) ;
#242 = PRODUCT ( '3D_R169_ DN38-25_17323184', '3D_R169_ DN38-25_17323184', '', ( #214 ) ) ;
#243 = LINE ( 'NONE', #107, #190 ) ;
#244 = APPROVAL_ROLE ( '' ) ;
#245 = DIRECTION ( 'NONE',  ( 0.000000000000000000, 0.000000000000000000, -1.000000000000000000 ) ) ;
#246 = DIRECTION ( 'NONE',  ( 1.000000000000000000, 0.000000000000000000, 0.000000000000000000 ) ) ;
#247 = CALENDAR_DATE ( 2024, 17, 7 ) ;
#248 = SECURITY_CLASSIFICATION ( '', '', #223 ) ;
#249 = ADVANCED_FACE ( 'NONE', ( #132 ), #217, .F. ) ;
ENDSEC;
END-ISO-10303-21;
