ISO-10303-21;
HEADER;
FILE_DESCRIPTION (( 'STEP AP203' ),
    '1' );
FILE_NAME ('3D_GR1432_33.7_188742120.STEP',
    '2024-10-23T09:08:19',
    ( '' ),
    ( '' ),
    'SwSTEP 2.0',
    'SolidWorks 2023',
    '' );
FILE_SCHEMA (( 'CONFIG_CONTROL_DESIGN' ));
ENDSEC;

DATA;
#1 = CIRCLE ( 'NONE', #25, 16.85000000000000497 ) ;
#2 = CIRCLE ( 'NONE', #22, 16.85000000000000497 ) ;
#3 = APPROVAL_PERSON_ORGANIZATION ( #11, #244, #178 ) ;
#4 = EDGE_CURVE ( 'NONE', #147, #124, #14, .T. ) ;
#5 = FACE_OUTER_BOUND ( 'NONE', #81, .T. ) ;
#6 = CC_DESIGN_SECURITY_CLASSIFICATION ( #121, ( #202 ) ) ;
#7 = DIRECTION ( 'NONE',  ( 0.000000000000000000, 0.000000000000000000, -1.000000000000000000 ) ) ;
#8 = FACE_OUTER_BOUND ( 'NONE', #61, .T. ) ;
#9 = CC_DESIGN_APPROVAL ( #125, ( #202 ) ) ;
#10 = DIRECTION ( 'NONE',  ( 1.000000000000000000, 0.000000000000000000, 0.000000000000000000 ) ) ;
#11 = PERSON_AND_ORGANIZATION ( #144, #208 ) ;
#12 = CARTESIAN_POINT ( 'NONE',  ( -8.659988877331560531, 1.984936078735314108E-32, 0.000000000000000000 ) ) ;
#13 = EDGE_CURVE ( 'NONE', #251, #212, #51, .T. ) ;
#14 = CIRCLE ( 'NONE', #76, 16.85000000000000497 ) ;
#15 = DIRECTION ( 'NONE',  ( -0.000000000000000000, -1.000000000000000000, -0.000000000000000000 ) ) ;
#16 = ORIENTED_EDGE ( 'NONE', *, *, #32, .T. ) ;
#17 =( NAMED_UNIT ( * ) SI_UNIT ( $, .STERADIAN. ) SOLID_ANGLE_UNIT ( ) );
#18 = VECTOR ( 'NONE', #116, 1000.000000000000000 ) ;
#19 = VERTEX_POINT ( 'NONE', #27 ) ;
#20 = DATE_TIME_ROLE ( 'classification_date' ) ;
#21 = CC_DESIGN_PERSON_AND_ORGANIZATION_ASSIGNMENT ( #62, #128, ( #202 ) ) ;
#22 = AXIS2_PLACEMENT_3D ( 'NONE', #155, #238, #49 ) ;
#23 = APPLICATION_CONTEXT ( 'configuration controlled 3d designs of mechanical parts and assemblies' ) ;
#24 = DIRECTION ( 'NONE',  ( 0.000000000000000000, 0.000000000000000000, -1.000000000000000000 ) ) ;
#25 = AXIS2_PLACEMENT_3D ( 'NONE', #28, #90, #214 ) ;
#26 = LINE ( 'NONE', #258, #187 ) ;
#27 = CARTESIAN_POINT ( 'NONE',  ( -8.659988877331560531, 4.007384361653571148, 0.000000000000000000 ) ) ;
#28 = CARTESIAN_POINT ( 'NONE',  ( -8.659988877331560531, 2.225552119036099175, 0.000000000000000000 ) ) ;
#29 = AXIS2_PLACEMENT_3D ( 'NONE', #220, #237, #112 ) ;
#30 = CC_DESIGN_APPROVAL ( #64, ( #121 ) ) ;
#31 = APPLICATION_PROTOCOL_DEFINITION ( 'international standard', 'config_control_design', 1994, #37 ) ;
#32 = EDGE_CURVE ( 'NONE', #35, #58, #87, .T. ) ;
#33 = CARTESIAN_POINT ( 'NONE',  ( -8.659988877331562307, -33.42122272337336142, 0.000000000000000000 ) ) ;
#34 = PERSON_AND_ORGANIZATION ( #144, #208 ) ;
#35 = VERTEX_POINT ( 'NONE', #114 ) ;
#36 = APPROVAL_DATE_TIME ( #211, #64 ) ;
#37 = APPLICATION_CONTEXT ( 'configuration controlled 3d designs of mechanical parts and assemblies' ) ;
#38 = EDGE_LOOP ( 'NONE', ( #229, #165, #207, #84 ) ) ;
#39 = COORDINATED_UNIVERSAL_TIME_OFFSET ( 1, 0, .AHEAD. ) ;
#40 = CARTESIAN_POINT ( 'NONE',  ( -8.659988877331560531, -3.079732386877830942E-15, 0.000000000000000000 ) ) ;
#41 = EDGE_CURVE ( 'NONE', #212, #160, #139, .T. ) ;
#42 = APPROVAL_STATUS ( 'not_yet_approved' ) ;
#43 = DESIGN_CONTEXT ( 'detailed design', #37, 'design' ) ;
#44 = AXIS2_PLACEMENT_3D ( 'NONE', #197, #240, #254 ) ;
#45 = CARTESIAN_POINT ( 'NONE',  ( -8.659988877331560531, 2.225552119036099175, 0.000000000000000000 ) ) ;
#46 = SPHERICAL_SURFACE ( 'NONE', #235, 37.42860708502693257 ) ;
#47 = ADVANCED_FACE ( 'NONE', ( #172 ), #46, .F. ) ;
#48 = DIRECTION ( 'NONE',  ( 0.000000000000000000, 0.000000000000000000, 1.000000000000000000 ) ) ;
#49 = DIRECTION ( 'NONE',  ( 0.000000000000000000, 0.000000000000000000, -1.000000000000000000 ) ) ;
#50 = SPHERICAL_SURFACE ( 'NONE', #145, 37.42860708502693257 ) ;
#51 = CIRCLE ( 'NONE', #110, 39.42860708502693257 ) ;
#52 = APPROVAL_PERSON_ORGANIZATION ( #230, #64, #66 ) ;
#53 = DIRECTION ( 'NONE',  ( 1.000000000000000000, 0.000000000000000000, 0.000000000000000000 ) ) ;
#54 = DATE_AND_TIME ( #100, #265 ) ;
#55 = ADVANCED_FACE ( 'NONE', ( #5 ), #234, .T. ) ;
#56 = PERSON_AND_ORGANIZATION ( #144, #208 ) ;
#57 = CIRCLE ( 'NONE', #222, 37.42860708502693257 ) ;
#58 = VERTEX_POINT ( 'NONE', #257 ) ;
#59 = CALENDAR_DATE ( 2024, 23, 10 ) ;
#60 = ORIENTED_EDGE ( 'NONE', *, *, #4, .F. ) ;
#61 = EDGE_LOOP ( 'NONE', ( #185, #228, #267, #163 ) ) ;
#62 = PERSON_AND_ORGANIZATION ( #144, #208 ) ;
#63 = EDGE_LOOP ( 'NONE', ( #182, #252, #205, #169, #209, #231 ) ) ;
#64 = APPROVAL ( #42, 'UNSPECIFIED' ) ;
#65 = AXIS2_PLACEMENT_3D ( 'NONE', #242, #260, #117 ) ;
#66 = APPROVAL_ROLE ( '' ) ;
#67 = AXIS2_PLACEMENT_3D ( 'NONE', #171, #131, #111 ) ;
#68 = CARTESIAN_POINT ( 'NONE',  ( -8.659988877331560531, -3.079732386877830942E-15, 0.000000000000000000 ) ) ;
#69 = DIRECTION ( 'NONE',  ( -0.000000000000000000, -1.000000000000000000, -0.000000000000000000 ) ) ;
#70 = ADVANCED_FACE ( 'NONE', ( #73 ), #193, .T. ) ;
#71 = CIRCLE ( 'NONE', #216, 16.85000000000000497 ) ;
#72 = CARTESIAN_POINT ( 'NONE',  ( -8.659988877331562307, -33.42122272337336142, 0.000000000000000000 ) ) ;
#73 = FACE_OUTER_BOUND ( 'NONE', #225, .T. ) ;
#74 = CARTESIAN_POINT ( 'NONE',  ( -8.659988877331562307, -33.42122272337336142, 0.000000000000000000 ) ) ;
#75 = DIRECTION ( 'NONE',  ( 1.000000000000000000, 0.000000000000000000, 0.000000000000000000 ) ) ;
#76 = AXIS2_PLACEMENT_3D ( 'NONE', #40, #126, #127 ) ;
#77 = DATE_AND_TIME ( #224, #175 ) ;
#78 = PRODUCT_RELATED_PRODUCT_CATEGORY ( 'detail', '', ( #113 ) ) ;
#79 = MECHANICAL_CONTEXT ( 'NONE', #23, 'mechanical' ) ;
#80 = COORDINATED_UNIVERSAL_TIME_OFFSET ( 1, 0, .AHEAD. ) ;
#81 = EDGE_LOOP ( 'NONE', ( #188, #227, #263, #143 ) ) ;
#82 = DIRECTION ( 'NONE',  ( 0.000000000000000000, 0.000000000000000000, 1.000000000000000000 ) ) ;
#83 = ADVANCED_FACE ( 'NONE', ( #109 ), #50, .F. ) ;
#84 = ORIENTED_EDGE ( 'NONE', *, *, #105, .T. ) ;
#85 = SECURITY_CLASSIFICATION_LEVEL ( 'unclassified' ) ;
#86 = CARTESIAN_POINT ( 'NONE',  ( -8.659988877331562307, -33.42122272337336142, 0.000000000000000000 ) ) ;
#87 = CIRCLE ( 'NONE', #29, 16.85000000000000497 ) ;
#88 = EDGE_CURVE ( 'NONE', #101, #58, #26, .T. ) ;
#89 = CLOSED_SHELL ( 'NONE', ( #83, #55, #70, #253, #210, #47 ) ) ;
#90 = DIRECTION ( 'NONE',  ( -0.000000000000000000, -1.000000000000000000, -0.000000000000000000 ) ) ;
#91 = DIRECTION ( 'NONE',  ( -1.000000000000000000, 0.000000000000000000, 0.000000000000000000 ) ) ;
#92 = DIRECTION ( 'NONE',  ( -0.000000000000000000, -1.000000000000000000, -0.000000000000000000 ) ) ;
#93 = DIRECTION ( 'NONE',  ( 0.000000000000000000, 0.000000000000000000, 1.000000000000000000 ) ) ;
#94 = PRODUCT_DEFINITION ( 'UNKNOWN', '', #202, #43 ) ;
#95 = DIRECTION ( 'NONE',  ( -0.000000000000000000, -1.000000000000000000, -0.000000000000000000 ) ) ;
#96 = ADVANCED_BREP_SHAPE_REPRESENTATION ( '3D_GR1432_33.7_188742120', ( #102, #107 ), #217 ) ;
#97 = APPROVAL_STATUS ( 'not_yet_approved' ) ;
#98 = LINE ( 'NONE', #164, #18 ) ;
#99 = ORIENTED_EDGE ( 'NONE', *, *, #218, .T. ) ;
#100 = CALENDAR_DATE ( 2024, 23, 10 ) ;
#101 = VERTEX_POINT ( 'NONE', #154 ) ;
#102 = MANIFOLD_SOLID_BREP ( 'Rotation3', #89 ) ;
#103 = ORIENTED_EDGE ( 'NONE', *, *, #239, .T. ) ;
#104 = DATE_AND_TIME ( #108, #162 ) ;
#105 = EDGE_CURVE ( 'NONE', #124, #35, #115, .T. ) ;
#106 = CIRCLE ( 'NONE', #190, 16.85000000000000497 ) ;
#107 = AXIS2_PLACEMENT_3D ( 'NONE', #186, #82, #75 ) ;
#108 = CALENDAR_DATE ( 2024, 23, 10 ) ;
#109 = FACE_OUTER_BOUND ( 'NONE', #167, .T. ) ;
#110 = AXIS2_PLACEMENT_3D ( 'NONE', #86, #134, #91 ) ;
#111 = DIRECTION ( 'NONE',  ( 1.000000000000000000, 0.000000000000000000, -1.224646799147353454E-16 ) ) ;
#112 = DIRECTION ( 'NONE',  ( 0.000000000000000000, 0.000000000000000000, -1.000000000000000000 ) ) ;
#113 = PRODUCT ( '3D_GR1432_33.7_188742120', '3D_GR1432_33.7_188742120', '', ( #79 ) ) ;
#114 = CARTESIAN_POINT ( 'NONE',  ( -25.50998887733156550, -1.539866193438915471E-15, 2.063529856563290638E-15 ) ) ;
#115 = CIRCLE ( 'NONE', #120, 16.85000000000000497 ) ;
#116 = DIRECTION ( 'NONE',  ( -0.000000000000000000, -1.000000000000000000, -0.000000000000000000 ) ) ;
#117 = DIRECTION ( 'NONE',  ( -1.000000000000000000, 0.000000000000000000, 0.000000000000000000 ) ) ;
#118 = DATE_TIME_ROLE ( 'creation_date' ) ;
#119 = CC_DESIGN_PERSON_AND_ORGANIZATION_ASSIGNMENT ( #56, #138, ( #94 ) ) ;
#120 = AXIS2_PLACEMENT_3D ( 'NONE', #68, #95, #199 ) ;
#121 = SECURITY_CLASSIFICATION ( '', '', #85 ) ;
#122 = APPROVAL_STATUS ( 'not_yet_approved' ) ;
#123 = ORIENTED_EDGE ( 'NONE', *, *, #88, .F. ) ;
#124 = VERTEX_POINT ( 'NONE', #177 ) ;
#125 = APPROVAL ( #122, 'UNSPECIFIED' ) ;
#126 = DIRECTION ( 'NONE',  ( -0.000000000000000000, -1.000000000000000000, -0.000000000000000000 ) ) ;
#127 = DIRECTION ( 'NONE',  ( 0.000000000000000000, 0.000000000000000000, -1.000000000000000000 ) ) ;
#128 = PERSON_AND_ORGANIZATION_ROLE ( 'design_supplier' ) ;
#129 = CIRCLE ( 'NONE', #65, 37.42860708502693257 ) ;
#130 = SHAPE_DEFINITION_REPRESENTATION ( #243, #96 ) ;
#131 = DIRECTION ( 'NONE',  ( 1.224646799147353207E-16, -0.000000000000000000, 1.000000000000000000 ) ) ;
#132 = CARTESIAN_POINT ( 'NONE',  ( -8.659988877331560531, 2.225552119036099175, 0.000000000000000000 ) ) ;
#133 = CC_DESIGN_PERSON_AND_ORGANIZATION_ASSIGNMENT ( #213, #166, ( #202 ) ) ;
#134 = DIRECTION ( 'NONE',  ( 0.000000000000000000, 0.000000000000000000, -1.000000000000000000 ) ) ;
#135 = PERSON_AND_ORGANIZATION ( #144, #208 ) ;
#136 = CYLINDRICAL_SURFACE ( 'NONE', #161, 16.85000000000000497 ) ;
#137 = DIRECTION ( 'NONE',  ( 0.000000000000000000, 0.000000000000000000, 1.000000000000000000 ) ) ;
#138 = PERSON_AND_ORGANIZATION_ROLE ( 'creator' ) ;
#139 = CIRCLE ( 'NONE', #152, 16.85000000000000497 ) ;
#140 = VERTEX_POINT ( 'NONE', #150 ) ;
#141 = DATE_AND_TIME ( #59, #236 ) ;
#142 = EDGE_CURVE ( 'NONE', #101, #212, #2, .T. ) ;
#143 = ORIENTED_EDGE ( 'NONE', *, *, #41, .F. ) ;
#144 = PERSON ( 'UNSPECIFIED', 'UNSPECIFIED', 'UNSPECIFIED', ('UNSPECIFIED'), ('UNSPECIFIED'), ('UNSPECIFIED') ) ;
#145 = AXIS2_PLACEMENT_3D ( 'NONE', #72, #156, #176 ) ;
#146 = ORIENTED_EDGE ( 'NONE', *, *, #192, .F. ) ;
#147 = VERTEX_POINT ( 'NONE', #259 ) ;
#148 = UNCERTAINTY_MEASURE_WITH_UNIT (LENGTH_MEASURE( 1.000000000000000082E-05 ), #206, 'distance_accuracy_value', 'NONE');
#149 = PERSON_AND_ORGANIZATION_ROLE ( 'classification_officer' ) ;
#150 = CARTESIAN_POINT ( 'NONE',  ( -25.50998887733156550, 2.225552119036102727, 2.063529856563290244E-15 ) ) ;
#151 = DIRECTION ( 'NONE',  ( -0.000000000000000000, -1.000000000000000000, -0.000000000000000000 ) ) ;
#152 = AXIS2_PLACEMENT_3D ( 'NONE', #132, #151, #221 ) ;
#153 = CC_DESIGN_PERSON_AND_ORGANIZATION_ASSIGNMENT ( #168, #149, ( #121 ) ) ;
#154 = CARTESIAN_POINT ( 'NONE',  ( -8.659988877331560531, 2.225552119036099175, -16.85000000000000497 ) ) ;
#155 = CARTESIAN_POINT ( 'NONE',  ( -8.659988877331560531, 2.225552119036099175, 0.000000000000000000 ) ) ;
#156 = DIRECTION ( 'NONE',  ( 0.000000000000000000, 0.000000000000000000, 1.000000000000000000 ) ) ;
#157 = PERSON_AND_ORGANIZATION_ROLE ( 'design_owner' ) ;
#158 = EDGE_CURVE ( 'NONE', #140, #101, #1, .T. ) ;
#159 = APPROVAL_DATE_TIME ( #77, #244 ) ;
#160 = VERTEX_POINT ( 'NONE', #233 ) ;
#161 = AXIS2_PLACEMENT_3D ( 'NONE', #12, #15, #241 ) ;
#162 = LOCAL_TIME ( 11, 8, 19.00000000000000000, #39 ) ;
#163 = ORIENTED_EDGE ( 'NONE', *, *, #158, .F. ) ;
#164 = CARTESIAN_POINT ( 'NONE',  ( -8.659988877331558754, 1.984936078735314108E-32, 16.85000000000000497 ) ) ;
#165 = ORIENTED_EDGE ( 'NONE', *, *, #255, .T. ) ;
#166 = PERSON_AND_ORGANIZATION_ROLE ( 'creator' ) ;
#167 = EDGE_LOOP ( 'NONE', ( #246, #99, #16, #266 ) ) ;
#168 = PERSON_AND_ORGANIZATION ( #144, #208 ) ;
#169 = ORIENTED_EDGE ( 'NONE', *, *, #88, .T. ) ;
#170 = CC_DESIGN_DATE_AND_TIME_ASSIGNMENT ( #54, #118, ( #94 ) ) ;
#171 = CARTESIAN_POINT ( 'NONE',  ( -8.659988877331562307, -33.42122272337336142, 0.000000000000000000 ) ) ;
#172 = FACE_OUTER_BOUND ( 'NONE', #38, .T. ) ;
#173 = DIRECTION ( 'NONE',  ( 1.000000000000000000, 0.000000000000000000, 0.000000000000000000 ) ) ;
#174 = AXIS2_PLACEMENT_3D ( 'NONE', #204, #137, #53 ) ;
#175 = LOCAL_TIME ( 11, 8, 19.00000000000000000, #245 ) ;
#176 = DIRECTION ( 'NONE',  ( 1.000000000000000000, 0.000000000000000000, 0.000000000000000000 ) ) ;
#177 = CARTESIAN_POINT ( 'NONE',  ( -8.659988877331558754, -3.079732386877830942E-15, 16.85000000000000497 ) ) ;
#178 = APPROVAL_ROLE ( '' ) ;
#179 = EDGE_CURVE ( 'NONE', #160, #140, #106, .T. ) ;
#180 = CIRCLE ( 'NONE', #67, 39.42860708502693257 ) ;
#181 = DIRECTION ( 'NONE',  ( 1.224646799147353207E-16, -0.000000000000000000, 1.000000000000000000 ) ) ;
#182 = ORIENTED_EDGE ( 'NONE', *, *, #239, .F. ) ;
#183 = EDGE_CURVE ( 'NONE', #251, #140, #180, .T. ) ;
#184 = APPROVAL_ROLE ( '' ) ;
#185 = ORIENTED_EDGE ( 'NONE', *, *, #183, .F. ) ;
#186 = CARTESIAN_POINT ( 'NONE',  ( 0.000000000000000000, 0.000000000000000000, 0.000000000000000000 ) ) ;
#187 = VECTOR ( 'NONE', #92, 1000.000000000000000 ) ;
#188 = ORIENTED_EDGE ( 'NONE', *, *, #13, .F. ) ;
#189 = COORDINATED_UNIVERSAL_TIME_OFFSET ( 1, 0, .AHEAD. ) ;
#190 = AXIS2_PLACEMENT_3D ( 'NONE', #45, #69, #24 ) ;
#191 = LOCAL_TIME ( 11, 8, 19.00000000000000000, #189 ) ;
#192 = EDGE_CURVE ( 'NONE', #58, #147, #71, .T. ) ;
#193 = CYLINDRICAL_SURFACE ( 'NONE', #44, 16.85000000000000497 ) ;
#194 = DIRECTION ( 'NONE',  ( -0.000000000000000000, -1.000000000000000000, -0.000000000000000000 ) ) ;
#195 = SPHERICAL_SURFACE ( 'NONE', #174, 39.42860708502693257 ) ;
#196 = CC_DESIGN_DATE_AND_TIME_ASSIGNMENT ( #104, #20, ( #121 ) ) ;
#197 = CARTESIAN_POINT ( 'NONE',  ( -8.659988877331560531, 1.984936078735314108E-32, 0.000000000000000000 ) ) ;
#198 = CC_DESIGN_APPROVAL ( #244, ( #94 ) ) ;
#199 = DIRECTION ( 'NONE',  ( 0.000000000000000000, 0.000000000000000000, -1.000000000000000000 ) ) ;
#200 =( NAMED_UNIT ( * ) PLANE_ANGLE_UNIT ( ) SI_UNIT ( $, .RADIAN. ) );
#201 = CARTESIAN_POINT ( 'NONE',  ( -8.659988877331560531, 6.007384361653572924, 0.000000000000000000 ) ) ;
#202 = PRODUCT_DEFINITION_FORMATION_WITH_SPECIFIED_SOURCE ( 'ANY', '', #113, .NOT_KNOWN. ) ;
#203 = FACE_OUTER_BOUND ( 'NONE', #63, .T. ) ;
#204 = CARTESIAN_POINT ( 'NONE',  ( -8.659988877331562307, -33.42122272337336142, 0.000000000000000000 ) ) ;
#205 = ORIENTED_EDGE ( 'NONE', *, *, #158, .T. ) ;
#206 =( LENGTH_UNIT ( ) NAMED_UNIT ( * ) SI_UNIT ( .MILLI., .METRE. ) );
#207 = ORIENTED_EDGE ( 'NONE', *, *, #4, .T. ) ;
#208 = ORGANIZATION ( 'UNSPECIFIED', 'UNSPECIFIED', '' ) ;
#209 = ORIENTED_EDGE ( 'NONE', *, *, #32, .F. ) ;
#210 = ADVANCED_FACE ( 'NONE', ( #8 ), #195, .T. ) ;
#211 = DATE_AND_TIME ( #250, #191 ) ;
#212 = VERTEX_POINT ( 'NONE', #219 ) ;
#213 = PERSON_AND_ORGANIZATION ( #144, #208 ) ;
#214 = DIRECTION ( 'NONE',  ( 0.000000000000000000, 0.000000000000000000, -1.000000000000000000 ) ) ;
#215 = CARTESIAN_POINT ( 'NONE',  ( -8.659988877331560531, -3.079732386877830942E-15, 0.000000000000000000 ) ) ;
#216 = AXIS2_PLACEMENT_3D ( 'NONE', #215, #194, #7 ) ;
#217 =( GEOMETRIC_REPRESENTATION_CONTEXT ( 3 ) GLOBAL_UNCERTAINTY_ASSIGNED_CONTEXT ( ( #148 ) ) GLOBAL_UNIT_ASSIGNED_CONTEXT ( ( #206, #200, #17 ) ) REPRESENTATION_CONTEXT ( 'NONE', 'WORKASPACE' ) );
#218 = EDGE_CURVE ( 'NONE', #19, #35, #57, .T. ) ;
#219 = CARTESIAN_POINT ( 'NONE',  ( 8.190011122668442667, 2.225552119036102727, 0.000000000000000000 ) ) ;
#220 = CARTESIAN_POINT ( 'NONE',  ( -8.659988877331560531, -3.079732386877830942E-15, 0.000000000000000000 ) ) ;
#221 = DIRECTION ( 'NONE',  ( 0.000000000000000000, 0.000000000000000000, -1.000000000000000000 ) ) ;
#222 = AXIS2_PLACEMENT_3D ( 'NONE', #33, #181, #223 ) ;
#223 = DIRECTION ( 'NONE',  ( 1.000000000000000000, 0.000000000000000000, -1.224646799147353454E-16 ) ) ;
#224 = CALENDAR_DATE ( 2024, 23, 10 ) ;
#225 = EDGE_LOOP ( 'NONE', ( #249, #261, #103, #60, #146, #123 ) ) ;
#226 = APPROVAL_DATE_TIME ( #141, #125 ) ;
#227 = ORIENTED_EDGE ( 'NONE', *, *, #183, .T. ) ;
#228 = ORIENTED_EDGE ( 'NONE', *, *, #13, .T. ) ;
#229 = ORIENTED_EDGE ( 'NONE', *, *, #218, .F. ) ;
#230 = PERSON_AND_ORGANIZATION ( #144, #208 ) ;
#231 = ORIENTED_EDGE ( 'NONE', *, *, #105, .F. ) ;
#232 = APPROVAL_PERSON_ORGANIZATION ( #34, #125, #184 ) ;
#233 = CARTESIAN_POINT ( 'NONE',  ( -8.659988877331558754, 2.225552119036099175, 16.85000000000000497 ) ) ;
#234 = SPHERICAL_SURFACE ( 'NONE', #264, 39.42860708502693257 ) ;
#235 = AXIS2_PLACEMENT_3D ( 'NONE', #256, #93, #173 ) ;
#236 = LOCAL_TIME ( 11, 8, 19.00000000000000000, #80 ) ;
#237 = DIRECTION ( 'NONE',  ( -0.000000000000000000, -1.000000000000000000, -0.000000000000000000 ) ) ;
#238 = DIRECTION ( 'NONE',  ( -0.000000000000000000, -1.000000000000000000, -0.000000000000000000 ) ) ;
#239 = EDGE_CURVE ( 'NONE', #160, #124, #98, .T. ) ;
#240 = DIRECTION ( 'NONE',  ( -0.000000000000000000, -1.000000000000000000, -0.000000000000000000 ) ) ;
#241 = DIRECTION ( 'NONE',  ( 0.000000000000000000, 0.000000000000000000, -1.000000000000000000 ) ) ;
#242 = CARTESIAN_POINT ( 'NONE',  ( -8.659988877331562307, -33.42122272337336142, 0.000000000000000000 ) ) ;
#243 = PRODUCT_DEFINITION_SHAPE ( 'NONE', 'NONE',  #94 ) ;
#244 = APPROVAL ( #97, 'UNSPECIFIED' ) ;
#245 = COORDINATED_UNIVERSAL_TIME_OFFSET ( 1, 0, .AHEAD. ) ;
#246 = ORIENTED_EDGE ( 'NONE', *, *, #255, .F. ) ;
#247 = APPLICATION_PROTOCOL_DEFINITION ( 'international standard', 'config_control_design', 1994, #23 ) ;
#248 = CC_DESIGN_PERSON_AND_ORGANIZATION_ASSIGNMENT ( #135, #157, ( #113 ) ) ;
#249 = ORIENTED_EDGE ( 'NONE', *, *, #142, .T. ) ;
#250 = CALENDAR_DATE ( 2024, 23, 10 ) ;
#251 = VERTEX_POINT ( 'NONE', #201 ) ;
#252 = ORIENTED_EDGE ( 'NONE', *, *, #179, .T. ) ;
#253 = ADVANCED_FACE ( 'NONE', ( #203 ), #136, .T. ) ;
#254 = DIRECTION ( 'NONE',  ( 0.000000000000000000, 0.000000000000000000, -1.000000000000000000 ) ) ;
#255 = EDGE_CURVE ( 'NONE', #19, #147, #129, .T. ) ;
#256 = CARTESIAN_POINT ( 'NONE',  ( -8.659988877331562307, -33.42122272337336142, 0.000000000000000000 ) ) ;
#257 = CARTESIAN_POINT ( 'NONE',  ( -8.659988877331560531, -3.079732386877830942E-15, -16.85000000000000497 ) ) ;
#258 = CARTESIAN_POINT ( 'NONE',  ( -8.659988877331560531, 1.984936078735314108E-32, -16.85000000000000497 ) ) ;
#259 = CARTESIAN_POINT ( 'NONE',  ( 8.190011122668446220, -1.539866193438915471E-15, 0.000000000000000000 ) ) ;
#260 = DIRECTION ( 'NONE',  ( 0.000000000000000000, 0.000000000000000000, -1.000000000000000000 ) ) ;
#261 = ORIENTED_EDGE ( 'NONE', *, *, #41, .T. ) ;
#262 = COORDINATED_UNIVERSAL_TIME_OFFSET ( 1, 0, .AHEAD. ) ;
#263 = ORIENTED_EDGE ( 'NONE', *, *, #179, .F. ) ;
#264 = AXIS2_PLACEMENT_3D ( 'NONE', #74, #48, #10 ) ;
#265 = LOCAL_TIME ( 11, 8, 19.00000000000000000, #262 ) ;
#266 = ORIENTED_EDGE ( 'NONE', *, *, #192, .T. ) ;
#267 = ORIENTED_EDGE ( 'NONE', *, *, #142, .F. ) ;
ENDSEC;
END-ISO-10303-21;
