ISO-10303-21;
HEADER;
FILE_DESCRIPTION (( 'STEP AP203' ),
    '1' );
FILE_NAME ('3D_R365_60.3x2_173371116.STEP',
    '2024-07-16T06:19:14',
    ( '' ),
    ( '' ),
    'SwSTEP 2.0',
    'SolidWorks 2024',
    '' );
FILE_SCHEMA (( 'CONFIG_CONTROL_DESIGN' ));
ENDSEC;

DATA;
#1 = CC_DESIGN_PERSON_AND_ORGANIZATION_ASSIGNMENT ( #126, #283, ( #354 ) ) ;
#2 = CARTESIAN_POINT ( 'NONE',  ( 1.387778780781445676E-14, 2817.965330118411202, 0.000000000000000000 ) ) ;
#3 = ORIENTED_EDGE ( 'NONE', *, *, #66, .F. ) ;
#4 = FACE_OUTER_BOUND ( 'NONE', #18, .T. ) ;
#5 = VERTEX_POINT ( 'NONE', #241 ) ;
#6 = AXIS2_PLACEMENT_3D ( 'NONE', #165, #42, #169 ) ;
#7 = CIRCLE ( 'NONE', #323, 5.045000000000000817 ) ;
#8 = DIRECTION ( 'NONE',  ( -1.000000000000000000, 4.596983092540343816E-18, 0.000000000000000000 ) ) ;
#9 = EDGE_CURVE ( 'NONE', #20, #303, #40, .T. ) ;
#10 = VERTEX_POINT ( 'NONE', #127 ) ;
#11 = CARTESIAN_POINT ( 'NONE',  ( -26.07896925628257634, 5.996045703601112997, 0.000000000000000000 ) ) ;
#12 = FACE_OUTER_BOUND ( 'NONE', #77, .T. ) ;
#13 = TOROIDAL_SURFACE ( 'NONE', #278, 23.10499999999999332, 7.044999999999999041 ) ;
#14 = ADVANCED_FACE ( 'NONE', ( #218, #89 ), #224, .T. ) ;
#15 = PERSON_AND_ORGANIZATION ( #185, #258 ) ;
#16 = VERTEX_POINT ( 'NONE', #245 ) ;
#17 = PERSON_AND_ORGANIZATION ( #185, #258 ) ;
#18 = EDGE_LOOP ( 'NONE', ( #117, #148, #274, #269 ) ) ;
#19 = DIRECTION ( 'NONE',  ( -1.000000000000000000, 0.000000000000000000, 0.000000000000000000 ) ) ;
#20 = VERTEX_POINT ( 'NONE', #162 ) ;
#21 = AXIS2_PLACEMENT_3D ( 'NONE', #377, #317, #311 ) ;
#22 = VECTOR ( 'NONE', #178, 1000.000000000000000 ) ;
#23 = PERSON_AND_ORGANIZATION ( #185, #258 ) ;
#24 = EDGE_LOOP ( 'NONE', ( #205, #397, #87 ) ) ;
#25 = VERTEX_POINT ( 'NONE', #67 ) ;
#26 = DIRECTION ( 'NONE',  ( 1.000000000000000000, -4.596983092540343046E-18, 0.000000000000000000 ) ) ;
#27 = CIRCLE ( 'NONE', #21, 30.14999999999999503 ) ;
#28 = CIRCLE ( 'NONE', #102, 46.24000000000000199 ) ;
#29 = FACE_OUTER_BOUND ( 'NONE', #24, .T. ) ;
#30 = LINE ( 'NONE', #284, #257 ) ;
#31 = CARTESIAN_POINT ( 'NONE',  ( -28.14999999999998082, 2817.965330118411202, 0.000000000000000000 ) ) ;
#32 = DIRECTION ( 'NONE',  ( -1.000000000000000000, 0.000000000000000000, 0.000000000000000000 ) ) ;
#33 = EDGE_CURVE ( 'NONE', #120, #174, #328, .T. ) ;
#34 = DIRECTION ( 'NONE',  ( 4.596983092540343816E-18, 1.000000000000000000, -0.000000000000000000 ) ) ;
#35 = CARTESIAN_POINT ( 'NONE',  ( 23.10499999999999332, 1.920811739435868359, 2.829546429429959101E-15 ) ) ;
#36 = APPROVAL ( #346, 'UNSPECIFIED' ) ;
#37 = LOCAL_TIME ( 8, 19, 14.00000000000000000, #266 ) ;
#38 = DIRECTION ( 'NONE',  ( 4.596983092540343816E-18, 1.000000000000000000, -0.000000000000000000 ) ) ;
#39 = ORIENTED_EDGE ( 'NONE', *, *, #242, .T. ) ;
#40 = CIRCLE ( 'NONE', #94, 28.14999999999999503 ) ;
#41 = CIRCLE ( 'NONE', #189, 7.044999999999999041 ) ;
#42 = DIRECTION ( 'NONE',  ( -0.000000000000000000, 0.000000000000000000, -1.000000000000000000 ) ) ;
#43 = DIRECTION ( 'NONE',  ( -1.000000000000000000, 0.000000000000000000, 0.000000000000000000 ) ) ;
#44 = ADVANCED_FACE ( 'NONE', ( #404 ), #61, .F. ) ;
#45 = MECHANICAL_CONTEXT ( 'NONE', #281, 'mechanical' ) ;
#46 = CARTESIAN_POINT ( 'NONE',  ( 9.236488298952508525E-16, 0.000000000000000000, 0.000000000000000000 ) ) ;
#47 = DATE_AND_TIME ( #264, #342 ) ;
#48 = EDGE_LOOP ( 'NONE', ( #183, #291, #244, #3 ) ) ;
#49 =( NAMED_UNIT ( * ) SI_UNIT ( $, .STERADIAN. ) SOLID_ANGLE_UNIT ( ) );
#50 = EDGE_LOOP ( 'NONE', ( #301, #365, #331, #140 ) ) ;
#51 = EDGE_CURVE ( 'NONE', #20, #5, #30, .T. ) ;
#52 =( LENGTH_UNIT ( ) NAMED_UNIT ( * ) SI_UNIT ( .MILLI., .METRE. ) );
#53 = ORIENTED_EDGE ( 'NONE', *, *, #271, .T. ) ;
#54 = CIRCLE ( 'NONE', #374, 44.24000000000000199 ) ;
#55 = DIRECTION ( 'NONE',  ( 4.596983092540343816E-18, 1.000000000000000000, -0.000000000000000000 ) ) ;
#56 = VERTEX_POINT ( 'NONE', #58 ) ;
#57 = APPROVAL_STATUS ( 'not_yet_approved' ) ;
#58 = CARTESIAN_POINT ( 'NONE',  ( -28.14999999999999503, 1.920811739435828613, 0.000000000000000000 ) ) ;
#59 = ADVANCED_FACE ( 'NONE', ( #97 ), #187, .T. ) ;
#60 = CARTESIAN_POINT ( 'NONE',  ( 0.000000000000000000, 1.920811739435868359, 0.000000000000000000 ) ) ;
#61 = TOROIDAL_SURFACE ( 'NONE', #334, 23.10499999999999332, 5.044999999999999041 ) ;
#62 = AXIS2_PLACEMENT_3D ( 'NONE', #240, #326, #304 ) ;
#63 = DIRECTION ( 'NONE',  ( 0.000000000000000000, 0.000000000000000000, 1.000000000000000000 ) ) ;
#64 = DIRECTION ( 'NONE',  ( -1.000000000000000000, 0.000000000000000000, 0.000000000000000000 ) ) ;
#65 = PERSON_AND_ORGANIZATION ( #185, #258 ) ;
#66 = EDGE_CURVE ( 'NONE', #25, #113, #27, .T. ) ;
#67 = CARTESIAN_POINT ( 'NONE',  ( 30.14999999999999503, 1.920811739435812404, 3.692310099429269608E-15 ) ) ;
#68 = CC_DESIGN_APPROVAL ( #76, ( #354 ) ) ;
#69 = DIRECTION ( 'NONE',  ( 4.596983092540343816E-18, 1.000000000000000000, -0.000000000000000000 ) ) ;
#70 = DIRECTION ( 'NONE',  ( -1.000000000000000000, 0.000000000000000000, 0.000000000000000000 ) ) ;
#71 = CC_DESIGN_PERSON_AND_ORGANIZATION_ASSIGNMENT ( #65, #223, ( #354 ) ) ;
#72 = CARTESIAN_POINT ( 'NONE',  ( 5.275953737534727027E-15, 5.996045703601112997, 0.000000000000000000 ) ) ;
#73 = CARTESIAN_POINT ( 'NONE',  ( 5.275953737534727027E-15, 5.996045703601112997, 0.000000000000000000 ) ) ;
#74 = CIRCLE ( 'NONE', #254, 26.07896925628258344 ) ;
#75 = DIRECTION ( 'NONE',  ( -1.000000000000000000, 0.000000000000000000, 0.000000000000000000 ) ) ;
#76 = APPROVAL ( #57, 'UNSPECIFIED' ) ;
#77 = EDGE_LOOP ( 'NONE', ( #308, #399, #171, #179 ) ) ;
#78 = ORIENTED_EDGE ( 'NONE', *, *, #51, .T. ) ;
#79 = AXIS2_PLACEMENT_3D ( 'NONE', #251, #280, #340 ) ;
#80 = AXIS2_PLACEMENT_3D ( 'NONE', #104, #142, #229 ) ;
#81 = CARTESIAN_POINT ( 'NONE',  ( 5.111675739641022775E-15, -29.74000000000000199, 0.000000000000000000 ) ) ;
#82 = ORIENTED_EDGE ( 'NONE', *, *, #294, .T. ) ;
#83 = ADVANCED_FACE ( 'NONE', ( #29 ), #310, .F. ) ;
#84 = PERSON_AND_ORGANIZATION_ROLE ( 'design_owner' ) ;
#85 = EDGE_LOOP ( 'NONE', ( #153, #216, #332 ) ) ;
#86 = APPLICATION_PROTOCOL_DEFINITION ( 'international standard', 'config_control_design', 1994, #281 ) ;
#87 = ORIENTED_EDGE ( 'NONE', *, *, #109, .T. ) ;
#88 = EDGE_CURVE ( 'NONE', #303, #56, #409, .T. ) ;
#89 = FACE_OUTER_BOUND ( 'NONE', #238, .T. ) ;
#90 = CALENDAR_DATE ( 2024, 16, 7 ) ;
#91 = DIRECTION ( 'NONE',  ( -1.000000000000000000, 4.596983092540343816E-18, 0.000000000000000000 ) ) ;
#92 = PERSON_AND_ORGANIZATION_ROLE ( 'classification_officer' ) ;
#93 = CARTESIAN_POINT ( 'NONE',  ( 26.07896925628259410, 5.996045703601112997, 3.320566681038335054E-15 ) ) ;
#94 = AXIS2_PLACEMENT_3D ( 'NONE', #46, #298, #26 ) ;
#95 = COORDINATED_UNIVERSAL_TIME_OFFSET ( 1, 0, .AHEAD. ) ;
#96 = VECTOR ( 'NONE', #352, 1000.000000000000000 ) ;
#97 = FACE_OUTER_BOUND ( 'NONE', #273, .T. ) ;
#98 = FACE_OUTER_BOUND ( 'NONE', #50, .T. ) ;
#99 = CARTESIAN_POINT ( 'NONE',  ( 1.387778780781445676E-14, 2817.965330118411202, 0.000000000000000000 ) ) ;
#100 = CIRCLE ( 'NONE', #168, 30.14999999999999503 ) ;
#101 = DIRECTION ( 'NONE',  ( -1.000000000000000000, 0.000000000000000000, 0.000000000000000000 ) ) ;
#102 = AXIS2_PLACEMENT_3D ( 'NONE', #81, #149, #182 ) ;
#103 = CC_DESIGN_PERSON_AND_ORGANIZATION_ASSIGNMENT ( #408, #92, ( #295 ) ) ;
#104 = CARTESIAN_POINT ( 'NONE',  ( 0.000000000000000000, 1.920811739435868359, 0.000000000000000000 ) ) ;
#105 = CARTESIAN_POINT ( 'NONE',  ( 30.15000000000000924, 2817.965330118411202, 3.692310099429269608E-15 ) ) ;
#106 = ORIENTED_EDGE ( 'NONE', *, *, #190, .T. ) ;
#107 = LOCAL_TIME ( 8, 19, 14.00000000000000000, #95 ) ;
#108 = AXIS2_PLACEMENT_3D ( 'NONE', #351, #231, #259 ) ;
#109 = EDGE_CURVE ( 'NONE', #180, #174, #54, .T. ) ;
#110 = DIRECTION ( 'NONE',  ( 1.000000000000000000, 0.000000000000000000, 1.224646799147353454E-16 ) ) ;
#111 = VERTEX_POINT ( 'NONE', #373 ) ;
#112 = CARTESIAN_POINT ( 'NONE',  ( 0.000000000000000000, 1.920811739435868359, 0.000000000000000000 ) ) ;
#113 = VERTEX_POINT ( 'NONE', #131 ) ;
#114 = CC_DESIGN_DATE_AND_TIME_ASSIGNMENT ( #368, #339, ( #295 ) ) ;
#115 = AXIS2_PLACEMENT_3D ( 'NONE', #99, #293, #70 ) ;
#116 = APPROVAL_PERSON_ORGANIZATION ( #23, #386, #215 ) ;
#117 = ORIENTED_EDGE ( 'NONE', *, *, #271, .F. ) ;
#118 = MANIFOLD_SOLID_BREP ( 'Wandung1', #410 ) ;
#119 = DIRECTION ( 'NONE',  ( -1.000000000000000000, 7.703034973254029628E-18, 0.000000000000000000 ) ) ;
#120 = VERTEX_POINT ( 'NONE', #93 ) ;
#121 = ORIENTED_EDGE ( 'NONE', *, *, #51, .F. ) ;
#122 = APPROVAL_PERSON_ORGANIZATION ( #282, #36, #344 ) ;
#123 = AXIS2_PLACEMENT_3D ( 'NONE', #161, #337, #193 ) ;
#124 = APPROVAL_ROLE ( '' ) ;
#125 = DIRECTION ( 'NONE',  ( 4.596983092540343816E-18, 1.000000000000000000, -0.000000000000000000 ) ) ;
#126 = PERSON_AND_ORGANIZATION ( #185, #258 ) ;
#127 = CARTESIAN_POINT ( 'NONE',  ( 2.492856838211408393E-15, 16.50000000000000000, 0.000000000000000000 ) ) ;
#128 = DATE_AND_TIME ( #90, #136 ) ;
#129 = DIRECTION ( 'NONE',  ( -1.000000000000000000, 4.596983092540343816E-18, 0.000000000000000000 ) ) ;
#130 = EDGE_CURVE ( 'NONE', #56, #5, #217, .T. ) ;
#131 = CARTESIAN_POINT ( 'NONE',  ( -30.14999999999999503, 1.920811739435812848, 0.000000000000000000 ) ) ;
#132 = DIRECTION ( 'NONE',  ( 4.596983092540343816E-18, 1.000000000000000000, -0.000000000000000000 ) ) ;
#133 = EDGE_CURVE ( 'NONE', #303, #20, #369, .T. ) ;
#134 = DIRECTION ( 'NONE',  ( 4.596983092540343816E-18, 1.000000000000000000, -0.000000000000000000 ) ) ;
#135 = ORIENTED_EDGE ( 'NONE', *, *, #9, .T. ) ;
#136 = LOCAL_TIME ( 8, 19, 14.00000000000000000, #376 ) ;
#137 = AXIS2_PLACEMENT_3D ( 'NONE', #384, #132, #226 ) ;
#138 = DIRECTION ( 'NONE',  ( -0.000000000000000000, 0.000000000000000000, -1.000000000000000000 ) ) ;
#139 = CIRCLE ( 'NONE', #159, 7.044999999999999041 ) ;
#140 = ORIENTED_EDGE ( 'NONE', *, *, #164, .F. ) ;
#141 = DIRECTION ( 'NONE',  ( 0.000000000000000000, 0.000000000000000000, 1.000000000000000000 ) ) ;
#142 = DIRECTION ( 'NONE',  ( 4.596983092540343816E-18, 1.000000000000000000, -0.000000000000000000 ) ) ;
#143 = DIRECTION ( 'NONE',  ( 0.000000000000000000, 0.000000000000000000, 1.000000000000000000 ) ) ;
#144 = APPROVAL_STATUS ( 'not_yet_approved' ) ;
#145 = ORIENTED_EDGE ( 'NONE', *, *, #220, .T. ) ;
#146 = CC_DESIGN_PERSON_AND_ORGANIZATION_ASSIGNMENT ( #15, #84, ( #398 ) ) ;
#147 = PERSON_AND_ORGANIZATION_ROLE ( 'creator' ) ;
#148 = ORIENTED_EDGE ( 'NONE', *, *, #130, .F. ) ;
#149 = DIRECTION ( 'NONE',  ( -1.224646799147353207E-16, 5.629680630014033300E-34, 1.000000000000000000 ) ) ;
#150 = ORIENTED_EDGE ( 'NONE', *, *, #275, .T. ) ;
#151 = CIRCLE ( 'NONE', #279, 30.14999999999999503 ) ;
#152 = LINE ( 'NONE', #268, #22 ) ;
#153 = ORIENTED_EDGE ( 'NONE', *, *, #275, .F. ) ;
#154 = ORIENTED_EDGE ( 'NONE', *, *, #255, .F. ) ;
#155 = ADVANCED_FACE ( 'NONE', ( #98 ), #13, .T. ) ;
#156 = CARTESIAN_POINT ( 'NONE',  ( 5.111675739641022775E-15, -29.74000000000000199, 0.000000000000000000 ) ) ;
#157 = PRODUCT_DEFINITION_SHAPE ( 'NONE', 'NONE',  #356 ) ;
#158 = CIRCLE ( 'NONE', #108, 30.14999999999999503 ) ;
#159 = AXIS2_PLACEMENT_3D ( 'NONE', #243, #396, #110 ) ;
#160 = DIRECTION ( 'NONE',  ( -0.000000000000000000, 0.000000000000000000, -1.000000000000000000 ) ) ;
#161 = CARTESIAN_POINT ( 'NONE',  ( 5.111675739641022775E-15, -29.74000000000000199, 0.000000000000000000 ) ) ;
#162 = CARTESIAN_POINT ( 'NONE',  ( 28.14999999999999503, -1.294050740550106442E-16, 3.447380739599798523E-15 ) ) ;
#163 = CARTESIAN_POINT ( 'NONE',  ( 2.606127551941062915E-15, 14.49999999999999822, 0.000000000000000000 ) ) ;
#164 = EDGE_CURVE ( 'NONE', #16, #209, #253, .T. ) ;
#165 = CARTESIAN_POINT ( 'NONE',  ( 5.111675739641022775E-15, -29.74000000000000199, 0.000000000000000000 ) ) ;
#166 = DIRECTION ( 'NONE',  ( 4.596983092540343816E-18, 1.000000000000000000, -0.000000000000000000 ) ) ;
#167 = CC_DESIGN_SECURITY_CLASSIFICATION ( #295, ( #354 ) ) ;
#168 = AXIS2_PLACEMENT_3D ( 'NONE', #325, #69, #8 ) ;
#169 = DIRECTION ( 'NONE',  ( -1.000000000000000000, 0.000000000000000000, 0.000000000000000000 ) ) ;
#170 = CC_DESIGN_APPROVAL ( #386, ( #356 ) ) ;
#171 = ORIENTED_EDGE ( 'NONE', *, *, #242, .F. ) ;
#172 = CC_DESIGN_DATE_AND_TIME_ASSIGNMENT ( #237, #364, ( #356 ) ) ;
#173 = CARTESIAN_POINT ( 'NONE',  ( -1.837112651694520122E-31, 1.920811739435828391, 0.000000000000000000 ) ) ;
#174 = VERTEX_POINT ( 'NONE', #163 ) ;
#175 = ADVANCED_FACE ( 'NONE', ( #286 ), #370, .F. ) ;
#176 =( NAMED_UNIT ( * ) PLANE_ANGLE_UNIT ( ) SI_UNIT ( $, .RADIAN. ) );
#177 = ORIENTED_EDGE ( 'NONE', *, *, #338, .T. ) ;
#178 = DIRECTION ( 'NONE',  ( 4.596983092540343816E-18, 1.000000000000000000, -0.000000000000000000 ) ) ;
#179 = ORIENTED_EDGE ( 'NONE', *, *, #319, .F. ) ;
#180 = VERTEX_POINT ( 'NONE', #11 ) ;
#181 = TOROIDAL_SURFACE ( 'NONE', #239, 23.10499999999999332, 7.044999999999999041 ) ;
#182 = DIRECTION ( 'NONE',  ( 1.000000000000000000, 0.000000000000000000, 1.224646799147353207E-16 ) ) ;
#183 = ORIENTED_EDGE ( 'NONE', *, *, #294, .F. ) ;
#184 = PRODUCT_RELATED_PRODUCT_CATEGORY ( 'detail', '', ( #398 ) ) ;
#185 = PERSON ( 'UNSPECIFIED', 'UNSPECIFIED', 'UNSPECIFIED', ('UNSPECIFIED'), ('UNSPECIFIED'), ('UNSPECIFIED') ) ;
#186 = APPROVAL_DATE_TIME ( #128, #36 ) ;
#187 = CYLINDRICAL_SURFACE ( 'NONE', #322, 30.14999999999999503 ) ;
#188 = DIRECTION ( 'NONE',  ( 4.596983092540343816E-18, 1.000000000000000000, -0.000000000000000000 ) ) ;
#189 = AXIS2_PLACEMENT_3D ( 'NONE', #357, #138, #75 ) ;
#190 = EDGE_CURVE ( 'NONE', #111, #385, #158, .T. ) ;
#191 = CARTESIAN_POINT ( 'NONE',  ( 9.586392232159783176E-16, 7.611599306838190415, 0.000000000000000000 ) ) ;
#192 = DIRECTION ( 'NONE',  ( -1.000000000000000000, 7.703034973254029628E-18, 0.000000000000000000 ) ) ;
#193 = DIRECTION ( 'NONE',  ( 1.000000000000000000, 0.000000000000000000, 1.224646799147353207E-16 ) ) ;
#194 = APPROVAL_PERSON_ORGANIZATION ( #406, #76, #124 ) ;
#195 = AXIS2_PLACEMENT_3D ( 'NONE', #219, #221, #341 ) ;
#196 = FACE_OUTER_BOUND ( 'NONE', #85, .T. ) ;
#197 = DIRECTION ( 'NONE',  ( 0.000000000000000000, 0.000000000000000000, 1.000000000000000000 ) ) ;
#198 = ORIENTED_EDGE ( 'NONE', *, *, #9, .F. ) ;
#199 = CARTESIAN_POINT ( 'NONE',  ( -27.25794616660286707, 7.611599306838190415, 0.000000000000000000 ) ) ;
#200 = ADVANCED_FACE ( 'NONE', ( #348 ), #379, .F. ) ;
#201 = AXIS2_PLACEMENT_3D ( 'NONE', #316, #402, #192 ) ;
#202 = CYLINDRICAL_SURFACE ( 'NONE', #270, 30.14999999999999503 ) ;
#203 = AXIS2_PLACEMENT_3D ( 'NONE', #173, #256, #119 ) ;
#204 = DIRECTION ( 'NONE',  ( -1.000000000000000000, 0.000000000000000000, 0.000000000000000000 ) ) ;
#205 = ORIENTED_EDGE ( 'NONE', *, *, #33, .F. ) ;
#206 = EDGE_CURVE ( 'NONE', #385, #111, #100, .T. ) ;
#207 = CARTESIAN_POINT ( 'NONE',  ( 30.14999999999999503, -1.385990402400913442E-16, 3.692310099429269608E-15 ) ) ;
#208 = AXIS2_PLACEMENT_3D ( 'NONE', #324, #197, #101 ) ;
#209 = VERTEX_POINT ( 'NONE', #199 ) ;
#210 = CIRCLE ( 'NONE', #306, 5.045000000000000817 ) ;
#211 = DIRECTION ( 'NONE',  ( -1.000000000000000000, 4.596983092540343816E-18, 0.000000000000000000 ) ) ;
#212 = EDGE_LOOP ( 'NONE', ( #360, #53, #150, #230 ) ) ;
#213 = APPLICATION_PROTOCOL_DEFINITION ( 'international standard', 'config_control_design', 1994, #350 ) ;
#214 = EDGE_LOOP ( 'NONE', ( #391, #135 ) ) ;
#215 = APPROVAL_ROLE ( '' ) ;
#216 = ORIENTED_EDGE ( 'NONE', *, *, #33, .T. ) ;
#217 = CIRCLE ( 'NONE', #201, 28.14999999999999503 ) ;
#218 = FACE_BOUND ( 'NONE', #214, .T. ) ;
#219 = CARTESIAN_POINT ( 'NONE',  ( 9.236488298952508525E-16, 0.000000000000000000, 0.000000000000000000 ) ) ;
#220 = EDGE_CURVE ( 'NONE', #209, #10, #381, .T. ) ;
#221 = DIRECTION ( 'NONE',  ( 4.596983092540343816E-18, 1.000000000000000000, -0.000000000000000000 ) ) ;
#222 = AXIS2_PLACEMENT_3D ( 'NONE', #72, #38, #43 ) ;
#223 = PERSON_AND_ORGANIZATION_ROLE ( 'creator' ) ;
#224 = PLANE ( 'NONE',  #79 ) ;
#225 = DIRECTION ( 'NONE',  ( -1.000000000000000000, 0.000000000000000000, 0.000000000000000000 ) ) ;
#226 = DIRECTION ( 'NONE',  ( -1.000000000000000000, 0.000000000000000000, 0.000000000000000000 ) ) ;
#227 = VECTOR ( 'NONE', #125, 1000.000000000000000 ) ;
#228 = DIRECTION ( 'NONE',  ( -1.224646799147353207E-16, 5.629680630014033300E-34, 1.000000000000000000 ) ) ;
#229 = DIRECTION ( 'NONE',  ( -1.000000000000000000, 4.596983092540343816E-18, 0.000000000000000000 ) ) ;
#230 = ORIENTED_EDGE ( 'NONE', *, *, #349, .F. ) ;
#231 = DIRECTION ( 'NONE',  ( 4.596983092540343816E-18, 1.000000000000000000, -0.000000000000000000 ) ) ;
#232 = CARTESIAN_POINT ( 'NONE',  ( -28.14999999999999503, 1.294050740550106442E-16, 0.000000000000000000 ) ) ;
#233 = ADVANCED_FACE ( 'NONE', ( #261 ), #383, .T. ) ;
#234 = ORIENTED_EDGE ( 'NONE', *, *, #220, .F. ) ;
#235 = DIRECTION ( 'NONE',  ( -1.000000000000000000, 0.000000000000000000, 0.000000000000000000 ) ) ;
#236 = ORIENTED_EDGE ( 'NONE', *, *, #164, .T. ) ;
#237 = DATE_AND_TIME ( #392, #37 ) ;
#238 = EDGE_LOOP ( 'NONE', ( #265, #367 ) ) ;
#239 = AXIS2_PLACEMENT_3D ( 'NONE', #112, #55, #211 ) ;
#240 = CARTESIAN_POINT ( 'NONE',  ( 0.000000000000000000, 0.000000000000000000, 0.000000000000000000 ) ) ;
#241 = CARTESIAN_POINT ( 'NONE',  ( 28.14999999999999503, 1.920811739435828169, 3.447380739599798523E-15 ) ) ;
#242 = EDGE_CURVE ( 'NONE', #209, #16, #312, .T. ) ;
#243 = CARTESIAN_POINT ( 'NONE',  ( 23.10499999999999332, 1.920811739435868359, 2.829546429429959101E-15 ) ) ;
#244 = ORIENTED_EDGE ( 'NONE', *, *, #343, .T. ) ;
#245 = CARTESIAN_POINT ( 'NONE',  ( 27.25794616660286707, 7.611599306838190415, 3.515222875927688029E-15 ) ) ;
#246 = ADVANCED_FACE ( 'NONE', ( #196 ), #321, .F. ) ;
#247 = DIRECTION ( 'NONE',  ( 4.596983092540343816E-18, 1.000000000000000000, -0.000000000000000000 ) ) ;
#248 = SECURITY_CLASSIFICATION_LEVEL ( 'unclassified' ) ;
#249 = DIRECTION ( 'NONE',  ( 4.596983092540343816E-18, 1.000000000000000000, -0.000000000000000000 ) ) ;
#250 = DESIGN_CONTEXT ( 'detailed design', #350, 'design' ) ;
#251 = CARTESIAN_POINT ( 'NONE',  ( -3.185687223130093252E-34, -6.929952012004567209E-17, 0.000000000000000000 ) ) ;
#252 = LOCAL_TIME ( 8, 19, 14.00000000000000000, #276 ) ;
#253 = CIRCLE ( 'NONE', #296, 27.25794616660286707 ) ;
#254 = AXIS2_PLACEMENT_3D ( 'NONE', #73, #166, #292 ) ;
#255 = EDGE_CURVE ( 'NONE', #113, #25, #151, .T. ) ;
#256 = DIRECTION ( 'NONE',  ( 4.596983092540343816E-18, 1.000000000000000000, -0.000000000000000000 ) ) ;
#257 = VECTOR ( 'NONE', #249, 1000.000000000000000 ) ;
#258 = ORGANIZATION ( 'UNSPECIFIED', 'UNSPECIFIED', '' ) ;
#259 = DIRECTION ( 'NONE',  ( -1.000000000000000000, 4.596983092540343816E-18, 0.000000000000000000 ) ) ;
#260 = EDGE_LOOP ( 'NONE', ( #121, #393, #267, #358 ) ) ;
#261 = FACE_OUTER_BOUND ( 'NONE', #366, .T. ) ;
#262 = DIRECTION ( 'NONE',  ( -1.000000000000000000, 0.000000000000000000, 0.000000000000000000 ) ) ;
#263 = SPHERICAL_SURFACE ( 'NONE', #313, 46.24000000000000199 ) ;
#264 = CALENDAR_DATE ( 2024, 16, 7 ) ;
#265 = ORIENTED_EDGE ( 'NONE', *, *, #190, .F. ) ;
#266 = COORDINATED_UNIVERSAL_TIME_OFFSET ( 1, 0, .AHEAD. ) ;
#267 = ORIENTED_EDGE ( 'NONE', *, *, #88, .T. ) ;
#268 = CARTESIAN_POINT ( 'NONE',  ( -30.14999999999998082, 2817.965330118411202, 0.000000000000000000 ) ) ;
#269 = ORIENTED_EDGE ( 'NONE', *, *, #330, .T. ) ;
#270 = AXIS2_PLACEMENT_3D ( 'NONE', #2, #353, #387 ) ;
#271 = EDGE_CURVE ( 'NONE', #5, #120, #210, .T. ) ;
#272 = DIRECTION ( 'NONE',  ( -0.000000000000000000, 0.000000000000000000, -1.000000000000000000 ) ) ;
#273 = EDGE_LOOP ( 'NONE', ( #106, #82, #154, #400 ) ) ;
#274 = ORIENTED_EDGE ( 'NONE', *, *, #349, .T. ) ;
#275 = EDGE_CURVE ( 'NONE', #120, #180, #74, .T. ) ;
#276 = COORDINATED_UNIVERSAL_TIME_OFFSET ( 1, 0, .AHEAD. ) ;
#277 = CARTESIAN_POINT ( 'NONE',  ( 5.111675739641022775E-15, -29.74000000000000199, 0.000000000000000000 ) ) ;
#278 = AXIS2_PLACEMENT_3D ( 'NONE', #407, #247, #129 ) ;
#279 = AXIS2_PLACEMENT_3D ( 'NONE', #290, #34, #320 ) ;
#280 = DIRECTION ( 'NONE',  ( -4.596983092540343816E-18, -1.000000000000000000, 0.000000000000000000 ) ) ;
#281 = APPLICATION_CONTEXT ( 'configuration controlled 3d designs of mechanical parts and assemblies' ) ;
#282 = PERSON_AND_ORGANIZATION ( #185, #258 ) ;
#283 = PERSON_AND_ORGANIZATION_ROLE ( 'design_supplier' ) ;
#284 = CARTESIAN_POINT ( 'NONE',  ( 28.15000000000000924, 2817.965330118411202, 3.447380739599798523E-15 ) ) ;
#285 = AXIS2_PLACEMENT_3D ( 'NONE', #372, #134, #204 ) ;
#286 = FACE_OUTER_BOUND ( 'NONE', #359, .T. ) ;
#287 = DIRECTION ( 'NONE',  ( 1.000000000000000000, 0.000000000000000000, 1.224646799147352714E-16 ) ) ;
#288 = ADVANCED_FACE ( 'NONE', ( #380 ), #202, .T. ) ;
#289 = LINE ( 'NONE', #105, #96 ) ;
#290 = CARTESIAN_POINT ( 'NONE',  ( 9.324787689853915019E-16, 1.920811739435812626, 0.000000000000000000 ) ) ;
#291 = ORIENTED_EDGE ( 'NONE', *, *, #206, .T. ) ;
#292 = DIRECTION ( 'NONE',  ( -1.000000000000000000, 0.000000000000000000, 0.000000000000000000 ) ) ;
#293 = DIRECTION ( 'NONE',  ( 4.596983092540343816E-18, 1.000000000000000000, -0.000000000000000000 ) ) ;
#294 = EDGE_CURVE ( 'NONE', #385, #25, #289, .T. ) ;
#295 = SECURITY_CLASSIFICATION ( '', '', #248 ) ;
#296 = AXIS2_PLACEMENT_3D ( 'NONE', #191, #347, #32 ) ;
#297 = FACE_OUTER_BOUND ( 'NONE', #327, .T. ) ;
#298 = DIRECTION ( 'NONE',  ( 4.596983092540343816E-18, 1.000000000000000000, -0.000000000000000000 ) ) ;
#299 = APPROVAL_DATE_TIME ( #47, #386 ) ;
#300 = ADVANCED_BREP_SHAPE_REPRESENTATION ( '3D_R365_60.3x2_173371116', ( #118, #62 ), #382 ) ;
#301 = ORIENTED_EDGE ( 'NONE', *, *, #403, .F. ) ;
#302 = ADVANCED_FACE ( 'NONE', ( #4 ), #395, .F. ) ;
#303 = VERTEX_POINT ( 'NONE', #232 ) ;
#304 = DIRECTION ( 'NONE',  ( 1.000000000000000000, 0.000000000000000000, 0.000000000000000000 ) ) ;
#305 = ORIENTED_EDGE ( 'NONE', *, *, #88, .F. ) ;
#306 = AXIS2_PLACEMENT_3D ( 'NONE', #35, #228, #287 ) ;
#307 = DATE_AND_TIME ( #336, #252 ) ;
#308 = ORIENTED_EDGE ( 'NONE', *, *, #255, .T. ) ;
#309 = APPROVAL_DATE_TIME ( #307, #76 ) ;
#310 = SPHERICAL_SURFACE ( 'NONE', #394, 44.24000000000000199 ) ;
#311 = DIRECTION ( 'NONE',  ( -1.000000000000000000, 7.192054212175819070E-18, 0.000000000000000000 ) ) ;
#312 = CIRCLE ( 'NONE', #137, 27.25794616660286707 ) ;
#313 = AXIS2_PLACEMENT_3D ( 'NONE', #388, #143, #235 ) ;
#314 = DIRECTION ( 'NONE',  ( 4.596983092540343816E-18, 1.000000000000000000, -0.000000000000000000 ) ) ;
#315 = CC_DESIGN_PERSON_AND_ORGANIZATION_ASSIGNMENT ( #17, #147, ( #356 ) ) ;
#316 = CARTESIAN_POINT ( 'NONE',  ( -1.837112651694520122E-31, 1.920811739435828391, 0.000000000000000000 ) ) ;
#317 = DIRECTION ( 'NONE',  ( 4.596983092540343816E-18, 1.000000000000000000, -0.000000000000000000 ) ) ;
#318 = CARTESIAN_POINT ( 'NONE',  ( 5.111675739641022775E-15, -29.74000000000000199, 0.000000000000000000 ) ) ;
#319 = EDGE_CURVE ( 'NONE', #113, #209, #41, .T. ) ;
#320 = DIRECTION ( 'NONE',  ( -1.000000000000000000, 7.192054212175819070E-18, 0.000000000000000000 ) ) ;
#321 = SPHERICAL_SURFACE ( 'NONE', #363, 44.24000000000000199 ) ;
#322 = AXIS2_PLACEMENT_3D ( 'NONE', #411, #188, #225 ) ;
#323 = AXIS2_PLACEMENT_3D ( 'NONE', #390, #272, #19 ) ;
#324 = CARTESIAN_POINT ( 'NONE',  ( 5.111675739641022775E-15, -29.74000000000000199, 0.000000000000000000 ) ) ;
#325 = CARTESIAN_POINT ( 'NONE',  ( 9.236488298952508525E-16, 0.000000000000000000, 0.000000000000000000 ) ) ;
#326 = DIRECTION ( 'NONE',  ( 0.000000000000000000, 0.000000000000000000, 1.000000000000000000 ) ) ;
#327 = EDGE_LOOP ( 'NONE', ( #39, #335, #234 ) ) ;
#328 = CIRCLE ( 'NONE', #123, 44.24000000000000199 ) ;
#329 = ORIENTED_EDGE ( 'NONE', *, *, #361, .F. ) ;
#330 = EDGE_CURVE ( 'NONE', #180, #120, #355, .T. ) ;
#331 = ORIENTED_EDGE ( 'NONE', *, *, #319, .T. ) ;
#332 = ORIENTED_EDGE ( 'NONE', *, *, #109, .F. ) ;
#333 = COORDINATED_UNIVERSAL_TIME_OFFSET ( 1, 0, .AHEAD. ) ;
#334 = AXIS2_PLACEMENT_3D ( 'NONE', #60, #314, #91 ) ;
#335 = ORIENTED_EDGE ( 'NONE', *, *, #361, .T. ) ;
#336 = CALENDAR_DATE ( 2024, 16, 7 ) ;
#337 = DIRECTION ( 'NONE',  ( -1.224646799147353207E-16, 5.629680630014033300E-34, 1.000000000000000000 ) ) ;
#338 = EDGE_CURVE ( 'NONE', #5, #56, #375, .T. ) ;
#339 = DATE_TIME_ROLE ( 'classification_date' ) ;
#340 = DIRECTION ( 'NONE',  ( 1.000000000000000000, -4.596983092540343816E-18, 0.000000000000000000 ) ) ;
#341 = DIRECTION ( 'NONE',  ( 1.000000000000000000, -4.596983092540343046E-18, 0.000000000000000000 ) ) ;
#342 = LOCAL_TIME ( 8, 19, 14.00000000000000000, #333 ) ;
#343 = EDGE_CURVE ( 'NONE', #111, #113, #152, .T. ) ;
#344 = APPROVAL_ROLE ( '' ) ;
#345 = DIRECTION ( 'NONE',  ( -1.000000000000000000, 0.000000000000000000, 0.000000000000000000 ) ) ;
#346 = APPROVAL_STATUS ( 'not_yet_approved' ) ;
#347 = DIRECTION ( 'NONE',  ( 4.596983092540343816E-18, 1.000000000000000000, -0.000000000000000000 ) ) ;
#348 = FACE_OUTER_BOUND ( 'NONE', #260, .T. ) ;
#349 = EDGE_CURVE ( 'NONE', #56, #180, #7, .T. ) ;
#350 = APPLICATION_CONTEXT ( 'configuration controlled 3d designs of mechanical parts and assemblies' ) ;
#351 = CARTESIAN_POINT ( 'NONE',  ( 9.236488298952508525E-16, 0.000000000000000000, 0.000000000000000000 ) ) ;
#352 = DIRECTION ( 'NONE',  ( 4.596983092540343816E-18, 1.000000000000000000, -0.000000000000000000 ) ) ;
#353 = DIRECTION ( 'NONE',  ( 4.596983092540343816E-18, 1.000000000000000000, -0.000000000000000000 ) ) ;
#354 = PRODUCT_DEFINITION_FORMATION_WITH_SPECIFIED_SOURCE ( 'ANY', '', #398, .NOT_KNOWN. ) ;
#355 = CIRCLE ( 'NONE', #222, 26.07896925628258344 ) ;
#356 = PRODUCT_DEFINITION ( 'UNKNOWN', '', #354, #250 ) ;
#357 = CARTESIAN_POINT ( 'NONE',  ( -23.10499999999999332, 1.920811739435868359, 0.000000000000000000 ) ) ;
#358 = ORIENTED_EDGE ( 'NONE', *, *, #130, .T. ) ;
#359 = EDGE_LOOP ( 'NONE', ( #198, #78, #177, #305 ) ) ;
#360 = ORIENTED_EDGE ( 'NONE', *, *, #338, .F. ) ;
#361 = EDGE_CURVE ( 'NONE', #16, #10, #28, .T. ) ;
#362 = CC_DESIGN_APPROVAL ( #36, ( #295 ) ) ;
#363 = AXIS2_PLACEMENT_3D ( 'NONE', #318, #141, #262 ) ;
#364 = DATE_TIME_ROLE ( 'creation_date' ) ;
#365 = ORIENTED_EDGE ( 'NONE', *, *, #66, .T. ) ;
#366 = EDGE_LOOP ( 'NONE', ( #329, #236, #145 ) ) ;
#367 = ORIENTED_EDGE ( 'NONE', *, *, #206, .F. ) ;
#368 = DATE_AND_TIME ( #401, #107 ) ;
#369 = CIRCLE ( 'NONE', #195, 28.14999999999999503 ) ;
#370 = CYLINDRICAL_SURFACE ( 'NONE', #285, 28.14999999999999503 ) ;
#371 = SHAPE_DEFINITION_REPRESENTATION ( #157, #300 ) ;
#372 = CARTESIAN_POINT ( 'NONE',  ( 1.387778780781445676E-14, 2817.965330118411202, 0.000000000000000000 ) ) ;
#373 = CARTESIAN_POINT ( 'NONE',  ( -30.14999999999999503, 1.385990402400913442E-16, 0.000000000000000000 ) ) ;
#374 = AXIS2_PLACEMENT_3D ( 'NONE', #277, #160, #64 ) ;
#375 = CIRCLE ( 'NONE', #203, 28.14999999999999503 ) ;
#376 = COORDINATED_UNIVERSAL_TIME_OFFSET ( 1, 0, .AHEAD. ) ;
#377 = CARTESIAN_POINT ( 'NONE',  ( 9.324787689853915019E-16, 1.920811739435812626, 0.000000000000000000 ) ) ;
#378 = ADVANCED_FACE ( 'NONE', ( #12 ), #181, .T. ) ;
#379 = CYLINDRICAL_SURFACE ( 'NONE', #115, 28.14999999999999503 ) ;
#380 = FACE_OUTER_BOUND ( 'NONE', #48, .T. ) ;
#381 = CIRCLE ( 'NONE', #6, 46.24000000000000199 ) ;
#382 =( GEOMETRIC_REPRESENTATION_CONTEXT ( 3 ) GLOBAL_UNCERTAINTY_ASSIGNED_CONTEXT ( ( #405 ) ) GLOBAL_UNIT_ASSIGNED_CONTEXT ( ( #52, #176, #49 ) ) REPRESENTATION_CONTEXT ( 'NONE', 'WORKASPACE' ) );
#383 = SPHERICAL_SURFACE ( 'NONE', #208, 46.24000000000000199 ) ;
#384 = CARTESIAN_POINT ( 'NONE',  ( 9.586392232159783176E-16, 7.611599306838190415, 0.000000000000000000 ) ) ;
#385 = VERTEX_POINT ( 'NONE', #207 ) ;
#386 = APPROVAL ( #144, 'UNSPECIFIED' ) ;
#387 = DIRECTION ( 'NONE',  ( -1.000000000000000000, 0.000000000000000000, 0.000000000000000000 ) ) ;
#388 = CARTESIAN_POINT ( 'NONE',  ( 5.111675739641022775E-15, -29.74000000000000199, 0.000000000000000000 ) ) ;
#389 = ADVANCED_FACE ( 'NONE', ( #297 ), #263, .T. ) ;
#390 = CARTESIAN_POINT ( 'NONE',  ( -23.10499999999999332, 1.920811739435868359, 0.000000000000000000 ) ) ;
#391 = ORIENTED_EDGE ( 'NONE', *, *, #133, .T. ) ;
#392 = CALENDAR_DATE ( 2024, 16, 7 ) ;
#393 = ORIENTED_EDGE ( 'NONE', *, *, #133, .F. ) ;
#394 = AXIS2_PLACEMENT_3D ( 'NONE', #156, #63, #345 ) ;
#395 = TOROIDAL_SURFACE ( 'NONE', #80, 23.10499999999999332, 5.044999999999999041 ) ;
#396 = DIRECTION ( 'NONE',  ( -1.224646799147353207E-16, 5.629680630014033300E-34, 1.000000000000000000 ) ) ;
#397 = ORIENTED_EDGE ( 'NONE', *, *, #330, .F. ) ;
#398 = PRODUCT ( '3D_R365_60.3x2_173371116', '3D_R365_60.3x2_173371116', '', ( #45 ) ) ;
#399 = ORIENTED_EDGE ( 'NONE', *, *, #403, .T. ) ;
#400 = ORIENTED_EDGE ( 'NONE', *, *, #343, .F. ) ;
#401 = CALENDAR_DATE ( 2024, 16, 7 ) ;
#402 = DIRECTION ( 'NONE',  ( 4.596983092540343816E-18, 1.000000000000000000, -0.000000000000000000 ) ) ;
#403 = EDGE_CURVE ( 'NONE', #25, #16, #139, .T. ) ;
#404 = FACE_OUTER_BOUND ( 'NONE', #212, .T. ) ;
#405 = UNCERTAINTY_MEASURE_WITH_UNIT (LENGTH_MEASURE( 1.000000000000000082E-05 ), #52, 'distance_accuracy_value', 'NONE');
#406 = PERSON_AND_ORGANIZATION ( #185, #258 ) ;
#407 = CARTESIAN_POINT ( 'NONE',  ( 0.000000000000000000, 1.920811739435868359, 0.000000000000000000 ) ) ;
#408 = PERSON_AND_ORGANIZATION ( #185, #258 ) ;
#409 = LINE ( 'NONE', #31, #227 ) ;
#410 = CLOSED_SHELL ( 'NONE', ( #246, #44, #175, #389, #378, #59, #14, #288, #155, #233, #200, #302, #83 ) ) ;
#411 = CARTESIAN_POINT ( 'NONE',  ( 1.387778780781445676E-14, 2817.965330118411202, 0.000000000000000000 ) ) ;
ENDSEC;
END-ISO-10303-21;
