ISO-10303-21;
HEADER;
/* Generated by software containing ST-Developer
 * from STEP Tools, Inc. (www.steptools.com) 
 */

FILE_DESCRIPTION(
/* description */ (''),
/* implementation_level */ '2;1');

FILE_NAME(
/* name */ 
'C:\\Users\\cad\\Desktop\\Zeichnungen neu von Ralph\\3D_Kupplung_R666-
G\\3D_R666-G-DN10-DN25_17113525.stp',
/* time_stamp */ '2021-06-21T14:40:19+02:00',
/* author */ ('cad'),
/* organization */ (''),
/* preprocessor_version */ 'ST-DEVELOPER v18.1',
/* originating_system */ 'Autodesk Inventor 2022',
/* authorisation */ '');

FILE_SCHEMA (('AUTOMOTIVE_DESIGN { 1 0 10303 214 3 1 1 }'));
ENDSEC;

DATA;
#10=MECHANICAL_DESIGN_GEOMETRIC_PRESENTATION_REPRESENTATION('',(#13),#581);
#11=SHAPE_REPRESENTATION_RELATIONSHIP('SRR','None',#588,#12);
#12=ADVANCED_BREP_SHAPE_REPRESENTATION('',(#14),#580);
#13=STYLED_ITEM('',(#597),#14);
#14=MANIFOLD_SOLID_BREP('Volumenk\X\F6rper1',#313);
#15=CYLINDRICAL_SURFACE('',#358,12.25);
#16=CYLINDRICAL_SURFACE('',#365,7.475);
#17=CYLINDRICAL_SURFACE('',#369,16.55);
#18=TOROIDAL_SURFACE('',#352,12.75,0.5);
#19=CONICAL_SURFACE('',#343,12.1,0.785398163397456);
#20=CONICAL_SURFACE('',#345,12.1,0.785398163397456);
#21=CONICAL_SURFACE('',#348,8.24317060782629,0.5235987755983);
#22=CONICAL_SURFACE('',#359,13.4,1.35673564323108);
#23=CONICAL_SURFACE('',#362,8.025,0.785398163397447);
#24=CONICAL_SURFACE('',#366,15.55,0.785398163397448);
#25=CONICAL_SURFACE('',#372,15.55,0.785398163397448);
#26=FACE_BOUND('',#75,.T.);
#27=FACE_BOUND('',#88,.T.);
#28=CIRCLE('',#340,11.95);
#29=CIRCLE('',#341,11.95);
#30=CIRCLE('',#342,8.575);
#31=CIRCLE('',#344,12.25);
#32=CIRCLE('',#346,12.25);
#33=CIRCLE('',#347,12.25);
#34=CIRCLE('',#349,9.5);
#35=CIRCLE('',#350,7.475);
#36=CIRCLE('',#351,7.475);
#37=CIRCLE('',#353,12.25);
#38=CIRCLE('',#354,0.5);
#39=CIRCLE('',#355,12.6437851778345);
#40=CIRCLE('',#356,12.6437851778345);
#41=CIRCLE('',#357,12.25);
#42=CIRCLE('',#360,14.55);
#43=CIRCLE('',#361,14.55);
#44=CIRCLE('',#363,7.475);
#45=CIRCLE('',#364,7.475);
#46=CIRCLE('',#367,16.55);
#47=CIRCLE('',#368,16.55);
#48=CIRCLE('',#370,16.55);
#49=CIRCLE('',#371,16.55);
#50=CIRCLE('',#373,14.55);
#51=ELLIPSE('',#335,12.6821332100235,12.25);
#52=ELLIPSE('',#338,12.6821332100235,12.25);
#53=FACE_OUTER_BOUND('',#70,.T.);
#54=FACE_OUTER_BOUND('',#71,.T.);
#55=FACE_OUTER_BOUND('',#72,.T.);
#56=FACE_OUTER_BOUND('',#73,.T.);
#57=FACE_OUTER_BOUND('',#74,.T.);
#58=FACE_OUTER_BOUND('',#76,.T.);
#59=FACE_OUTER_BOUND('',#77,.T.);
#60=FACE_OUTER_BOUND('',#78,.T.);
#61=FACE_OUTER_BOUND('',#79,.T.);
#62=FACE_OUTER_BOUND('',#80,.T.);
#63=FACE_OUTER_BOUND('',#81,.T.);
#64=FACE_OUTER_BOUND('',#82,.T.);
#65=FACE_OUTER_BOUND('',#83,.T.);
#66=FACE_OUTER_BOUND('',#84,.T.);
#67=FACE_OUTER_BOUND('',#85,.T.);
#68=FACE_OUTER_BOUND('',#86,.T.);
#69=FACE_OUTER_BOUND('',#87,.T.);
#70=EDGE_LOOP('',(#200,#201,#202,#203,#204,#205));
#71=EDGE_LOOP('',(#206,#207));
#72=EDGE_LOOP('',(#208,#209,#210,#211,#212,#213));
#73=EDGE_LOOP('',(#214,#215));
#74=EDGE_LOOP('',(#216,#217,#218,#219));
#75=EDGE_LOOP('',(#220));
#76=EDGE_LOOP('',(#221,#222,#223,#224));
#77=EDGE_LOOP('',(#225,#226,#227,#228,#229));
#78=EDGE_LOOP('',(#230,#231,#232,#233,#234));
#79=EDGE_LOOP('',(#235,#236,#237,#238,#239,#240));
#80=EDGE_LOOP('',(#241,#242,#243,#244,#245,#246,#247,#248,#249,#250,#251,
#252,#253));
#81=EDGE_LOOP('',(#254,#255,#256,#257,#258,#259));
#82=EDGE_LOOP('',(#260,#261,#262,#263,#264));
#83=EDGE_LOOP('',(#265,#266,#267,#268,#269,#270));
#84=EDGE_LOOP('',(#271,#272,#273,#274,#275,#276));
#85=EDGE_LOOP('',(#277,#278,#279,#280,#281,#282));
#86=EDGE_LOOP('',(#283,#284,#285,#286,#287));
#87=EDGE_LOOP('',(#288));
#88=EDGE_LOOP('',(#289));
#89=LINE('',#485,#105);
#90=LINE('',#487,#106);
#91=LINE('',#489,#107);
#92=LINE('',#494,#108);
#93=LINE('',#504,#109);
#94=LINE('',#506,#110);
#95=LINE('',#508,#111);
#96=LINE('',#513,#112);
#97=LINE('',#531,#113);
#98=LINE('',#546,#114);
#99=LINE('',#552,#115);
#100=LINE('',#555,#116);
#101=LINE('',#560,#117);
#102=LINE('',#566,#118);
#103=LINE('',#572,#119);
#104=LINE('',#576,#120);
#105=VECTOR('',#379,10.);
#106=VECTOR('',#380,10.);
#107=VECTOR('',#381,10.);
#108=VECTOR('',#382,10.);
#109=VECTOR('',#389,10.);
#110=VECTOR('',#390,10.);
#111=VECTOR('',#391,10.);
#112=VECTOR('',#392,10.);
#113=VECTOR('',#419,8.24317060782629);
#114=VECTOR('',#438,12.25);
#115=VECTOR('',#445,13.4);
#116=VECTOR('',#448,8.025);
#117=VECTOR('',#455,7.475);
#118=VECTOR('',#462,15.55);
#119=VECTOR('',#469,16.55);
#120=VECTOR('',#474,15.55);
#121=(
BOUNDED_CURVE()
B_SPLINE_CURVE(2,(#481,#482,#483),.UNSPECIFIED.,.F.,.F.)
B_SPLINE_CURVE_WITH_KNOTS((3,3),(0.,0.0781566513556833),.UNSPECIFIED.)
CURVE()
GEOMETRIC_REPRESENTATION_ITEM()
RATIONAL_B_SPLINE_CURVE((1.,1.00044492027322,1.))
REPRESENTATION_ITEM('')
);
#122=(
BOUNDED_CURVE()
B_SPLINE_CURVE(2,(#491,#492,#493),.UNSPECIFIED.,.F.,.F.)
B_SPLINE_CURVE_WITH_KNOTS((3,3),(0.,0.0781566513556833),.UNSPECIFIED.)
CURVE()
GEOMETRIC_REPRESENTATION_ITEM()
RATIONAL_B_SPLINE_CURVE((1.,1.00044492027237,1.))
REPRESENTATION_ITEM('')
);
#123=(
BOUNDED_CURVE()
B_SPLINE_CURVE(2,(#500,#501,#502),.UNSPECIFIED.,.F.,.F.)
B_SPLINE_CURVE_WITH_KNOTS((3,3),(0.,0.0781566513556833),.UNSPECIFIED.)
CURVE()
GEOMETRIC_REPRESENTATION_ITEM()
RATIONAL_B_SPLINE_CURVE((1.,1.00044492027159,1.))
REPRESENTATION_ITEM('')
);
#124=(
BOUNDED_CURVE()
B_SPLINE_CURVE(2,(#510,#511,#512),.UNSPECIFIED.,.F.,.F.)
B_SPLINE_CURVE_WITH_KNOTS((3,3),(0.,0.0781566513556833),.UNSPECIFIED.)
CURVE()
GEOMETRIC_REPRESENTATION_ITEM()
RATIONAL_B_SPLINE_CURVE((1.,1.00044492027159,1.))
REPRESENTATION_ITEM('')
);
#125=VERTEX_POINT('',#479);
#126=VERTEX_POINT('',#480);
#127=VERTEX_POINT('',#484);
#128=VERTEX_POINT('',#486);
#129=VERTEX_POINT('',#488);
#130=VERTEX_POINT('',#490);
#131=VERTEX_POINT('',#498);
#132=VERTEX_POINT('',#499);
#133=VERTEX_POINT('',#503);
#134=VERTEX_POINT('',#505);
#135=VERTEX_POINT('',#507);
#136=VERTEX_POINT('',#509);
#137=VERTEX_POINT('',#519);
#138=VERTEX_POINT('',#524);
#139=VERTEX_POINT('',#528);
#140=VERTEX_POINT('',#530);
#141=VERTEX_POINT('',#532);
#142=VERTEX_POINT('',#536);
#143=VERTEX_POINT('',#537);
#144=VERTEX_POINT('',#539);
#145=VERTEX_POINT('',#541);
#146=VERTEX_POINT('',#548);
#147=VERTEX_POINT('',#549);
#148=VERTEX_POINT('',#554);
#149=VERTEX_POINT('',#556);
#150=VERTEX_POINT('',#562);
#151=VERTEX_POINT('',#563);
#152=VERTEX_POINT('',#568);
#153=VERTEX_POINT('',#569);
#154=VERTEX_POINT('',#574);
#155=EDGE_CURVE('',#125,#126,#121,.T.);
#156=EDGE_CURVE('',#127,#125,#89,.T.);
#157=EDGE_CURVE('',#127,#128,#90,.T.);
#158=EDGE_CURVE('',#129,#128,#91,.T.);
#159=EDGE_CURVE('',#130,#129,#122,.T.);
#160=EDGE_CURVE('',#126,#130,#92,.T.);
#161=EDGE_CURVE('',#128,#127,#51,.T.);
#162=EDGE_CURVE('',#131,#132,#123,.T.);
#163=EDGE_CURVE('',#133,#131,#93,.T.);
#164=EDGE_CURVE('',#133,#134,#94,.T.);
#165=EDGE_CURVE('',#135,#134,#95,.T.);
#166=EDGE_CURVE('',#136,#135,#124,.T.);
#167=EDGE_CURVE('',#132,#136,#96,.T.);
#168=EDGE_CURVE('',#134,#133,#52,.T.);
#169=EDGE_CURVE('',#132,#130,#28,.T.);
#170=EDGE_CURVE('',#126,#136,#29,.T.);
#171=EDGE_CURVE('',#137,#137,#30,.T.);
#172=EDGE_CURVE('',#129,#131,#31,.T.);
#173=EDGE_CURVE('',#135,#138,#32,.T.);
#174=EDGE_CURVE('',#138,#125,#33,.T.);
#175=EDGE_CURVE('',#139,#139,#34,.T.);
#176=EDGE_CURVE('',#139,#140,#97,.T.);
#177=EDGE_CURVE('',#141,#140,#35,.T.);
#178=EDGE_CURVE('',#140,#141,#36,.T.);
#179=EDGE_CURVE('',#142,#143,#37,.T.);
#180=EDGE_CURVE('',#143,#144,#38,.T.);
#181=EDGE_CURVE('',#144,#145,#39,.T.);
#182=EDGE_CURVE('',#145,#144,#40,.T.);
#183=EDGE_CURVE('',#143,#142,#41,.T.);
#184=EDGE_CURVE('',#142,#138,#98,.T.);
#185=EDGE_CURVE('',#146,#147,#42,.T.);
#186=EDGE_CURVE('',#147,#146,#43,.T.);
#187=EDGE_CURVE('',#147,#145,#99,.T.);
#188=EDGE_CURVE('',#137,#148,#100,.T.);
#189=EDGE_CURVE('',#148,#149,#44,.T.);
#190=EDGE_CURVE('',#149,#148,#45,.T.);
#191=EDGE_CURVE('',#149,#141,#101,.T.);
#192=EDGE_CURVE('',#150,#151,#46,.T.);
#193=EDGE_CURVE('',#151,#150,#47,.T.);
#194=EDGE_CURVE('',#150,#146,#102,.T.);
#195=EDGE_CURVE('',#152,#153,#48,.T.);
#196=EDGE_CURVE('',#153,#152,#49,.T.);
#197=EDGE_CURVE('',#153,#151,#103,.T.);
#198=EDGE_CURVE('',#154,#154,#50,.T.);
#199=EDGE_CURVE('',#154,#152,#104,.T.);
#200=ORIENTED_EDGE('',*,*,#155,.F.);
#201=ORIENTED_EDGE('',*,*,#156,.F.);
#202=ORIENTED_EDGE('',*,*,#157,.T.);
#203=ORIENTED_EDGE('',*,*,#158,.F.);
#204=ORIENTED_EDGE('',*,*,#159,.F.);
#205=ORIENTED_EDGE('',*,*,#160,.F.);
#206=ORIENTED_EDGE('',*,*,#161,.F.);
#207=ORIENTED_EDGE('',*,*,#157,.F.);
#208=ORIENTED_EDGE('',*,*,#162,.F.);
#209=ORIENTED_EDGE('',*,*,#163,.F.);
#210=ORIENTED_EDGE('',*,*,#164,.T.);
#211=ORIENTED_EDGE('',*,*,#165,.F.);
#212=ORIENTED_EDGE('',*,*,#166,.F.);
#213=ORIENTED_EDGE('',*,*,#167,.F.);
#214=ORIENTED_EDGE('',*,*,#168,.F.);
#215=ORIENTED_EDGE('',*,*,#164,.F.);
#216=ORIENTED_EDGE('',*,*,#160,.T.);
#217=ORIENTED_EDGE('',*,*,#169,.F.);
#218=ORIENTED_EDGE('',*,*,#167,.T.);
#219=ORIENTED_EDGE('',*,*,#170,.F.);
#220=ORIENTED_EDGE('',*,*,#171,.F.);
#221=ORIENTED_EDGE('',*,*,#159,.T.);
#222=ORIENTED_EDGE('',*,*,#172,.T.);
#223=ORIENTED_EDGE('',*,*,#162,.T.);
#224=ORIENTED_EDGE('',*,*,#169,.T.);
#225=ORIENTED_EDGE('',*,*,#155,.T.);
#226=ORIENTED_EDGE('',*,*,#170,.T.);
#227=ORIENTED_EDGE('',*,*,#166,.T.);
#228=ORIENTED_EDGE('',*,*,#173,.T.);
#229=ORIENTED_EDGE('',*,*,#174,.T.);
#230=ORIENTED_EDGE('',*,*,#175,.F.);
#231=ORIENTED_EDGE('',*,*,#176,.T.);
#232=ORIENTED_EDGE('',*,*,#177,.F.);
#233=ORIENTED_EDGE('',*,*,#178,.F.);
#234=ORIENTED_EDGE('',*,*,#176,.F.);
#235=ORIENTED_EDGE('',*,*,#179,.T.);
#236=ORIENTED_EDGE('',*,*,#180,.T.);
#237=ORIENTED_EDGE('',*,*,#181,.T.);
#238=ORIENTED_EDGE('',*,*,#182,.T.);
#239=ORIENTED_EDGE('',*,*,#180,.F.);
#240=ORIENTED_EDGE('',*,*,#183,.T.);
#241=ORIENTED_EDGE('',*,*,#179,.F.);
#242=ORIENTED_EDGE('',*,*,#184,.T.);
#243=ORIENTED_EDGE('',*,*,#173,.F.);
#244=ORIENTED_EDGE('',*,*,#165,.T.);
#245=ORIENTED_EDGE('',*,*,#168,.T.);
#246=ORIENTED_EDGE('',*,*,#163,.T.);
#247=ORIENTED_EDGE('',*,*,#172,.F.);
#248=ORIENTED_EDGE('',*,*,#158,.T.);
#249=ORIENTED_EDGE('',*,*,#161,.T.);
#250=ORIENTED_EDGE('',*,*,#156,.T.);
#251=ORIENTED_EDGE('',*,*,#174,.F.);
#252=ORIENTED_EDGE('',*,*,#184,.F.);
#253=ORIENTED_EDGE('',*,*,#183,.F.);
#254=ORIENTED_EDGE('',*,*,#185,.F.);
#255=ORIENTED_EDGE('',*,*,#186,.F.);
#256=ORIENTED_EDGE('',*,*,#187,.T.);
#257=ORIENTED_EDGE('',*,*,#181,.F.);
#258=ORIENTED_EDGE('',*,*,#182,.F.);
#259=ORIENTED_EDGE('',*,*,#187,.F.);
#260=ORIENTED_EDGE('',*,*,#171,.T.);
#261=ORIENTED_EDGE('',*,*,#188,.T.);
#262=ORIENTED_EDGE('',*,*,#189,.T.);
#263=ORIENTED_EDGE('',*,*,#190,.T.);
#264=ORIENTED_EDGE('',*,*,#188,.F.);
#265=ORIENTED_EDGE('',*,*,#189,.F.);
#266=ORIENTED_EDGE('',*,*,#190,.F.);
#267=ORIENTED_EDGE('',*,*,#191,.T.);
#268=ORIENTED_EDGE('',*,*,#177,.T.);
#269=ORIENTED_EDGE('',*,*,#178,.T.);
#270=ORIENTED_EDGE('',*,*,#191,.F.);
#271=ORIENTED_EDGE('',*,*,#192,.T.);
#272=ORIENTED_EDGE('',*,*,#193,.T.);
#273=ORIENTED_EDGE('',*,*,#194,.T.);
#274=ORIENTED_EDGE('',*,*,#185,.T.);
#275=ORIENTED_EDGE('',*,*,#186,.T.);
#276=ORIENTED_EDGE('',*,*,#194,.F.);
#277=ORIENTED_EDGE('',*,*,#195,.F.);
#278=ORIENTED_EDGE('',*,*,#196,.F.);
#279=ORIENTED_EDGE('',*,*,#197,.T.);
#280=ORIENTED_EDGE('',*,*,#192,.F.);
#281=ORIENTED_EDGE('',*,*,#193,.F.);
#282=ORIENTED_EDGE('',*,*,#197,.F.);
#283=ORIENTED_EDGE('',*,*,#198,.T.);
#284=ORIENTED_EDGE('',*,*,#199,.T.);
#285=ORIENTED_EDGE('',*,*,#195,.T.);
#286=ORIENTED_EDGE('',*,*,#196,.T.);
#287=ORIENTED_EDGE('',*,*,#199,.F.);
#288=ORIENTED_EDGE('',*,*,#198,.F.);
#289=ORIENTED_EDGE('',*,*,#175,.T.);
#290=PLANE('',#333);
#291=PLANE('',#334);
#292=PLANE('',#336);
#293=PLANE('',#337);
#294=PLANE('',#339);
#295=PLANE('',#374);
#296=ADVANCED_FACE('',(#53),#290,.F.);
#297=ADVANCED_FACE('',(#54),#291,.F.);
#298=ADVANCED_FACE('',(#55),#292,.F.);
#299=ADVANCED_FACE('',(#56),#293,.F.);
#300=ADVANCED_FACE('',(#57,#26),#294,.T.);
#301=ADVANCED_FACE('',(#58),#19,.T.);
#302=ADVANCED_FACE('',(#59),#20,.T.);
#303=ADVANCED_FACE('',(#60),#21,.F.);
#304=ADVANCED_FACE('',(#61),#18,.F.);
#305=ADVANCED_FACE('',(#62),#15,.T.);
#306=ADVANCED_FACE('',(#63),#22,.T.);
#307=ADVANCED_FACE('',(#64),#23,.F.);
#308=ADVANCED_FACE('',(#65),#16,.F.);
#309=ADVANCED_FACE('',(#66),#24,.T.);
#310=ADVANCED_FACE('',(#67),#17,.T.);
#311=ADVANCED_FACE('',(#68),#25,.T.);
#312=ADVANCED_FACE('',(#69,#27),#295,.T.);
#313=CLOSED_SHELL('',(#296,#297,#298,#299,#300,#301,#302,#303,#304,#305,
#306,#307,#308,#309,#310,#311,#312));
#314=DERIVED_UNIT_ELEMENT(#316,1.);
#315=DERIVED_UNIT_ELEMENT(#583,-3.);
#316=(
MASS_UNIT()
NAMED_UNIT(*)
SI_UNIT($,.GRAM.)
);
#317=DERIVED_UNIT((#314,#315));
#318=MEASURE_REPRESENTATION_ITEM('density measure',
POSITIVE_RATIO_MEASURE(1.),#317);
#319=PROPERTY_DEFINITION_REPRESENTATION(#324,#321);
#320=PROPERTY_DEFINITION_REPRESENTATION(#325,#322);
#321=REPRESENTATION('material name',(#323),#580);
#322=REPRESENTATION('density',(#318),#580);
#323=DESCRIPTIVE_REPRESENTATION_ITEM('Generisch','Generisch');
#324=PROPERTY_DEFINITION('material property','material name',#590);
#325=PROPERTY_DEFINITION('material property','density of part',#590);
#326=DATE_TIME_ROLE('creation_date');
#327=APPLIED_DATE_AND_TIME_ASSIGNMENT(#328,#326,(#590));
#328=DATE_AND_TIME(#329,#330);
#329=CALENDAR_DATE(2021,21,6);
#330=LOCAL_TIME(0,0,0.,#331);
#331=COORDINATED_UNIVERSAL_TIME_OFFSET(0,0,.BEHIND.);
#332=AXIS2_PLACEMENT_3D('placement',#477,#375,#376);
#333=AXIS2_PLACEMENT_3D('',#478,#377,#378);
#334=AXIS2_PLACEMENT_3D('',#495,#383,#384);
#335=AXIS2_PLACEMENT_3D('',#496,#385,#386);
#336=AXIS2_PLACEMENT_3D('',#497,#387,#388);
#337=AXIS2_PLACEMENT_3D('',#514,#393,#394);
#338=AXIS2_PLACEMENT_3D('',#515,#395,#396);
#339=AXIS2_PLACEMENT_3D('',#516,#397,#398);
#340=AXIS2_PLACEMENT_3D('',#517,#399,#400);
#341=AXIS2_PLACEMENT_3D('',#518,#401,#402);
#342=AXIS2_PLACEMENT_3D('',#520,#403,#404);
#343=AXIS2_PLACEMENT_3D('',#521,#405,#406);
#344=AXIS2_PLACEMENT_3D('',#522,#407,#408);
#345=AXIS2_PLACEMENT_3D('',#523,#409,#410);
#346=AXIS2_PLACEMENT_3D('',#525,#411,#412);
#347=AXIS2_PLACEMENT_3D('',#526,#413,#414);
#348=AXIS2_PLACEMENT_3D('',#527,#415,#416);
#349=AXIS2_PLACEMENT_3D('',#529,#417,#418);
#350=AXIS2_PLACEMENT_3D('',#533,#420,#421);
#351=AXIS2_PLACEMENT_3D('',#534,#422,#423);
#352=AXIS2_PLACEMENT_3D('',#535,#424,#425);
#353=AXIS2_PLACEMENT_3D('',#538,#426,#427);
#354=AXIS2_PLACEMENT_3D('',#540,#428,#429);
#355=AXIS2_PLACEMENT_3D('',#542,#430,#431);
#356=AXIS2_PLACEMENT_3D('',#543,#432,#433);
#357=AXIS2_PLACEMENT_3D('',#544,#434,#435);
#358=AXIS2_PLACEMENT_3D('',#545,#436,#437);
#359=AXIS2_PLACEMENT_3D('',#547,#439,#440);
#360=AXIS2_PLACEMENT_3D('',#550,#441,#442);
#361=AXIS2_PLACEMENT_3D('',#551,#443,#444);
#362=AXIS2_PLACEMENT_3D('',#553,#446,#447);
#363=AXIS2_PLACEMENT_3D('',#557,#449,#450);
#364=AXIS2_PLACEMENT_3D('',#558,#451,#452);
#365=AXIS2_PLACEMENT_3D('',#559,#453,#454);
#366=AXIS2_PLACEMENT_3D('',#561,#456,#457);
#367=AXIS2_PLACEMENT_3D('',#564,#458,#459);
#368=AXIS2_PLACEMENT_3D('',#565,#460,#461);
#369=AXIS2_PLACEMENT_3D('',#567,#463,#464);
#370=AXIS2_PLACEMENT_3D('',#570,#465,#466);
#371=AXIS2_PLACEMENT_3D('',#571,#467,#468);
#372=AXIS2_PLACEMENT_3D('',#573,#470,#471);
#373=AXIS2_PLACEMENT_3D('',#575,#472,#473);
#374=AXIS2_PLACEMENT_3D('',#577,#475,#476);
#375=DIRECTION('axis',(0.,0.,1.));
#376=DIRECTION('refdir',(1.,0.,0.));
#377=DIRECTION('center_axis',(0.,5.11044316785613E-17,-1.));
#378=DIRECTION('ref_axis',(0.,1.,5.11044316785613E-17));
#379=DIRECTION('',(-1.,0.,0.));
#380=DIRECTION('',(0.,1.,5.11044316785613E-17));
#381=DIRECTION('',(1.,0.,0.));
#382=DIRECTION('',(0.,1.,5.11044316785613E-17));
#383=DIRECTION('center_axis',(0.965925826289068,1.32268002075523E-17,-0.258819045102521));
#384=DIRECTION('ref_axis',(-0.258819045102521,-1.74134128241374E-18,-0.965925826289068));
#385=DIRECTION('center_axis',(0.965925826289068,1.32268002075523E-17,-0.258819045102521));
#386=DIRECTION('ref_axis',(0.258819045102521,0.,0.965925826289068));
#387=DIRECTION('center_axis',(0.,0.,1.));
#388=DIRECTION('ref_axis',(0.,-1.,0.));
#389=DIRECTION('',(-1.,0.,0.));
#390=DIRECTION('',(0.,-1.,0.));
#391=DIRECTION('',(1.,0.,0.));
#392=DIRECTION('',(0.,-1.,0.));
#393=DIRECTION('center_axis',(0.965925826289068,0.,0.258819045102521));
#394=DIRECTION('ref_axis',(0.258819045102521,0.,-0.965925826289068));
#395=DIRECTION('center_axis',(0.965925826289068,0.,0.258819045102521));
#396=DIRECTION('ref_axis',(-0.258819045102521,0.,0.965925826289068));
#397=DIRECTION('center_axis',(-1.,0.,0.));
#398=DIRECTION('ref_axis',(0.,0.,1.));
#399=DIRECTION('center_axis',(1.,0.,0.));
#400=DIRECTION('ref_axis',(0.,-1.,0.));
#401=DIRECTION('center_axis',(1.,0.,0.));
#402=DIRECTION('ref_axis',(0.,-1.,0.));
#403=DIRECTION('center_axis',(-1.,0.,0.));
#404=DIRECTION('ref_axis',(0.,0.,-1.));
#405=DIRECTION('center_axis',(1.,0.,0.));
#406=DIRECTION('ref_axis',(0.,1.,1.22464679914735E-16));
#407=DIRECTION('center_axis',(-1.,0.,0.));
#408=DIRECTION('ref_axis',(0.,-1.,0.));
#409=DIRECTION('center_axis',(1.,0.,0.));
#410=DIRECTION('ref_axis',(0.,-1.,0.));
#411=DIRECTION('center_axis',(-1.,0.,0.));
#412=DIRECTION('ref_axis',(0.,-1.,0.));
#413=DIRECTION('center_axis',(-1.,0.,0.));
#414=DIRECTION('ref_axis',(0.,-1.,0.));
#415=DIRECTION('center_axis',(1.,0.,0.));
#416=DIRECTION('ref_axis',(0.,1.,0.));
#417=DIRECTION('center_axis',(-1.,0.,0.));
#418=DIRECTION('ref_axis',(0.,1.,0.));
#419=DIRECTION('',(-0.866025403784438,0.500000000000001,-6.12323399573677E-17));
#420=DIRECTION('center_axis',(1.,0.,0.));
#421=DIRECTION('ref_axis',(0.,0.,1.));
#422=DIRECTION('center_axis',(1.,0.,0.));
#423=DIRECTION('ref_axis',(0.,0.,1.));
#424=DIRECTION('center_axis',(1.,0.,0.));
#425=DIRECTION('ref_axis',(0.,0.,-1.));
#426=DIRECTION('center_axis',(1.,0.,0.));
#427=DIRECTION('ref_axis',(0.,-1.,1.83697019872103E-16));
#428=DIRECTION('center_axis',(0.,-1.,-1.22464679914735E-16));
#429=DIRECTION('ref_axis',(0.,-1.22464679914735E-16,1.));
#430=DIRECTION('center_axis',(-1.,0.,0.));
#431=DIRECTION('ref_axis',(0.,-1.,3.06161699786838E-17));
#432=DIRECTION('center_axis',(-1.,0.,0.));
#433=DIRECTION('ref_axis',(0.,-1.,3.06161699786838E-17));
#434=DIRECTION('center_axis',(1.,0.,0.));
#435=DIRECTION('ref_axis',(0.,-1.,1.83697019872103E-16));
#436=DIRECTION('center_axis',(1.,0.,0.));
#437=DIRECTION('ref_axis',(0.,1.,0.));
#438=DIRECTION('',(-1.,0.,0.));
#439=DIRECTION('center_axis',(1.,0.,0.));
#440=DIRECTION('ref_axis',(0.,1.,0.));
#441=DIRECTION('center_axis',(1.,0.,0.));
#442=DIRECTION('ref_axis',(0.,0.,-1.));
#443=DIRECTION('center_axis',(1.,0.,0.));
#444=DIRECTION('ref_axis',(0.,0.,-1.));
#445=DIRECTION('',(-0.212429644331044,0.977176363922801,1.19669590628051E-16));
#446=DIRECTION('center_axis',(-1.,0.,0.));
#447=DIRECTION('ref_axis',(0.,0.,-1.));
#448=DIRECTION('',(0.707106781186549,-8.65956056235492E-17,-0.707106781186547));
#449=DIRECTION('center_axis',(1.,0.,0.));
#450=DIRECTION('ref_axis',(0.,0.,-1.));
#451=DIRECTION('center_axis',(1.,0.,0.));
#452=DIRECTION('ref_axis',(0.,0.,-1.));
#453=DIRECTION('center_axis',(-1.,0.,0.));
#454=DIRECTION('ref_axis',(0.,0.,1.));
#455=DIRECTION('',(1.,0.,0.));
#456=DIRECTION('center_axis',(1.,0.,0.));
#457=DIRECTION('ref_axis',(0.,-1.,0.));
#458=DIRECTION('center_axis',(-1.,0.,0.));
#459=DIRECTION('ref_axis',(0.,-1.,0.));
#460=DIRECTION('center_axis',(-1.,0.,0.));
#461=DIRECTION('ref_axis',(0.,-1.,0.));
#462=DIRECTION('',(-0.707106781186548,-0.707106781186547,-8.65956056235493E-17));
#463=DIRECTION('center_axis',(1.,0.,0.));
#464=DIRECTION('ref_axis',(0.,1.,0.));
#465=DIRECTION('center_axis',(1.,0.,0.));
#466=DIRECTION('ref_axis',(0.,-1.,0.));
#467=DIRECTION('center_axis',(1.,0.,0.));
#468=DIRECTION('ref_axis',(0.,-1.,0.));
#469=DIRECTION('',(-1.,0.,0.));
#470=DIRECTION('center_axis',(-1.,0.,0.));
#471=DIRECTION('ref_axis',(0.,-1.,0.));
#472=DIRECTION('center_axis',(-1.,0.,0.));
#473=DIRECTION('ref_axis',(0.,-1.,0.));
#474=DIRECTION('',(-0.707106781186548,0.707106781186547,8.65956056235493E-17));
#475=DIRECTION('center_axis',(1.,0.,0.));
#476=DIRECTION('ref_axis',(0.,0.,-1.));
#477=CARTESIAN_POINT('',(0.,0.,0.));
#478=CARTESIAN_POINT('Origin',(-22.,-22.1944024167076,11.));
#479=CARTESIAN_POINT('',(-21.7,-5.39096466321194,11.));
#480=CARTESIAN_POINT('',(-22.,-4.66931472488199,11.));
#481=CARTESIAN_POINT('Ctrl Pts',(-21.7,-5.39096466321194,11.));
#482=CARTESIAN_POINT('Ctrl Pts',(-21.8607598891218,-5.02566665723907,11.));
#483=CARTESIAN_POINT('Ctrl Pts',(-22.,-4.66931472488199,11.));
#484=CARTESIAN_POINT('',(-13.,-5.39096466321193,11.));
#485=CARTESIAN_POINT('',(-16.,-5.39096466321194,11.));
#486=CARTESIAN_POINT('',(-13.,5.39096466321193,11.));
#487=CARTESIAN_POINT('',(-13.,21.2547853800879,11.));
#488=CARTESIAN_POINT('',(-21.7,5.39096466321194,11.));
#489=CARTESIAN_POINT('',(-16.,5.39096466321194,11.));
#490=CARTESIAN_POINT('',(-22.,4.66931472488199,11.));
#491=CARTESIAN_POINT('Ctrl Pts',(-22.,4.66931472488199,11.));
#492=CARTESIAN_POINT('Ctrl Pts',(-21.8607598891218,5.02566665723909,11.));
#493=CARTESIAN_POINT('Ctrl Pts',(-21.7,5.39096466321194,11.));
#494=CARTESIAN_POINT('',(-22.,-4.9722012083538,11.));
#495=CARTESIAN_POINT('Origin',(-11.6959941777677,-0.469808518309871,15.8666159819365));
#496=CARTESIAN_POINT('Origin',(-15.9474411167424,0.,0.));
#497=CARTESIAN_POINT('Origin',(-22.,21.2547853800879,-11.));
#498=CARTESIAN_POINT('',(-21.7,5.39096466321194,-11.));
#499=CARTESIAN_POINT('',(-22.,4.66931472488199,-11.));
#500=CARTESIAN_POINT('Ctrl Pts',(-21.7,5.39096466321194,-11.));
#501=CARTESIAN_POINT('Ctrl Pts',(-21.8607598891218,5.02566665723906,-11.));
#502=CARTESIAN_POINT('Ctrl Pts',(-22.,4.66931472488199,-11.));
#503=CARTESIAN_POINT('',(-13.,5.39096466321194,-11.));
#504=CARTESIAN_POINT('',(-16.,5.39096466321194,-11.));
#505=CARTESIAN_POINT('',(-13.,-5.39096466321194,-11.));
#506=CARTESIAN_POINT('',(-13.,-22.1944024167076,-11.));
#507=CARTESIAN_POINT('',(-21.7,-5.39096466321194,-11.));
#508=CARTESIAN_POINT('',(-16.,-5.39096466321194,-11.));
#509=CARTESIAN_POINT('',(-22.,-4.66931472488199,-11.));
#510=CARTESIAN_POINT('Ctrl Pts',(-22.,-4.66931472488199,-11.));
#511=CARTESIAN_POINT('Ctrl Pts',(-21.8607598891218,-5.02566665723906,-11.));
#512=CARTESIAN_POINT('Ctrl Pts',(-21.7,-5.39096466321194,-11.));
#513=CARTESIAN_POINT('',(-22.,16.7523926900439,-11.));
#514=CARTESIAN_POINT('Origin',(-11.2976644249958,-0.469808518309867,-17.3532028574477));
#515=CARTESIAN_POINT('Origin',(-15.9474411167424,0.,0.));
#516=CARTESIAN_POINT('Origin',(-22.,12.25,0.));
#517=CARTESIAN_POINT('Origin',(-22.,0.,0.));
#518=CARTESIAN_POINT('Origin',(-22.,0.,0.));
#519=CARTESIAN_POINT('',(-22.,1.05013463026886E-15,8.575));
#520=CARTESIAN_POINT('Origin',(-22.,0.,0.));
#521=CARTESIAN_POINT('Origin',(-21.85,0.,0.));
#522=CARTESIAN_POINT('Origin',(-21.7,0.,0.));
#523=CARTESIAN_POINT('Origin',(-21.85,0.,0.));
#524=CARTESIAN_POINT('',(-21.7,-12.25,-1.50019232895551E-15));
#525=CARTESIAN_POINT('Origin',(-21.7,0.,0.));
#526=CARTESIAN_POINT('Origin',(-21.7,0.,0.));
#527=CARTESIAN_POINT('Origin',(-2.17689236369077,0.,0.));
#528=CARTESIAN_POINT('',(-2.77555756156289E-16,-9.5,1.16341445918999E-15));
#529=CARTESIAN_POINT('Origin',(0.,0.,0.));
#530=CARTESIAN_POINT('',(-3.50740288532697,-7.475,9.15423482362646E-16));
#531=CARTESIAN_POINT('',(-2.17689236369077,-8.24317060782629,1.00949724997E-15));
#532=CARTESIAN_POINT('',(-3.50740288532697,9.15423482362646E-16,-7.475));
#533=CARTESIAN_POINT('Origin',(-3.50740288532697,0.,0.));
#534=CARTESIAN_POINT('Origin',(-3.50740288532697,0.,0.));
#535=CARTESIAN_POINT('Origin',(-10.4029827085191,0.,0.));
#536=CARTESIAN_POINT('',(-10.4029827085191,-12.25,-1.50019232895551E-15));
#537=CARTESIAN_POINT('',(-10.4029827085191,-1.50019232895551E-15,12.25));
#538=CARTESIAN_POINT('Origin',(-10.4029827085191,0.,0.));
#539=CARTESIAN_POINT('',(-9.91439452655772,-1.54841710471417E-15,12.6437851778345));
#540=CARTESIAN_POINT('Origin',(-10.4029827085191,-1.56142466891287E-15,
12.75));
#541=CARTESIAN_POINT('',(-9.91439452655773,-12.6437851778345,-1.54841710471417E-15));
#542=CARTESIAN_POINT('Origin',(-9.91439452655772,0.,-1.93552138089272E-15));
#543=CARTESIAN_POINT('Origin',(-9.91439452655772,0.,-1.93552138089272E-15));
#544=CARTESIAN_POINT('Origin',(-10.4029827085191,0.,0.));
#545=CARTESIAN_POINT('Origin',(-16.,0.,0.));
#546=CARTESIAN_POINT('',(-16.,-12.25,-1.50019232895551E-15));
#547=CARTESIAN_POINT('Origin',(-9.75,0.,0.));
#548=CARTESIAN_POINT('',(-9.5,14.55,0.));
#549=CARTESIAN_POINT('',(-9.5,-14.55,-1.7818610927594E-15));
#550=CARTESIAN_POINT('Origin',(-9.5,0.,0.));
#551=CARTESIAN_POINT('Origin',(-9.5,0.,0.));
#552=CARTESIAN_POINT('',(-9.75,-13.4,-1.64102671085745E-15));
#553=CARTESIAN_POINT('Origin',(-21.45,0.,0.));
#554=CARTESIAN_POINT('',(-20.9,-9.15423482362646E-16,7.475));
#555=CARTESIAN_POINT('',(-21.45,9.82779056315751E-16,8.025));
#556=CARTESIAN_POINT('',(-20.9,-9.15423482362646E-16,-7.475));
#557=CARTESIAN_POINT('Origin',(-20.9,0.,0.));
#558=CARTESIAN_POINT('Origin',(-20.9,0.,0.));
#559=CARTESIAN_POINT('Origin',(29.7225289404917,0.,0.));
#560=CARTESIAN_POINT('',(29.7225289404917,-9.15423482362646E-16,-7.475));
#561=CARTESIAN_POINT('Origin',(-8.5,0.,0.));
#562=CARTESIAN_POINT('',(-7.5,16.55,-2.02679045258887E-15));
#563=CARTESIAN_POINT('',(-7.5,-16.55,-2.02679045258887E-15));
#564=CARTESIAN_POINT('Origin',(-7.5,0.,0.));
#565=CARTESIAN_POINT('Origin',(-7.5,0.,0.));
#566=CARTESIAN_POINT('',(-8.5,15.55,1.90432577267413E-15));
#567=CARTESIAN_POINT('Origin',(-4.75,0.,0.));
#568=CARTESIAN_POINT('',(-2.,16.55,2.02679045258887E-15));
#569=CARTESIAN_POINT('',(-2.,-16.55,-2.02679045258887E-15));
#570=CARTESIAN_POINT('Origin',(-2.,0.,0.));
#571=CARTESIAN_POINT('Origin',(-2.,0.,0.));
#572=CARTESIAN_POINT('',(-4.75,-16.55,-2.02679045258887E-15));
#573=CARTESIAN_POINT('Origin',(-1.,0.,0.));
#574=CARTESIAN_POINT('',(0.,14.55,-1.7818610927594E-15));
#575=CARTESIAN_POINT('Origin',(0.,0.,0.));
#576=CARTESIAN_POINT('',(-1.,15.55,1.90432577267413E-15));
#577=CARTESIAN_POINT('Origin',(0.,0.,0.));
#578=UNCERTAINTY_MEASURE_WITH_UNIT(LENGTH_MEASURE(0.01),#582,
'DISTANCE_ACCURACY_VALUE',
'Maximum model space distance between geometric entities at asserted c
onnectivities');
#579=UNCERTAINTY_MEASURE_WITH_UNIT(LENGTH_MEASURE(0.01),#582,
'DISTANCE_ACCURACY_VALUE',
'Maximum model space distance between geometric entities at asserted c
onnectivities');
#580=(
GEOMETRIC_REPRESENTATION_CONTEXT(3)
GLOBAL_UNCERTAINTY_ASSIGNED_CONTEXT((#578))
GLOBAL_UNIT_ASSIGNED_CONTEXT((#582,#584,#585))
REPRESENTATION_CONTEXT('','3D')
);
#581=(
GEOMETRIC_REPRESENTATION_CONTEXT(3)
GLOBAL_UNCERTAINTY_ASSIGNED_CONTEXT((#579))
GLOBAL_UNIT_ASSIGNED_CONTEXT((#582,#584,#585))
REPRESENTATION_CONTEXT('','3D')
);
#582=(
LENGTH_UNIT()
NAMED_UNIT(*)
SI_UNIT(.MILLI.,.METRE.)
);
#583=(
LENGTH_UNIT()
NAMED_UNIT(*)
SI_UNIT(.CENTI.,.METRE.)
);
#584=(
NAMED_UNIT(*)
PLANE_ANGLE_UNIT()
SI_UNIT($,.RADIAN.)
);
#585=(
NAMED_UNIT(*)
SI_UNIT($,.STERADIAN.)
SOLID_ANGLE_UNIT()
);
#586=SHAPE_DEFINITION_REPRESENTATION(#587,#588);
#587=PRODUCT_DEFINITION_SHAPE('',$,#590);
#588=SHAPE_REPRESENTATION('',(#332),#580);
#589=PRODUCT_DEFINITION_CONTEXT('part definition',#594,'design');
#590=PRODUCT_DEFINITION('3D_R666-G-DN10-DN25_17113525',
'3D_R666-G-DN10-DN25_17113525',#591,#589);
#591=PRODUCT_DEFINITION_FORMATION('',$,#596);
#592=PRODUCT_RELATED_PRODUCT_CATEGORY('3D_R666-G-DN10-DN25_17113525',
'3D_R666-G-DN10-DN25_17113525',(#596));
#593=APPLICATION_PROTOCOL_DEFINITION('international standard',
'automotive_design',2009,#594);
#594=APPLICATION_CONTEXT(
'Core Data for Automotive Mechanical Design Process');
#595=PRODUCT_CONTEXT('part definition',#594,'mechanical');
#596=PRODUCT('3D_R666-G-DN10-DN25_17113525',
'3D_R666-G-DN10-DN25_17113525',$,(#595));
#597=PRESENTATION_STYLE_ASSIGNMENT((#598));
#598=SURFACE_STYLE_USAGE(.BOTH.,#601);
#599=SURFACE_STYLE_RENDERING_WITH_PROPERTIES($,#605,(#600));
#600=SURFACE_STYLE_TRANSPARENT(0.);
#601=SURFACE_SIDE_STYLE('',(#602,#599));
#602=SURFACE_STYLE_FILL_AREA(#603);
#603=FILL_AREA_STYLE('',(#604));
#604=FILL_AREA_STYLE_COLOUR('',#605);
#605=COLOUR_RGB('',0.749019607843137,0.749019607843137,0.749019607843137);
ENDSEC;
END-ISO-10303-21;
