ISO-10303-21;
HEADER;
/* Generated by software containing ST-Developer
 * from STEP Tools, Inc. (www.steptools.com) 
 */

FILE_DESCRIPTION(
/* description */ (''),
/* implementation_level */ '2;1');

FILE_NAME(
/* name */ 
'C:\\Users\\cad\\Desktop\\Zeichnungen neu von Ralph\\3D_Kupplung_R134-
M\\3D_R134-M-DN8_171011600.stp',
/* time_stamp */ '2021-06-16T13:56:46+02:00',
/* author */ ('cad'),
/* organization */ (''),
/* preprocessor_version */ 'ST-DEVELOPER v18.1',
/* originating_system */ 'Autodesk Inventor 2022',
/* authorisation */ '');

FILE_SCHEMA (('AUTOMOTIVE_DESIGN { 1 0 10303 214 3 1 1 }'));
ENDSEC;

DATA;
#10=MECHANICAL_DESIGN_GEOMETRIC_PRESENTATION_REPRESENTATION('',(#13),#511);
#11=SHAPE_REPRESENTATION_RELATIONSHIP('SRR','None',#518,#12);
#12=ADVANCED_BREP_SHAPE_REPRESENTATION('',(#14),#510);
#13=STYLED_ITEM('',(#527),#14);
#14=MANIFOLD_SOLID_BREP('Volumenk\X\F6rper1',#277);
#15=TOROIDAL_SURFACE('',#318,9.55,0.3);
#16=TOROIDAL_SURFACE('',#323,10.788101,0.4);
#17=(
BOUNDED_CURVE()
B_SPLINE_CURVE(2,(#424,#425,#426),.UNSPECIFIED.,.F.,.F.)
B_SPLINE_CURVE_WITH_KNOTS((3,3),(0.322230285211203,2.01170042805513),
 .UNSPECIFIED.)
CURVE()
GEOMETRIC_REPRESENTATION_ITEM()
RATIONAL_B_SPLINE_CURVE((1.07557743060844,1.24196983819213,1.07557743060844))
REPRESENTATION_ITEM('')
);
#18=(
BOUNDED_CURVE()
B_SPLINE_CURVE(2,(#428,#429,#430),.UNSPECIFIED.,.F.,.F.)
B_SPLINE_CURVE_WITH_KNOTS((3,3),(0.322230285211202,2.01170042805513),
 .UNSPECIFIED.)
CURVE()
GEOMETRIC_REPRESENTATION_ITEM()
RATIONAL_B_SPLINE_CURVE((1.07557743060844,1.24196983819212,1.07557743060844))
REPRESENTATION_ITEM('')
);
#19=(
BOUNDED_CURVE()
B_SPLINE_CURVE(2,(#432,#433,#434),.UNSPECIFIED.,.F.,.F.)
B_SPLINE_CURVE_WITH_KNOTS((3,3),(0.322230285211202,2.01170042805513),
 .UNSPECIFIED.)
CURVE()
GEOMETRIC_REPRESENTATION_ITEM()
RATIONAL_B_SPLINE_CURVE((1.07557743060844,1.24196983819213,1.07557743060844))
REPRESENTATION_ITEM('')
);
#20=(
BOUNDED_CURVE()
B_SPLINE_CURVE(2,(#436,#437,#438),.UNSPECIFIED.,.F.,.F.)
B_SPLINE_CURVE_WITH_KNOTS((3,3),(0.322230285211203,2.01170042805513),
 .UNSPECIFIED.)
CURVE()
GEOMETRIC_REPRESENTATION_ITEM()
RATIONAL_B_SPLINE_CURVE((1.07557743060844,1.24196983819213,1.07557743060844))
REPRESENTATION_ITEM('')
);
#21=(
BOUNDED_CURVE()
B_SPLINE_CURVE(2,(#440,#441,#442),.UNSPECIFIED.,.F.,.F.)
B_SPLINE_CURVE_WITH_KNOTS((3,3),(0.322230285211203,2.01170042805513),
 .UNSPECIFIED.)
CURVE()
GEOMETRIC_REPRESENTATION_ITEM()
RATIONAL_B_SPLINE_CURVE((1.07557743060844,1.24196983819213,1.07557743060844))
REPRESENTATION_ITEM('')
);
#22=(
BOUNDED_CURVE()
B_SPLINE_CURVE(2,(#443,#444,#445),.UNSPECIFIED.,.F.,.F.)
B_SPLINE_CURVE_WITH_KNOTS((3,3),(0.322230285211203,2.01170042805513),
 .UNSPECIFIED.)
CURVE()
GEOMETRIC_REPRESENTATION_ITEM()
RATIONAL_B_SPLINE_CURVE((1.07557743060844,1.24196983819213,1.07557743060844))
REPRESENTATION_ITEM('')
);
#23=(
BOUNDED_CURVE()
B_SPLINE_CURVE(2,(#449,#450,#451),.UNSPECIFIED.,.F.,.F.)
B_SPLINE_CURVE_WITH_KNOTS((3,3),(0.322230285211203,2.01170042805513),
 .UNSPECIFIED.)
CURVE()
GEOMETRIC_REPRESENTATION_ITEM()
RATIONAL_B_SPLINE_CURVE((1.07557743060844,1.24196983819213,1.07557743060844))
REPRESENTATION_ITEM('')
);
#24=(
BOUNDED_CURVE()
B_SPLINE_CURVE(2,(#453,#454,#455),.UNSPECIFIED.,.F.,.F.)
B_SPLINE_CURVE_WITH_KNOTS((3,3),(0.322230285211201,2.01170042805513),
 .UNSPECIFIED.)
CURVE()
GEOMETRIC_REPRESENTATION_ITEM()
RATIONAL_B_SPLINE_CURVE((1.07557743060844,1.24196983819213,1.07557743060844))
REPRESENTATION_ITEM('')
);
#25=(
BOUNDED_CURVE()
B_SPLINE_CURVE(2,(#457,#458,#459),.UNSPECIFIED.,.F.,.F.)
B_SPLINE_CURVE_WITH_KNOTS((3,3),(0.322230285211201,2.01170042805513),
 .UNSPECIFIED.)
CURVE()
GEOMETRIC_REPRESENTATION_ITEM()
RATIONAL_B_SPLINE_CURVE((1.07557743060844,1.24196983819213,1.07557743060844))
REPRESENTATION_ITEM('')
);
#26=(
BOUNDED_CURVE()
B_SPLINE_CURVE(2,(#461,#462,#463),.UNSPECIFIED.,.F.,.F.)
B_SPLINE_CURVE_WITH_KNOTS((3,3),(0.322230285211201,2.01170042805513),
 .UNSPECIFIED.)
CURVE()
GEOMETRIC_REPRESENTATION_ITEM()
RATIONAL_B_SPLINE_CURVE((1.07557743060844,1.24196983819213,1.07557743060844))
REPRESENTATION_ITEM('')
);
#27=(
BOUNDED_CURVE()
B_SPLINE_CURVE(2,(#465,#466,#467),.UNSPECIFIED.,.F.,.F.)
B_SPLINE_CURVE_WITH_KNOTS((3,3),(0.322230285211201,2.01170042805513),
 .UNSPECIFIED.)
CURVE()
GEOMETRIC_REPRESENTATION_ITEM()
RATIONAL_B_SPLINE_CURVE((1.07557743060844,1.24196983819213,1.07557743060844))
REPRESENTATION_ITEM('')
);
#28=(
BOUNDED_CURVE()
B_SPLINE_CURVE(2,(#468,#469,#470),.UNSPECIFIED.,.F.,.F.)
B_SPLINE_CURVE_WITH_KNOTS((3,3),(0.322230285211202,2.01170042805513),
 .UNSPECIFIED.)
CURVE()
GEOMETRIC_REPRESENTATION_ITEM()
RATIONAL_B_SPLINE_CURVE((1.07557743060844,1.24196983819213,1.07557743060844))
REPRESENTATION_ITEM('')
);
#29=FACE_BOUND('',#63,.T.);
#30=FACE_BOUND('',#72,.T.);
#31=FACE_BOUND('',#75,.T.);
#32=PLANE('',#303);
#33=PLANE('',#308);
#34=PLANE('',#309);
#35=PLANE('',#310);
#36=PLANE('',#317);
#37=PLANE('',#321);
#38=PLANE('',#325);
#39=PLANE('',#326);
#40=PLANE('',#327);
#41=CYLINDRICAL_SURFACE('',#301,11.188101);
#42=CYLINDRICAL_SURFACE('',#315,9.25);
#43=FACE_OUTER_BOUND('',#60,.T.);
#44=FACE_OUTER_BOUND('',#61,.T.);
#45=FACE_OUTER_BOUND('',#62,.T.);
#46=FACE_OUTER_BOUND('',#64,.T.);
#47=FACE_OUTER_BOUND('',#65,.T.);
#48=FACE_OUTER_BOUND('',#66,.T.);
#49=FACE_OUTER_BOUND('',#67,.T.);
#50=FACE_OUTER_BOUND('',#68,.T.);
#51=FACE_OUTER_BOUND('',#69,.T.);
#52=FACE_OUTER_BOUND('',#70,.T.);
#53=FACE_OUTER_BOUND('',#71,.T.);
#54=FACE_OUTER_BOUND('',#73,.T.);
#55=FACE_OUTER_BOUND('',#74,.T.);
#56=FACE_OUTER_BOUND('',#76,.T.);
#57=FACE_OUTER_BOUND('',#77,.T.);
#58=FACE_OUTER_BOUND('',#78,.T.);
#59=FACE_OUTER_BOUND('',#79,.T.);
#60=EDGE_LOOP('',(#180,#181,#182,#183,#184));
#61=EDGE_LOOP('',(#185,#186,#187,#188,#189));
#62=EDGE_LOOP('',(#190));
#63=EDGE_LOOP('',(#191));
#64=EDGE_LOOP('',(#192,#193,#194,#195,#196,#197,#198,#199,#200));
#65=EDGE_LOOP('',(#201,#202,#203,#204,#205,#206,#207,#208,#209));
#66=EDGE_LOOP('',(#210,#211,#212,#213));
#67=EDGE_LOOP('',(#214,#215,#216,#217));
#68=EDGE_LOOP('',(#218,#219,#220,#221));
#69=EDGE_LOOP('',(#222,#223,#224,#225,#226));
#70=EDGE_LOOP('',(#227,#228,#229,#230,#231));
#71=EDGE_LOOP('',(#232));
#72=EDGE_LOOP('',(#233));
#73=EDGE_LOOP('',(#234,#235,#236,#237));
#74=EDGE_LOOP('',(#238));
#75=EDGE_LOOP('',(#239));
#76=EDGE_LOOP('',(#240,#241,#242,#243));
#77=EDGE_LOOP('',(#244,#245,#246,#247));
#78=EDGE_LOOP('',(#248,#249,#250,#251));
#79=EDGE_LOOP('',(#252,#253,#254,#255));
#80=LINE('',#409,#92);
#81=LINE('',#415,#93);
#82=LINE('',#422,#94);
#83=LINE('',#472,#95);
#84=LINE('',#475,#96);
#85=LINE('',#476,#97);
#86=LINE('',#478,#98);
#87=LINE('',#480,#99);
#88=LINE('',#485,#100);
#89=LINE('',#491,#101);
#90=LINE('',#504,#102);
#91=LINE('',#506,#103);
#92=VECTOR('',#334,11.788101);
#93=VECTOR('',#341,11.188101);
#94=VECTOR('',#350,15.5184440644038);
#95=VECTOR('',#353,15.5184440644038);
#96=VECTOR('',#358,10.);
#97=VECTOR('',#359,10.);
#98=VECTOR('',#362,10.);
#99=VECTOR('',#365,10.);
#100=VECTOR('',#370,9.5);
#101=VECTOR('',#377,9.25);
#102=VECTOR('',#398,10.);
#103=VECTOR('',#401,10.);
#104=CIRCLE('',#298,12.388101);
#105=CIRCLE('',#299,11.188101);
#106=CIRCLE('',#300,11.188101);
#107=CIRCLE('',#302,11.188101);
#108=CIRCLE('',#304,13.25);
#109=CIRCLE('',#307,13.25);
#110=CIRCLE('',#312,9.75);
#111=CIRCLE('',#313,9.25);
#112=CIRCLE('',#314,9.25);
#113=CIRCLE('',#316,9.25);
#114=CIRCLE('',#319,9.55);
#115=CIRCLE('',#320,0.3);
#116=CIRCLE('',#322,10.788101);
#117=CIRCLE('',#324,0.4);
#118=VERTEX_POINT('',#406);
#119=VERTEX_POINT('',#408);
#120=VERTEX_POINT('',#410);
#121=VERTEX_POINT('',#414);
#122=VERTEX_POINT('',#418);
#123=VERTEX_POINT('',#421);
#124=VERTEX_POINT('',#423);
#125=VERTEX_POINT('',#427);
#126=VERTEX_POINT('',#431);
#127=VERTEX_POINT('',#435);
#128=VERTEX_POINT('',#439);
#129=VERTEX_POINT('',#447);
#130=VERTEX_POINT('',#448);
#131=VERTEX_POINT('',#452);
#132=VERTEX_POINT('',#456);
#133=VERTEX_POINT('',#460);
#134=VERTEX_POINT('',#464);
#135=VERTEX_POINT('',#471);
#136=VERTEX_POINT('',#482);
#137=VERTEX_POINT('',#484);
#138=VERTEX_POINT('',#486);
#139=VERTEX_POINT('',#490);
#140=VERTEX_POINT('',#495);
#141=VERTEX_POINT('',#499);
#142=EDGE_CURVE('',#118,#118,#104,.T.);
#143=EDGE_CURVE('',#118,#119,#80,.T.);
#144=EDGE_CURVE('',#119,#120,#105,.T.);
#145=EDGE_CURVE('',#120,#119,#106,.T.);
#146=EDGE_CURVE('',#120,#121,#81,.T.);
#147=EDGE_CURVE('',#121,#121,#107,.T.);
#148=EDGE_CURVE('',#122,#122,#108,.T.);
#149=EDGE_CURVE('',#122,#123,#82,.T.);
#150=EDGE_CURVE('',#124,#123,#17,.T.);
#151=EDGE_CURVE('',#125,#124,#18,.T.);
#152=EDGE_CURVE('',#126,#125,#19,.T.);
#153=EDGE_CURVE('',#127,#126,#20,.T.);
#154=EDGE_CURVE('',#128,#127,#21,.T.);
#155=EDGE_CURVE('',#123,#128,#22,.T.);
#156=EDGE_CURVE('',#129,#130,#23,.T.);
#157=EDGE_CURVE('',#131,#129,#24,.T.);
#158=EDGE_CURVE('',#132,#131,#25,.T.);
#159=EDGE_CURVE('',#133,#132,#26,.T.);
#160=EDGE_CURVE('',#134,#133,#27,.T.);
#161=EDGE_CURVE('',#130,#134,#28,.T.);
#162=EDGE_CURVE('',#130,#135,#83,.T.);
#163=EDGE_CURVE('',#135,#135,#109,.T.);
#164=EDGE_CURVE('',#125,#133,#84,.T.);
#165=EDGE_CURVE('',#126,#132,#85,.T.);
#166=EDGE_CURVE('',#124,#134,#86,.T.);
#167=EDGE_CURVE('',#123,#130,#87,.T.);
#168=EDGE_CURVE('',#136,#136,#110,.T.);
#169=EDGE_CURVE('',#136,#137,#88,.T.);
#170=EDGE_CURVE('',#137,#138,#111,.T.);
#171=EDGE_CURVE('',#138,#137,#112,.T.);
#172=EDGE_CURVE('',#138,#139,#89,.T.);
#173=EDGE_CURVE('',#139,#139,#113,.T.);
#174=EDGE_CURVE('',#140,#140,#114,.T.);
#175=EDGE_CURVE('',#140,#139,#115,.T.);
#176=EDGE_CURVE('',#141,#141,#116,.T.);
#177=EDGE_CURVE('',#121,#141,#117,.T.);
#178=EDGE_CURVE('',#128,#129,#90,.T.);
#179=EDGE_CURVE('',#127,#131,#91,.T.);
#180=ORIENTED_EDGE('',*,*,#142,.T.);
#181=ORIENTED_EDGE('',*,*,#143,.T.);
#182=ORIENTED_EDGE('',*,*,#144,.T.);
#183=ORIENTED_EDGE('',*,*,#145,.T.);
#184=ORIENTED_EDGE('',*,*,#143,.F.);
#185=ORIENTED_EDGE('',*,*,#144,.F.);
#186=ORIENTED_EDGE('',*,*,#145,.F.);
#187=ORIENTED_EDGE('',*,*,#146,.T.);
#188=ORIENTED_EDGE('',*,*,#147,.F.);
#189=ORIENTED_EDGE('',*,*,#146,.F.);
#190=ORIENTED_EDGE('',*,*,#148,.T.);
#191=ORIENTED_EDGE('',*,*,#142,.F.);
#192=ORIENTED_EDGE('',*,*,#148,.F.);
#193=ORIENTED_EDGE('',*,*,#149,.T.);
#194=ORIENTED_EDGE('',*,*,#150,.F.);
#195=ORIENTED_EDGE('',*,*,#151,.F.);
#196=ORIENTED_EDGE('',*,*,#152,.F.);
#197=ORIENTED_EDGE('',*,*,#153,.F.);
#198=ORIENTED_EDGE('',*,*,#154,.F.);
#199=ORIENTED_EDGE('',*,*,#155,.F.);
#200=ORIENTED_EDGE('',*,*,#149,.F.);
#201=ORIENTED_EDGE('',*,*,#156,.F.);
#202=ORIENTED_EDGE('',*,*,#157,.F.);
#203=ORIENTED_EDGE('',*,*,#158,.F.);
#204=ORIENTED_EDGE('',*,*,#159,.F.);
#205=ORIENTED_EDGE('',*,*,#160,.F.);
#206=ORIENTED_EDGE('',*,*,#161,.F.);
#207=ORIENTED_EDGE('',*,*,#162,.T.);
#208=ORIENTED_EDGE('',*,*,#163,.F.);
#209=ORIENTED_EDGE('',*,*,#162,.F.);
#210=ORIENTED_EDGE('',*,*,#152,.T.);
#211=ORIENTED_EDGE('',*,*,#164,.T.);
#212=ORIENTED_EDGE('',*,*,#159,.T.);
#213=ORIENTED_EDGE('',*,*,#165,.F.);
#214=ORIENTED_EDGE('',*,*,#151,.T.);
#215=ORIENTED_EDGE('',*,*,#166,.T.);
#216=ORIENTED_EDGE('',*,*,#160,.T.);
#217=ORIENTED_EDGE('',*,*,#164,.F.);
#218=ORIENTED_EDGE('',*,*,#150,.T.);
#219=ORIENTED_EDGE('',*,*,#167,.T.);
#220=ORIENTED_EDGE('',*,*,#161,.T.);
#221=ORIENTED_EDGE('',*,*,#166,.F.);
#222=ORIENTED_EDGE('',*,*,#168,.T.);
#223=ORIENTED_EDGE('',*,*,#169,.T.);
#224=ORIENTED_EDGE('',*,*,#170,.T.);
#225=ORIENTED_EDGE('',*,*,#171,.T.);
#226=ORIENTED_EDGE('',*,*,#169,.F.);
#227=ORIENTED_EDGE('',*,*,#170,.F.);
#228=ORIENTED_EDGE('',*,*,#171,.F.);
#229=ORIENTED_EDGE('',*,*,#172,.T.);
#230=ORIENTED_EDGE('',*,*,#173,.F.);
#231=ORIENTED_EDGE('',*,*,#172,.F.);
#232=ORIENTED_EDGE('',*,*,#163,.T.);
#233=ORIENTED_EDGE('',*,*,#168,.F.);
#234=ORIENTED_EDGE('',*,*,#174,.T.);
#235=ORIENTED_EDGE('',*,*,#175,.T.);
#236=ORIENTED_EDGE('',*,*,#173,.T.);
#237=ORIENTED_EDGE('',*,*,#175,.F.);
#238=ORIENTED_EDGE('',*,*,#176,.F.);
#239=ORIENTED_EDGE('',*,*,#174,.F.);
#240=ORIENTED_EDGE('',*,*,#147,.T.);
#241=ORIENTED_EDGE('',*,*,#177,.T.);
#242=ORIENTED_EDGE('',*,*,#176,.T.);
#243=ORIENTED_EDGE('',*,*,#177,.F.);
#244=ORIENTED_EDGE('',*,*,#155,.T.);
#245=ORIENTED_EDGE('',*,*,#178,.T.);
#246=ORIENTED_EDGE('',*,*,#156,.T.);
#247=ORIENTED_EDGE('',*,*,#167,.F.);
#248=ORIENTED_EDGE('',*,*,#153,.T.);
#249=ORIENTED_EDGE('',*,*,#165,.T.);
#250=ORIENTED_EDGE('',*,*,#158,.T.);
#251=ORIENTED_EDGE('',*,*,#179,.F.);
#252=ORIENTED_EDGE('',*,*,#154,.T.);
#253=ORIENTED_EDGE('',*,*,#179,.T.);
#254=ORIENTED_EDGE('',*,*,#157,.T.);
#255=ORIENTED_EDGE('',*,*,#178,.F.);
#256=CONICAL_SURFACE('',#297,11.788101,0.785398163397448);
#257=CONICAL_SURFACE('',#305,15.5184440644038,1.24791041517595);
#258=CONICAL_SURFACE('',#306,15.5184440644038,1.24791041517595);
#259=CONICAL_SURFACE('',#311,9.5,0.785398163397448);
#260=ADVANCED_FACE('',(#43),#256,.F.);
#261=ADVANCED_FACE('',(#44),#41,.F.);
#262=ADVANCED_FACE('',(#45,#29),#32,.T.);
#263=ADVANCED_FACE('',(#46),#257,.T.);
#264=ADVANCED_FACE('',(#47),#258,.T.);
#265=ADVANCED_FACE('',(#48),#33,.T.);
#266=ADVANCED_FACE('',(#49),#34,.T.);
#267=ADVANCED_FACE('',(#50),#35,.T.);
#268=ADVANCED_FACE('',(#51),#259,.F.);
#269=ADVANCED_FACE('',(#52),#42,.F.);
#270=ADVANCED_FACE('',(#53,#30),#36,.T.);
#271=ADVANCED_FACE('',(#54),#15,.T.);
#272=ADVANCED_FACE('',(#55,#31),#37,.T.);
#273=ADVANCED_FACE('',(#56),#16,.F.);
#274=ADVANCED_FACE('',(#57),#38,.T.);
#275=ADVANCED_FACE('',(#58),#39,.T.);
#276=ADVANCED_FACE('',(#59),#40,.T.);
#277=CLOSED_SHELL('',(#260,#261,#262,#263,#264,#265,#266,#267,#268,#269,
#270,#271,#272,#273,#274,#275,#276));
#278=DERIVED_UNIT_ELEMENT(#280,1.);
#279=DERIVED_UNIT_ELEMENT(#513,-3.);
#280=(
MASS_UNIT()
NAMED_UNIT(*)
SI_UNIT($,.GRAM.)
);
#281=DERIVED_UNIT((#278,#279));
#282=MEASURE_REPRESENTATION_ITEM('density measure',
POSITIVE_RATIO_MEASURE(1.),#281);
#283=PROPERTY_DEFINITION_REPRESENTATION(#288,#285);
#284=PROPERTY_DEFINITION_REPRESENTATION(#289,#286);
#285=REPRESENTATION('material name',(#287),#510);
#286=REPRESENTATION('density',(#282),#510);
#287=DESCRIPTIVE_REPRESENTATION_ITEM('Generisch','Generisch');
#288=PROPERTY_DEFINITION('material property','material name',#520);
#289=PROPERTY_DEFINITION('material property','density of part',#520);
#290=DATE_TIME_ROLE('creation_date');
#291=APPLIED_DATE_AND_TIME_ASSIGNMENT(#292,#290,(#520));
#292=DATE_AND_TIME(#293,#294);
#293=CALENDAR_DATE(2021,16,6);
#294=LOCAL_TIME(0,0,0.,#295);
#295=COORDINATED_UNIVERSAL_TIME_OFFSET(0,0,.BEHIND.);
#296=AXIS2_PLACEMENT_3D('placement',#404,#328,#329);
#297=AXIS2_PLACEMENT_3D('',#405,#330,#331);
#298=AXIS2_PLACEMENT_3D('',#407,#332,#333);
#299=AXIS2_PLACEMENT_3D('',#411,#335,#336);
#300=AXIS2_PLACEMENT_3D('',#412,#337,#338);
#301=AXIS2_PLACEMENT_3D('',#413,#339,#340);
#302=AXIS2_PLACEMENT_3D('',#416,#342,#343);
#303=AXIS2_PLACEMENT_3D('',#417,#344,#345);
#304=AXIS2_PLACEMENT_3D('',#419,#346,#347);
#305=AXIS2_PLACEMENT_3D('',#420,#348,#349);
#306=AXIS2_PLACEMENT_3D('',#446,#351,#352);
#307=AXIS2_PLACEMENT_3D('',#473,#354,#355);
#308=AXIS2_PLACEMENT_3D('',#474,#356,#357);
#309=AXIS2_PLACEMENT_3D('',#477,#360,#361);
#310=AXIS2_PLACEMENT_3D('',#479,#363,#364);
#311=AXIS2_PLACEMENT_3D('',#481,#366,#367);
#312=AXIS2_PLACEMENT_3D('',#483,#368,#369);
#313=AXIS2_PLACEMENT_3D('',#487,#371,#372);
#314=AXIS2_PLACEMENT_3D('',#488,#373,#374);
#315=AXIS2_PLACEMENT_3D('',#489,#375,#376);
#316=AXIS2_PLACEMENT_3D('',#492,#378,#379);
#317=AXIS2_PLACEMENT_3D('',#493,#380,#381);
#318=AXIS2_PLACEMENT_3D('',#494,#382,#383);
#319=AXIS2_PLACEMENT_3D('',#496,#384,#385);
#320=AXIS2_PLACEMENT_3D('',#497,#386,#387);
#321=AXIS2_PLACEMENT_3D('',#498,#388,#389);
#322=AXIS2_PLACEMENT_3D('',#500,#390,#391);
#323=AXIS2_PLACEMENT_3D('',#501,#392,#393);
#324=AXIS2_PLACEMENT_3D('',#502,#394,#395);
#325=AXIS2_PLACEMENT_3D('',#503,#396,#397);
#326=AXIS2_PLACEMENT_3D('',#505,#399,#400);
#327=AXIS2_PLACEMENT_3D('',#507,#402,#403);
#328=DIRECTION('axis',(0.,0.,1.));
#329=DIRECTION('refdir',(1.,0.,0.));
#330=DIRECTION('center_axis',(1.,0.,0.));
#331=DIRECTION('ref_axis',(0.,0.,1.));
#332=DIRECTION('center_axis',(1.,0.,0.));
#333=DIRECTION('ref_axis',(0.,0.,1.));
#334=DIRECTION('',(-0.707106781186548,-8.65956056235493E-17,0.707106781186547));
#335=DIRECTION('center_axis',(-1.,0.,0.));
#336=DIRECTION('ref_axis',(0.,0.,1.));
#337=DIRECTION('center_axis',(-1.,0.,0.));
#338=DIRECTION('ref_axis',(0.,0.,1.));
#339=DIRECTION('center_axis',(1.,0.,0.));
#340=DIRECTION('ref_axis',(0.,0.,-1.));
#341=DIRECTION('',(-1.,0.,0.));
#342=DIRECTION('center_axis',(1.,0.,0.));
#343=DIRECTION('ref_axis',(0.,1.22464679914735E-16,1.));
#344=DIRECTION('center_axis',(1.,0.,0.));
#345=DIRECTION('ref_axis',(0.,0.,-1.));
#346=DIRECTION('center_axis',(1.,0.,0.));
#347=DIRECTION('ref_axis',(0.,1.,0.));
#348=DIRECTION('center_axis',(-1.,0.,0.));
#349=DIRECTION('ref_axis',(0.,1.,0.));
#350=DIRECTION('',(-0.317304656405092,-0.948323655206199,1.16136152890399E-16));
#351=DIRECTION('center_axis',(1.,0.,0.));
#352=DIRECTION('ref_axis',(0.,1.,0.));
#353=DIRECTION('',(-0.317304656405092,0.948323655206199,-1.16136152890399E-16));
#354=DIRECTION('center_axis',(-1.,0.,0.));
#355=DIRECTION('ref_axis',(0.,1.,0.));
#356=DIRECTION('center_axis',(0.,0.866025403784439,-0.5));
#357=DIRECTION('ref_axis',(0.,-0.5,-0.866025403784439));
#358=DIRECTION('',(-1.,0.,0.));
#359=DIRECTION('',(-1.,0.,0.));
#360=DIRECTION('center_axis',(0.,0.,-1.));
#361=DIRECTION('ref_axis',(0.,-1.,0.));
#362=DIRECTION('',(-1.,0.,0.));
#363=DIRECTION('center_axis',(0.,-0.866025403784439,-0.5));
#364=DIRECTION('ref_axis',(0.,-0.5,0.866025403784439));
#365=DIRECTION('',(-1.,0.,0.));
#366=DIRECTION('center_axis',(-1.,0.,0.));
#367=DIRECTION('ref_axis',(0.,0.,-1.));
#368=DIRECTION('center_axis',(-1.,0.,0.));
#369=DIRECTION('ref_axis',(0.,0.,-1.));
#370=DIRECTION('',(0.707106781186548,-8.65956056235493E-17,-0.707106781186548));
#371=DIRECTION('center_axis',(1.,0.,0.));
#372=DIRECTION('ref_axis',(0.,0.,-1.));
#373=DIRECTION('center_axis',(1.,0.,0.));
#374=DIRECTION('ref_axis',(0.,0.,-1.));
#375=DIRECTION('center_axis',(-1.,0.,0.));
#376=DIRECTION('ref_axis',(0.,0.,1.));
#377=DIRECTION('',(1.,0.,0.));
#378=DIRECTION('center_axis',(-1.,0.,0.));
#379=DIRECTION('ref_axis',(0.,0.,1.));
#380=DIRECTION('center_axis',(-1.,0.,0.));
#381=DIRECTION('ref_axis',(0.,0.,1.));
#382=DIRECTION('center_axis',(-1.,0.,0.));
#383=DIRECTION('ref_axis',(0.,0.,1.));
#384=DIRECTION('center_axis',(1.,0.,0.));
#385=DIRECTION('ref_axis',(0.,0.,1.));
#386=DIRECTION('center_axis',(0.,-1.,1.22464679914735E-16));
#387=DIRECTION('ref_axis',(0.,-1.22464679914735E-16,-1.));
#388=DIRECTION('center_axis',(1.,0.,0.));
#389=DIRECTION('ref_axis',(0.,0.,-1.));
#390=DIRECTION('center_axis',(-1.,0.,0.));
#391=DIRECTION('ref_axis',(0.,1.22464679914735E-16,1.));
#392=DIRECTION('center_axis',(1.,0.,0.));
#393=DIRECTION('ref_axis',(0.,0.,-1.));
#394=DIRECTION('center_axis',(0.,-1.,-1.22464679914735E-16));
#395=DIRECTION('ref_axis',(0.,-1.22464679914735E-16,1.));
#396=DIRECTION('center_axis',(0.,-0.866025403784439,0.5));
#397=DIRECTION('ref_axis',(0.,0.5,0.866025403784439));
#398=DIRECTION('',(-1.,0.,0.));
#399=DIRECTION('center_axis',(0.,0.866025403784438,0.5));
#400=DIRECTION('ref_axis',(0.,0.5,-0.866025403784438));
#401=DIRECTION('',(-1.,0.,0.));
#402=DIRECTION('center_axis',(0.,-7.12208402364283E-16,1.));
#403=DIRECTION('ref_axis',(0.,1.,7.12208402364283E-16));
#404=CARTESIAN_POINT('',(0.,0.,0.));
#405=CARTESIAN_POINT('Origin',(-0.6,0.,0.));
#406=CARTESIAN_POINT('',(0.,1.51710482371641E-15,-12.388101));
#407=CARTESIAN_POINT('Origin',(0.,0.,0.));
#408=CARTESIAN_POINT('',(-1.2,-1.37014720781873E-15,-11.188101));
#409=CARTESIAN_POINT('',(-0.6,1.44362601576757E-15,-11.788101));
#410=CARTESIAN_POINT('',(-1.2,-1.37014720781873E-15,11.188101));
#411=CARTESIAN_POINT('Origin',(-1.2,0.,0.));
#412=CARTESIAN_POINT('Origin',(-1.2,0.,0.));
#413=CARTESIAN_POINT('Origin',(-6.,0.,0.));
#414=CARTESIAN_POINT('',(-11.6,-1.37014720781873E-15,11.188101));
#415=CARTESIAN_POINT('',(-6.,-1.37014720781873E-15,11.188101));
#416=CARTESIAN_POINT('Origin',(-11.6,0.,0.));
#417=CARTESIAN_POINT('Origin',(0.,3.33066907387547E-15,2.22044604925031E-15));
#418=CARTESIAN_POINT('',(5.55111512312578E-16,-13.25,1.62265700887024E-15));
#419=CARTESIAN_POINT('Origin',(0.,0.,0.));
#420=CARTESIAN_POINT('Origin',(-0.75901076650178,0.,0.));
#421=CARTESIAN_POINT('',(-0.782436856768522,-15.5884572681199,-1.08454273546203E-15));
#422=CARTESIAN_POINT('',(-0.75901076650178,-15.5184440644038,1.90046128512194E-15));
#423=CARTESIAN_POINT('',(-0.782436856768523,-7.79422863405994,-13.5));
#424=CARTESIAN_POINT('Ctrl Pts',(-0.782436856768523,-7.79422863405995,-13.5));
#425=CARTESIAN_POINT('Ctrl Pts',(0.52151935327412,-11.69134295109,-6.74999999999992));
#426=CARTESIAN_POINT('Ctrl Pts',(-0.782436856768522,-15.5884572681199,-1.08454273546203E-15));
#427=CARTESIAN_POINT('',(-0.782436856768524,7.79422863405995,-13.5));
#428=CARTESIAN_POINT('Ctrl Pts',(-0.782436856768524,7.79422863405995,-13.5));
#429=CARTESIAN_POINT('Ctrl Pts',(0.521519353274117,-8.88178419700125E-14,
-13.5));
#430=CARTESIAN_POINT('Ctrl Pts',(-0.782436856768523,-7.79422863405994,-13.5));
#431=CARTESIAN_POINT('',(-0.782436856768524,15.5884572681199,-2.76244546481195E-15));
#432=CARTESIAN_POINT('Ctrl Pts',(-0.782436856768524,15.5884572681199,-2.76244546481195E-15));
#433=CARTESIAN_POINT('Ctrl Pts',(0.521519353274117,11.6913429510899,-6.75000000000008));
#434=CARTESIAN_POINT('Ctrl Pts',(-0.782436856768524,7.79422863405995,-13.5));
#435=CARTESIAN_POINT('',(-0.782436856768523,7.79422863405994,13.5));
#436=CARTESIAN_POINT('Ctrl Pts',(-0.782436856768523,7.79422863405994,13.5));
#437=CARTESIAN_POINT('Ctrl Pts',(0.52151935327412,11.69134295109,6.74999999999993));
#438=CARTESIAN_POINT('Ctrl Pts',(-0.782436856768524,15.5884572681199,-2.76244546481195E-15));
#439=CARTESIAN_POINT('',(-0.782436856768522,-7.79422863405995,13.5));
#440=CARTESIAN_POINT('Ctrl Pts',(-0.782436856768522,-7.79422863405995,13.5));
#441=CARTESIAN_POINT('Ctrl Pts',(0.521519353274121,7.66053886991358E-14,
13.5));
#442=CARTESIAN_POINT('Ctrl Pts',(-0.782436856768523,7.79422863405994,13.5));
#443=CARTESIAN_POINT('Ctrl Pts',(-0.782436856768522,-15.5884572681199,-1.08454273546203E-15));
#444=CARTESIAN_POINT('Ctrl Pts',(0.52151935327412,-11.6913429510899,6.75000000000008));
#445=CARTESIAN_POINT('Ctrl Pts',(-0.782436856768522,-7.79422863405995,13.5));
#446=CARTESIAN_POINT('Origin',(-13.7409892334982,0.,0.));
#447=CARTESIAN_POINT('',(-13.7175631432315,-7.79422863405995,13.5));
#448=CARTESIAN_POINT('',(-13.7175631432315,-15.5884572681199,-1.08454273546203E-15));
#449=CARTESIAN_POINT('Ctrl Pts',(-13.7175631432315,-7.79422863405995,13.5));
#450=CARTESIAN_POINT('Ctrl Pts',(-15.0215193532741,-11.69134295109,6.74999999999992));
#451=CARTESIAN_POINT('Ctrl Pts',(-13.7175631432315,-15.5884572681199,-1.08454273546203E-15));
#452=CARTESIAN_POINT('',(-13.7175631432315,7.79422863405994,13.5));
#453=CARTESIAN_POINT('Ctrl Pts',(-13.7175631432315,7.79422863405994,13.5));
#454=CARTESIAN_POINT('Ctrl Pts',(-15.0215193532741,-9.88098491916389E-14,
13.5));
#455=CARTESIAN_POINT('Ctrl Pts',(-13.7175631432315,-7.79422863405995,13.5));
#456=CARTESIAN_POINT('',(-13.7175631432315,15.5884572681199,-2.76244546481195E-15));
#457=CARTESIAN_POINT('Ctrl Pts',(-13.7175631432315,15.5884572681199,-2.76244546481195E-15));
#458=CARTESIAN_POINT('Ctrl Pts',(-15.0215193532741,11.6913429510899,6.75000000000008));
#459=CARTESIAN_POINT('Ctrl Pts',(-13.7175631432315,7.79422863405994,13.5));
#460=CARTESIAN_POINT('',(-13.7175631432315,7.79422863405995,-13.5));
#461=CARTESIAN_POINT('Ctrl Pts',(-13.7175631432315,7.79422863405995,-13.5));
#462=CARTESIAN_POINT('Ctrl Pts',(-15.0215193532741,11.69134295109,-6.74999999999992));
#463=CARTESIAN_POINT('Ctrl Pts',(-13.7175631432315,15.5884572681199,-2.76244546481195E-15));
#464=CARTESIAN_POINT('',(-13.7175631432315,-7.79422863405995,-13.5));
#465=CARTESIAN_POINT('Ctrl Pts',(-13.7175631432315,-7.79422863405995,-13.5));
#466=CARTESIAN_POINT('Ctrl Pts',(-15.0215193532741,9.10382880192628E-14,
-13.5));
#467=CARTESIAN_POINT('Ctrl Pts',(-13.7175631432315,7.79422863405995,-13.5));
#468=CARTESIAN_POINT('Ctrl Pts',(-13.7175631432315,-15.5884572681199,-1.08454273546203E-15));
#469=CARTESIAN_POINT('Ctrl Pts',(-15.0215193532741,-11.6913429510899,-6.75000000000008));
#470=CARTESIAN_POINT('Ctrl Pts',(-13.7175631432315,-7.79422863405994,-13.5));
#471=CARTESIAN_POINT('',(-14.5,-13.25,1.62265700887024E-15));
#472=CARTESIAN_POINT('',(-13.7409892334982,-15.5184440644038,1.90046128512194E-15));
#473=CARTESIAN_POINT('Origin',(-14.5,0.,0.));
#474=CARTESIAN_POINT('Origin',(0.,15.5884572681199,2.22044604925031E-15));
#475=CARTESIAN_POINT('',(0.,7.79422863405995,-13.5));
#476=CARTESIAN_POINT('',(0.,15.5884572681199,-2.76244546481195E-15));
#477=CARTESIAN_POINT('Origin',(0.,7.79422863405995,-13.5));
#478=CARTESIAN_POINT('',(0.,-7.79422863405995,-13.5));
#479=CARTESIAN_POINT('Origin',(0.,-7.79422863405995,-13.5));
#480=CARTESIAN_POINT('',(0.,-15.5884572681199,-1.08454273546203E-15));
#481=CARTESIAN_POINT('Origin',(-14.25,0.,0.));
#482=CARTESIAN_POINT('',(-14.5,1.19403062916867E-15,9.75));
#483=CARTESIAN_POINT('Origin',(-14.5,0.,0.));
#484=CARTESIAN_POINT('',(-14.,-1.1327982892113E-15,9.25));
#485=CARTESIAN_POINT('',(-14.25,1.16341445918999E-15,9.5));
#486=CARTESIAN_POINT('',(-14.,-1.1327982892113E-15,-9.25));
#487=CARTESIAN_POINT('Origin',(-14.,0.,0.));
#488=CARTESIAN_POINT('Origin',(-14.,0.,0.));
#489=CARTESIAN_POINT('Origin',(-8.5,0.,0.));
#490=CARTESIAN_POINT('',(-12.3,-1.1327982892113E-15,-9.25));
#491=CARTESIAN_POINT('',(-8.5,-1.1327982892113E-15,-9.25));
#492=CARTESIAN_POINT('Origin',(-12.3,0.,0.));
#493=CARTESIAN_POINT('Origin',(-14.5,3.33066907387547E-15,2.22044604925031E-15));
#494=CARTESIAN_POINT('Origin',(-12.3,0.,0.));
#495=CARTESIAN_POINT('',(-12.,1.16953769318572E-15,-9.55));
#496=CARTESIAN_POINT('Origin',(-12.,0.,0.));
#497=CARTESIAN_POINT('Origin',(-12.3,-1.16953769318572E-15,-9.55));
#498=CARTESIAN_POINT('Origin',(-12.,0.,0.));
#499=CARTESIAN_POINT('',(-12.,-1.32116133585284E-15,10.788101));
#500=CARTESIAN_POINT('Origin',(-12.,0.,0.));
#501=CARTESIAN_POINT('Origin',(-11.6,0.,0.));
#502=CARTESIAN_POINT('Origin',(-11.6,-1.32116133585284E-15,10.788101));
#503=CARTESIAN_POINT('Origin',(0.,-15.5884572681199,2.22044604925031E-15));
#504=CARTESIAN_POINT('',(0.,-7.79422863405995,13.5));
#505=CARTESIAN_POINT('Origin',(0.,7.79422863405994,13.5));
#506=CARTESIAN_POINT('',(0.,7.79422863405994,13.5));
#507=CARTESIAN_POINT('Origin',(0.,-7.79422863405995,13.5));
#508=UNCERTAINTY_MEASURE_WITH_UNIT(LENGTH_MEASURE(0.01),#512,
'DISTANCE_ACCURACY_VALUE',
'Maximum model space distance between geometric entities at asserted c
onnectivities');
#509=UNCERTAINTY_MEASURE_WITH_UNIT(LENGTH_MEASURE(0.01),#512,
'DISTANCE_ACCURACY_VALUE',
'Maximum model space distance between geometric entities at asserted c
onnectivities');
#510=(
GEOMETRIC_REPRESENTATION_CONTEXT(3)
GLOBAL_UNCERTAINTY_ASSIGNED_CONTEXT((#508))
GLOBAL_UNIT_ASSIGNED_CONTEXT((#512,#514,#515))
REPRESENTATION_CONTEXT('','3D')
);
#511=(
GEOMETRIC_REPRESENTATION_CONTEXT(3)
GLOBAL_UNCERTAINTY_ASSIGNED_CONTEXT((#509))
GLOBAL_UNIT_ASSIGNED_CONTEXT((#512,#514,#515))
REPRESENTATION_CONTEXT('','3D')
);
#512=(
LENGTH_UNIT()
NAMED_UNIT(*)
SI_UNIT(.MILLI.,.METRE.)
);
#513=(
LENGTH_UNIT()
NAMED_UNIT(*)
SI_UNIT(.CENTI.,.METRE.)
);
#514=(
NAMED_UNIT(*)
PLANE_ANGLE_UNIT()
SI_UNIT($,.RADIAN.)
);
#515=(
NAMED_UNIT(*)
SI_UNIT($,.STERADIAN.)
SOLID_ANGLE_UNIT()
);
#516=SHAPE_DEFINITION_REPRESENTATION(#517,#518);
#517=PRODUCT_DEFINITION_SHAPE('',$,#520);
#518=SHAPE_REPRESENTATION('',(#296),#510);
#519=PRODUCT_DEFINITION_CONTEXT('part definition',#524,'design');
#520=PRODUCT_DEFINITION('3D_R134-M-DN8_171011600',
'3D_R134-M-DN8_171011600',#521,#519);
#521=PRODUCT_DEFINITION_FORMATION('',$,#526);
#522=PRODUCT_RELATED_PRODUCT_CATEGORY('3D_R134-M-DN8_171011600',
'3D_R134-M-DN8_171011600',(#526));
#523=APPLICATION_PROTOCOL_DEFINITION('international standard',
'automotive_design',2009,#524);
#524=APPLICATION_CONTEXT(
'Core Data for Automotive Mechanical Design Process');
#525=PRODUCT_CONTEXT('part definition',#524,'mechanical');
#526=PRODUCT('3D_R134-M-DN8_171011600','3D_R134-M-DN8_171011600',$,(#525));
#527=PRESENTATION_STYLE_ASSIGNMENT((#528));
#528=SURFACE_STYLE_USAGE(.BOTH.,#531);
#529=SURFACE_STYLE_RENDERING_WITH_PROPERTIES($,#535,(#530));
#530=SURFACE_STYLE_TRANSPARENT(0.);
#531=SURFACE_SIDE_STYLE('',(#532,#529));
#532=SURFACE_STYLE_FILL_AREA(#533);
#533=FILL_AREA_STYLE('',(#534));
#534=FILL_AREA_STYLE_COLOUR('',#535);
#535=COLOUR_RGB('',0.749019607843137,0.749019607843137,0.749019607843137);
ENDSEC;
END-ISO-10303-21;
