ISO-10303-21;
HEADER;
FILE_DESCRIPTION (( 'STEP AP203' ),
    '1' );
FILE_NAME ('3D_GR1392_DN20x2_18380090.STEP',
    '2024-09-21T10:12:20',
    ( '' ),
    ( '' ),
    'SwSTEP 2.0',
    'SolidWorks 2024',
    '' );
FILE_SCHEMA (( 'CONFIG_CONTROL_DESIGN' ));
ENDSEC;

DATA;
#1 = DIRECTION ( 'NONE',  ( -1.000000000000000000, -0.000000000000000000, -0.000000000000000000 ) ) ;
#2 = EDGE_CURVE ( 'NONE', #14, #210, #152, .T. ) ;
#3 = CIRCLE ( 'NONE', #12, 18.16666666666661101 ) ;
#4 = CONICAL_SURFACE ( 'NONE', #218, 7.000000000000019540, 0.7853981633974487231 ) ;
#5 =( NAMED_UNIT ( * ) PLANE_ANGLE_UNIT ( ) SI_UNIT ( $, .RADIAN. ) );
#6 = COORDINATED_UNIVERSAL_TIME_OFFSET ( 1, 0, .AHEAD. ) ;
#7 = VERTEX_POINT ( 'NONE', #135 ) ;
#8 = ADVANCED_BREP_SHAPE_REPRESENTATION ( '3D_GR1392_DN20x2_18380090', ( #324, #201 ), #266 ) ;
#9 = ADVANCED_FACE ( 'NONE', ( #240 ), #243, .T. ) ;
#10 = DIRECTION ( 'NONE',  ( 0.000000000000000000, 0.000000000000000000, 1.000000000000000000 ) ) ;
#11 = DIRECTION ( 'NONE',  ( 0.000000000000000000, 0.000000000000000000, 1.000000000000000000 ) ) ;
#12 = AXIS2_PLACEMENT_3D ( 'NONE', #275, #137, #160 ) ;
#13 = VERTEX_POINT ( 'NONE', #105 ) ;
#14 = VERTEX_POINT ( 'NONE', #158 ) ;
#15 = SECURITY_CLASSIFICATION_LEVEL ( 'unclassified' ) ;
#16 = LINE ( 'NONE', #202, #239 ) ;
#17 = ORIENTED_EDGE ( 'NONE', *, *, #305, .T. ) ;
#18 = CIRCLE ( 'NONE', #236, 10.00000000000001776 ) ;
#19 = DATE_TIME_ROLE ( 'classification_date' ) ;
#20 = DIRECTION ( 'NONE',  ( -0.000000000000000000, 0.000000000000000000, 1.000000000000000000 ) ) ;
#21 = CLOSED_SHELL ( 'NONE', ( #9, #144, #183, #29, #156, #221, #69, #172, #226, #219 ) ) ;
#22 = CC_DESIGN_SECURITY_CLASSIFICATION ( #97, ( #82 ) ) ;
#23 = LINE ( 'NONE', #216, #300 ) ;
#24 = CARTESIAN_POINT ( 'NONE',  ( -8.621079664448285788E-15, 8.000000000000019540, 0.000000000000000000 ) ) ;
#25 = EDGE_CURVE ( 'NONE', #258, #147, #26, .T. ) ;
#26 = CIRCLE ( 'NONE', #76, 10.00000000000001776 ) ;
#27 = AXIS2_PLACEMENT_3D ( 'NONE', #110, #138, #242 ) ;
#28 = DIRECTION ( 'NONE',  ( 0.000000000000000000, 0.000000000000000000, 1.000000000000000000 ) ) ;
#29 = ADVANCED_FACE ( 'NONE', ( #295 ), #155, .T. ) ;
#30 = DIRECTION ( 'NONE',  ( 0.000000000000000000, 0.000000000000000000, 1.000000000000000000 ) ) ;
#31 = FACE_OUTER_BOUND ( 'NONE', #343, .T. ) ;
#32 = CIRCLE ( 'NONE', #70, 10.00000000000001954 ) ;
#33 = APPLICATION_PROTOCOL_DEFINITION ( 'international standard', 'config_control_design', 1994, #98 ) ;
#34 = DIRECTION ( 'NONE',  ( -1.000000000000000000, -0.000000000000000000, -0.000000000000000000 ) ) ;
#35 = DIRECTION ( 'NONE',  ( 1.000000000000000000, 0.000000000000000000, 0.000000000000000000 ) ) ;
#36 = CARTESIAN_POINT ( 'NONE',  ( -154.8395502972293230, 0.000000000000000000, 10.00000000000001954 ) ) ;
#37 = EDGE_LOOP ( 'NONE', ( #316, #64, #270, #212 ) ) ;
#38 = CC_DESIGN_PERSON_AND_ORGANIZATION_ASSIGNMENT ( #129, #80, ( #97 ) ) ;
#39 = DIRECTION ( 'NONE',  ( -1.000000000000000000, -0.000000000000000000, -0.000000000000000000 ) ) ;
#40 = CARTESIAN_POINT ( 'NONE',  ( -2.000000000000001776, 0.000000000000000000, 10.00000000000001776 ) ) ;
#41 = CIRCLE ( 'NONE', #190, 10.00000000000001954 ) ;
#42 = PERSON_AND_ORGANIZATION ( #220, #272 ) ;
#43 = APPROVAL ( #145, 'UNSPECIFIED' ) ;
#44 = DIRECTION ( 'NONE',  ( -1.000000000000000000, -0.000000000000000000, -0.000000000000000000 ) ) ;
#45 = ORIENTED_EDGE ( 'NONE', *, *, #55, .F. ) ;
#46 = SHAPE_DEFINITION_REPRESENTATION ( #134, #8 ) ;
#47 = EDGE_LOOP ( 'NONE', ( #253, #17, #317, #310 ) ) ;
#48 = CARTESIAN_POINT ( 'NONE',  ( -2.775557561562891351E-14, 0.000000000000000000, 0.000000000000000000 ) ) ;
#49 = DIRECTION ( 'NONE',  ( 0.000000000000000000, 0.000000000000000000, 1.000000000000000000 ) ) ;
#50 = PERSON_AND_ORGANIZATION ( #220, #272 ) ;
#51 = ORIENTED_EDGE ( 'NONE', *, *, #251, .F. ) ;
#52 = DIRECTION ( 'NONE',  ( 1.000000000000000000, 0.000000000000000000, 0.000000000000000000 ) ) ;
#53 = FACE_OUTER_BOUND ( 'NONE', #65, .T. ) ;
#54 = FACE_OUTER_BOUND ( 'NONE', #342, .T. ) ;
#55 = EDGE_CURVE ( 'NONE', #7, #14, #23, .T. ) ;
#56 = CARTESIAN_POINT ( 'NONE',  ( 7.000000000000588862, 0.000000000000000000, 0.000000000000000000 ) ) ;
#57 = CARTESIAN_POINT ( 'NONE',  ( -2.000000000000001776, 1.224646799147355229E-15, -10.00000000000001776 ) ) ;
#58 = DIRECTION ( 'NONE',  ( -1.000000000000000000, -0.000000000000000000, -0.000000000000000000 ) ) ;
#59 = AXIS2_PLACEMENT_3D ( 'NONE', #261, #340, #116 ) ;
#60 = APPROVAL_DATE_TIME ( #255, #43 ) ;
#61 = EDGE_CURVE ( 'NONE', #210, #14, #120, .T. ) ;
#62 = CARTESIAN_POINT ( 'NONE',  ( 7.000000000000588862, 0.000000000000000000, 0.000000000000000000 ) ) ;
#63 = VERTEX_POINT ( 'NONE', #267 ) ;
#64 = ORIENTED_EDGE ( 'NONE', *, *, #94, .T. ) ;
#65 = EDGE_LOOP ( 'NONE', ( #181, #74, #331, #175, #103 ) ) ;
#66 = COORDINATED_UNIVERSAL_TIME_OFFSET ( 1, 0, .AHEAD. ) ;
#67 = ORIENTED_EDGE ( 'NONE', *, *, #94, .F. ) ;
#68 = ORIENTED_EDGE ( 'NONE', *, *, #299, .T. ) ;
#69 = ADVANCED_FACE ( 'NONE', ( #298, #189 ), #130, .F. ) ;
#70 = AXIS2_PLACEMENT_3D ( 'NONE', #170, #39, #230 ) ;
#71 = DATE_AND_TIME ( #339, #247 ) ;
#72 = FACE_OUTER_BOUND ( 'NONE', #337, .T. ) ;
#73 = EDGE_LOOP ( 'NONE', ( #235, #283, #143, #285 ) ) ;
#74 = ORIENTED_EDGE ( 'NONE', *, *, #251, .T. ) ;
#75 = DIRECTION ( 'NONE',  ( -1.000000000000000000, -0.000000000000000000, -0.000000000000000000 ) ) ;
#76 = AXIS2_PLACEMENT_3D ( 'NONE', #101, #217, #187 ) ;
#77 = LOCAL_TIME ( 12, 12, 20.00000000000000000, #66 ) ;
#78 = PERSON_AND_ORGANIZATION ( #220, #272 ) ;
#79 = DIRECTION ( 'NONE',  ( 0.000000000000000000, 0.000000000000000000, 1.000000000000000000 ) ) ;
#80 = PERSON_AND_ORGANIZATION_ROLE ( 'classification_officer' ) ;
#81 = DIRECTION ( 'NONE',  ( 0.000000000000000000, 0.000000000000000000, 1.000000000000000000 ) ) ;
#82 = PRODUCT_DEFINITION_FORMATION_WITH_SPECIFIED_SOURCE ( 'ANY', '', #273, .NOT_KNOWN. ) ;
#83 = DIRECTION ( 'NONE',  ( -1.000000000000000000, -0.000000000000000000, -0.000000000000000000 ) ) ;
#84 = AXIS2_PLACEMENT_3D ( 'NONE', #139, #246, #196 ) ;
#85 = CYLINDRICAL_SURFACE ( 'NONE', #84, 8.000000000000021316 ) ;
#86 = PERSON_AND_ORGANIZATION ( #220, #272 ) ;
#87 = CARTESIAN_POINT ( 'NONE',  ( 7.000000000000588862, 9.184850993605175555E-16, -7.000000000000019540 ) ) ;
#88 = EDGE_CURVE ( 'NONE', #63, #148, #3, .T. ) ;
#89 = ORIENTED_EDGE ( 'NONE', *, *, #141, .F. ) ;
#90 = VERTEX_POINT ( 'NONE', #271 ) ;
#91 = DIRECTION ( 'NONE',  ( -1.000000000000000000, -0.000000000000000000, -0.000000000000000000 ) ) ;
#92 = ORIENTED_EDGE ( 'NONE', *, *, #55, .T. ) ;
#93 = CYLINDRICAL_SURFACE ( 'NONE', #194, 10.00000000000001954 ) ;
#94 = EDGE_CURVE ( 'NONE', #63, #258, #213, .T. ) ;
#95 = EDGE_LOOP ( 'NONE', ( #203, #204, #122, #330 ) ) ;
#96 = MECHANICAL_CONTEXT ( 'NONE', #113, 'mechanical' ) ;
#97 = SECURITY_CLASSIFICATION ( '', '', #15 ) ;
#98 = APPLICATION_CONTEXT ( 'configuration controlled 3d designs of mechanical parts and assemblies' ) ;
#99 = PERSON_AND_ORGANIZATION_ROLE ( 'creator' ) ;
#100 = CC_DESIGN_PERSON_AND_ORGANIZATION_ASSIGNMENT ( #50, #345, ( #82 ) ) ;
#101 = CARTESIAN_POINT ( 'NONE',  ( -2.000000000000001776, 0.000000000000000000, 0.000000000000000000 ) ) ;
#102 = CIRCLE ( 'NONE', #303, 18.16666666666660745 ) ;
#103 = ORIENTED_EDGE ( 'NONE', *, *, #245, .F. ) ;
#104 = PRODUCT_DEFINITION ( 'UNKNOWN', '', #82, #157 ) ;
#105 = CARTESIAN_POINT ( 'NONE',  ( 0.000000000000000000, 0.000000000000000000, 10.00000000000001954 ) ) ;
#106 = CIRCLE ( 'NONE', #153, 8.000000000000021316 ) ;
#107 = DIRECTION ( 'NONE',  ( -1.000000000000000000, -0.000000000000000000, -0.000000000000000000 ) ) ;
#108 = PRODUCT_RELATED_PRODUCT_CATEGORY ( 'detail', '', ( #273 ) ) ;
#109 = CARTESIAN_POINT ( 'NONE',  ( 7.000000000000588862, 0.000000000000000000, 0.000000000000000000 ) ) ;
#110 = CARTESIAN_POINT ( 'NONE',  ( -154.8395502972293230, 0.000000000000000000, 0.000000000000000000 ) ) ;
#111 = AXIS2_PLACEMENT_3D ( 'NONE', #48, #321, #49 ) ;
#112 = CC_DESIGN_APPROVAL ( #293, ( #82 ) ) ;
#113 = APPLICATION_CONTEXT ( 'configuration controlled 3d designs of mechanical parts and assemblies' ) ;
#114 = DIRECTION ( 'NONE',  ( 0.000000000000000000, 1.000000000000000000, 0.000000000000000000 ) ) ;
#115 = DIRECTION ( 'NONE',  ( -1.000000000000000000, -0.000000000000000000, -0.000000000000000000 ) ) ;
#116 = DIRECTION ( 'NONE',  ( -0.000000000000000000, 0.000000000000000000, 1.000000000000000000 ) ) ;
#117 = DIRECTION ( 'NONE',  ( 0.000000000000000000, 0.000000000000000000, 1.000000000000000000 ) ) ;
#118 = PLANE ( 'NONE',  #59 ) ;
#119 = ORIENTED_EDGE ( 'NONE', *, *, #301, .F. ) ;
#120 = CIRCLE ( 'NONE', #111, 8.000000000000019540 ) ;
#121 = CC_DESIGN_APPROVAL ( #43, ( #104 ) ) ;
#122 = ORIENTED_EDGE ( 'NONE', *, *, #234, .T. ) ;
#123 = DIRECTION ( 'NONE',  ( -1.000000000000000000, -0.000000000000000000, -0.000000000000000000 ) ) ;
#124 = VERTEX_POINT ( 'NONE', #57 ) ;
#125 = DIRECTION ( 'NONE',  ( -1.000000000000000000, -0.000000000000000000, -0.000000000000000000 ) ) ;
#126 = ORIENTED_EDGE ( 'NONE', *, *, #2, .F. ) ;
#127 = EDGE_LOOP ( 'NONE', ( #150, #136 ) ) ;
#128 = ORIENTED_EDGE ( 'NONE', *, *, #305, .F. ) ;
#129 = PERSON_AND_ORGANIZATION ( #220, #272 ) ;
#130 = PLANE ( 'NONE',  #177 ) ;
#131 = EDGE_CURVE ( 'NONE', #147, #148, #102, .T. ) ;
#132 = DIRECTION ( 'NONE',  ( -1.000000000000000000, -0.000000000000000000, -0.000000000000000000 ) ) ;
#133 = APPROVAL_PERSON_ORGANIZATION ( #224, #43, #312 ) ;
#134 = PRODUCT_DEFINITION_SHAPE ( 'NONE', 'NONE',  #104 ) ;
#135 = CARTESIAN_POINT ( 'NONE',  ( 6.000000000000587974, 0.000000000000000000, 8.000000000000021316 ) ) ;
#136 = ORIENTED_EDGE ( 'NONE', *, *, #61, .T. ) ;
#137 = DIRECTION ( 'NONE',  ( 0.000000000000000000, 1.224646799147353207E-16, -1.000000000000000000 ) ) ;
#138 = DIRECTION ( 'NONE',  ( -1.000000000000000000, -0.000000000000000000, -0.000000000000000000 ) ) ;
#139 = CARTESIAN_POINT ( 'NONE',  ( -154.8395502972293230, 0.000000000000000000, 0.000000000000000000 ) ) ;
#140 = AXIS2_PLACEMENT_3D ( 'NONE', #56, #206, #11 ) ;
#141 = EDGE_CURVE ( 'NONE', #215, #291, #348, .T. ) ;
#142 = COORDINATED_UNIVERSAL_TIME_OFFSET ( 1, 0, .AHEAD. ) ;
#143 = ORIENTED_EDGE ( 'NONE', *, *, #299, .F. ) ;
#144 = ADVANCED_FACE ( 'NONE', ( #54 ), #85, .T. ) ;
#145 = APPROVAL_STATUS ( 'not_yet_approved' ) ;
#146 = CARTESIAN_POINT ( 'NONE',  ( 6.000000000000587974, 9.797174393178851295E-16, -8.000000000000021316 ) ) ;
#147 = VERTEX_POINT ( 'NONE', #304 ) ;
#148 = VERTEX_POINT ( 'NONE', #161 ) ;
#149 = APPROVAL_STATUS ( 'not_yet_approved' ) ;
#150 = ORIENTED_EDGE ( 'NONE', *, *, #2, .T. ) ;
#151 = DIRECTION ( 'NONE',  ( -0.000000000000000000, 0.000000000000000000, -1.000000000000000000 ) ) ;
#152 = CIRCLE ( 'NONE', #199, 8.000000000000019540 ) ;
#153 = AXIS2_PLACEMENT_3D ( 'NONE', #328, #115, #314 ) ;
#154 = DATE_AND_TIME ( #186, #214 ) ;
#155 = SPHERICAL_SURFACE ( 'NONE', #159, 18.16666666666661101 ) ;
#156 = ADVANCED_FACE ( 'NONE', ( #325 ), #167, .T. ) ;
#157 = DESIGN_CONTEXT ( 'detailed design', #98, 'design' ) ;
#158 = CARTESIAN_POINT ( 'NONE',  ( -2.775557561562891351E-14, 0.000000000000000000, 8.000000000000019540 ) ) ;
#159 = AXIS2_PLACEMENT_3D ( 'NONE', #269, #151, #188 ) ;
#160 = DIRECTION ( 'NONE',  ( 0.000000000000000000, 1.000000000000000000, 1.224646799147353207E-16 ) ) ;
#161 = CARTESIAN_POINT ( 'NONE',  ( -5.000000000000022204, 2.450257712371056562E-16, 0.000000000000000000 ) ) ;
#162 = CC_DESIGN_PERSON_AND_ORGANIZATION_ASSIGNMENT ( #197, #99, ( #82 ) ) ;
#163 = LOCAL_TIME ( 12, 12, 20.00000000000000000, #142 ) ;
#164 = CARTESIAN_POINT ( 'NONE',  ( 13.16666666666658969, -8.673617379884035472E-16, 0.000000000000000000 ) ) ;
#165 = DIRECTION ( 'NONE',  ( -0.000000000000000000, 0.000000000000000000, -1.000000000000000000 ) ) ;
#166 = CC_DESIGN_PERSON_AND_ORGANIZATION_ASSIGNMENT ( #207, #168, ( #273 ) ) ;
#167 = SPHERICAL_SURFACE ( 'NONE', #238, 18.16666666666661101 ) ;
#168 = PERSON_AND_ORGANIZATION_ROLE ( 'design_owner' ) ;
#169 = CIRCLE ( 'NONE', #322, 10.00000000000001776 ) ;
#170 = CARTESIAN_POINT ( 'NONE',  ( 0.000000000000000000, 0.000000000000000000, 0.000000000000000000 ) ) ;
#171 = CARTESIAN_POINT ( 'NONE',  ( -154.8395502972293230, 1.224646799147355426E-15, -10.00000000000001954 ) ) ;
#172 = ADVANCED_FACE ( 'NONE', ( #31 ), #349, .T. ) ;
#173 = APPLICATION_PROTOCOL_DEFINITION ( 'international standard', 'config_control_design', 1994, #113 ) ;
#174 = FACE_OUTER_BOUND ( 'NONE', #95, .T. ) ;
#175 = ORIENTED_EDGE ( 'NONE', *, *, #25, .F. ) ;
#176 = CALENDAR_DATE ( 2024, 21, 9 ) ;
#177 = AXIS2_PLACEMENT_3D ( 'NONE', #24, #346, #20 ) ;
#178 = VECTOR ( 'NONE', #252, 999.9999999999998863 ) ;
#179 = APPROVAL_DATE_TIME ( #71, #293 ) ;
#180 = DIRECTION ( 'NONE',  ( 0.000000000000000000, 0.000000000000000000, 1.000000000000000000 ) ) ;
#181 = ORIENTED_EDGE ( 'NONE', *, *, #286, .T. ) ;
#182 = APPROVAL_STATUS ( 'not_yet_approved' ) ;
#183 = ADVANCED_FACE ( 'NONE', ( #53 ), #223, .T. ) ;
#184 = APPROVAL_DATE_TIME ( #262, #268 ) ;
#185 = VECTOR ( 'NONE', #34, 1000.000000000000000 ) ;
#186 = CALENDAR_DATE ( 2024, 21, 9 ) ;
#187 = DIRECTION ( 'NONE',  ( 0.000000000000000000, 0.000000000000000000, 1.000000000000000000 ) ) ;
#188 = DIRECTION ( 'NONE',  ( 0.000000000000000000, 1.000000000000000000, 0.000000000000000000 ) ) ;
#189 = FACE_BOUND ( 'NONE', #127, .T. ) ;
#190 = AXIS2_PLACEMENT_3D ( 'NONE', #257, #125, #248 ) ;
#191 = EDGE_CURVE ( 'NONE', #277, #210, #222, .T. ) ;
#192 = DIRECTION ( 'NONE',  ( -0.000000000000000000, 0.000000000000000000, 1.000000000000000000 ) ) ;
#193 = AXIS2_PLACEMENT_3D ( 'NONE', #109, #107, #30 ) ;
#194 = AXIS2_PLACEMENT_3D ( 'NONE', #225, #58, #198 ) ;
#195 = DIRECTION ( 'NONE',  ( -1.000000000000000000, -0.000000000000000000, -0.000000000000000000 ) ) ;
#196 = DIRECTION ( 'NONE',  ( 0.000000000000000000, 0.000000000000000000, 1.000000000000000000 ) ) ;
#197 = PERSON_AND_ORGANIZATION ( #220, #272 ) ;
#198 = DIRECTION ( 'NONE',  ( 0.000000000000000000, 0.000000000000000000, 1.000000000000000000 ) ) ;
#199 = AXIS2_PLACEMENT_3D ( 'NONE', #319, #132, #79 ) ;
#200 = CARTESIAN_POINT ( 'NONE',  ( 7.000000000000588862, 0.000000000000000000, 7.000000000000019540 ) ) ;
#201 = AXIS2_PLACEMENT_3D ( 'NONE', #281, #308, #35 ) ;
#202 = CARTESIAN_POINT ( 'NONE',  ( 7.000000000000588862, 0.000000000000000000, 7.000000000000019540 ) ) ;
#203 = ORIENTED_EDGE ( 'NONE', *, *, #260, .F. ) ;
#204 = ORIENTED_EDGE ( 'NONE', *, *, #141, .T. ) ;
#205 =( NAMED_UNIT ( * ) SI_UNIT ( $, .STERADIAN. ) SOLID_ANGLE_UNIT ( ) );
#206 = DIRECTION ( 'NONE',  ( -1.000000000000000000, -0.000000000000000000, -0.000000000000000000 ) ) ;
#207 = PERSON_AND_ORGANIZATION ( #220, #272 ) ;
#208 = EDGE_CURVE ( 'NONE', #291, #215, #318, .T. ) ;
#209 = COORDINATED_UNIVERSAL_TIME_OFFSET ( 1, 0, .AHEAD. ) ;
#210 = VERTEX_POINT ( 'NONE', #288 ) ;
#211 = APPROVAL_ROLE ( '' ) ;
#212 = ORIENTED_EDGE ( 'NONE', *, *, #131, .T. ) ;
#213 = CIRCLE ( 'NONE', #254, 10.00000000000001776 ) ;
#214 = LOCAL_TIME ( 12, 12, 20.00000000000000000, #209 ) ;
#215 = VERTEX_POINT ( 'NONE', #87 ) ;
#216 = CARTESIAN_POINT ( 'NONE',  ( -154.8395502972293230, 0.000000000000000000, 8.000000000000021316 ) ) ;
#217 = DIRECTION ( 'NONE',  ( -1.000000000000000000, -0.000000000000000000, -0.000000000000000000 ) ) ;
#218 = AXIS2_PLACEMENT_3D ( 'NONE', #62, #263, #180 ) ;
#219 = ADVANCED_FACE ( 'NONE', ( #231 ), #118, .F. ) ;
#220 = PERSON ( 'UNSPECIFIED', 'UNSPECIFIED', 'UNSPECIFIED', ('UNSPECIFIED'), ('UNSPECIFIED'), ('UNSPECIFIED') ) ;
#221 = ADVANCED_FACE ( 'NONE', ( #72 ), #93, .T. ) ;
#222 = LINE ( 'NONE', #326, #333 ) ;
#223 = CYLINDRICAL_SURFACE ( 'NONE', #27, 10.00000000000001954 ) ;
#224 = PERSON_AND_ORGANIZATION ( #220, #272 ) ;
#225 = CARTESIAN_POINT ( 'NONE',  ( -154.8395502972293230, 0.000000000000000000, 0.000000000000000000 ) ) ;
#226 = ADVANCED_FACE ( 'NONE', ( #174 ), #4, .T. ) ;
#227 = PERSON_AND_ORGANIZATION_ROLE ( 'creator' ) ;
#228 = CIRCLE ( 'NONE', #313, 8.000000000000021316 ) ;
#229 = ORIENTED_EDGE ( 'NONE', *, *, #191, .F. ) ;
#230 = DIRECTION ( 'NONE',  ( 0.000000000000000000, 0.000000000000000000, 1.000000000000000000 ) ) ;
#231 = FACE_OUTER_BOUND ( 'NONE', #336, .T. ) ;
#232 = ORIENTED_EDGE ( 'NONE', *, *, #301, .T. ) ;
#233 = DATE_TIME_ROLE ( 'creation_date' ) ;
#234 = EDGE_CURVE ( 'NONE', #291, #7, #16, .T. ) ;
#235 = ORIENTED_EDGE ( 'NONE', *, *, #208, .T. ) ;
#236 = AXIS2_PLACEMENT_3D ( 'NONE', #306, #284, #117 ) ;
#237 = ORIENTED_EDGE ( 'NONE', *, *, #286, .F. ) ;
#238 = AXIS2_PLACEMENT_3D ( 'NONE', #274, #165, #114 ) ;
#239 = VECTOR ( 'NONE', #290, 999.9999999999998863 ) ;
#240 = FACE_OUTER_BOUND ( 'NONE', #73, .T. ) ;
#241 = EDGE_CURVE ( 'NONE', #147, #124, #169, .T. ) ;
#242 = DIRECTION ( 'NONE',  ( 0.000000000000000000, 0.000000000000000000, 1.000000000000000000 ) ) ;
#243 = CONICAL_SURFACE ( 'NONE', #332, 7.000000000000019540, 0.7853981633974487231 ) ;
#244 = APPROVAL_PERSON_ORGANIZATION ( #78, #268, #211 ) ;
#245 = EDGE_CURVE ( 'NONE', #13, #258, #280, .T. ) ;
#246 = DIRECTION ( 'NONE',  ( -1.000000000000000000, -0.000000000000000000, -0.000000000000000000 ) ) ;
#247 = LOCAL_TIME ( 12, 12, 20.00000000000000000, #6 ) ;
#248 = DIRECTION ( 'NONE',  ( 0.000000000000000000, 0.000000000000000000, 1.000000000000000000 ) ) ;
#249 = CALENDAR_DATE ( 2024, 21, 9 ) ;
#250 = LINE ( 'NONE', #282, #178 ) ;
#251 = EDGE_CURVE ( 'NONE', #90, #124, #335, .T. ) ;
#252 = DIRECTION ( 'NONE',  ( -0.7071067811865472397, 8.659560562354937789E-17, -0.7071067811865479058 ) ) ;
#253 = ORIENTED_EDGE ( 'NONE', *, *, #241, .T. ) ;
#254 = AXIS2_PLACEMENT_3D ( 'NONE', #329, #1, #28 ) ;
#255 = DATE_AND_TIME ( #176, #77 ) ;
#256 = CC_DESIGN_APPROVAL ( #268, ( #97 ) ) ;
#257 = CARTESIAN_POINT ( 'NONE',  ( 0.000000000000000000, 0.000000000000000000, 0.000000000000000000 ) ) ;
#258 = VERTEX_POINT ( 'NONE', #40 ) ;
#259 = APPROVAL_ROLE ( '' ) ;
#260 = EDGE_CURVE ( 'NONE', #215, #277, #250, .T. ) ;
#261 = CARTESIAN_POINT ( 'NONE',  ( 7.000000000000301092, 0.000000000000000000, 0.000000000000000000 ) ) ;
#262 = DATE_AND_TIME ( #292, #350 ) ;
#263 = DIRECTION ( 'NONE',  ( -1.000000000000000000, -0.000000000000000000, -0.000000000000000000 ) ) ;
#264 = EDGE_LOOP ( 'NONE', ( #237, #119 ) ) ;
#265 = ORIENTED_EDGE ( 'NONE', *, *, #191, .T. ) ;
#266 =( GEOMETRIC_REPRESENTATION_CONTEXT ( 3 ) GLOBAL_UNCERTAINTY_ASSIGNED_CONTEXT ( ( #297 ) ) GLOBAL_UNIT_ASSIGNED_CONTEXT ( ( #334, #5, #205 ) ) REPRESENTATION_CONTEXT ( 'NONE', 'WORKASPACE' ) );
#267 = CARTESIAN_POINT ( 'NONE',  ( -2.000000000000000888, -10.00000000000001599, -1.224646799147355031E-15 ) ) ;
#268 = APPROVAL ( #182, 'UNSPECIFIED' ) ;
#269 = CARTESIAN_POINT ( 'NONE',  ( 13.16666666666658969, -8.673617379884035472E-16, 0.000000000000000000 ) ) ;
#270 = ORIENTED_EDGE ( 'NONE', *, *, #25, .T. ) ;
#271 = CARTESIAN_POINT ( 'NONE',  ( 0.000000000000000000, 1.224646799147355426E-15, -10.00000000000001954 ) ) ;
#272 = ORGANIZATION ( 'UNSPECIFIED', 'UNSPECIFIED', '' ) ;
#273 = PRODUCT ( '3D_GR1392_DN20x2_18380090', '3D_GR1392_DN20x2_18380090', '', ( #96 ) ) ;
#274 = CARTESIAN_POINT ( 'NONE',  ( 13.16666666666658969, -8.673617379884035472E-16, 0.000000000000000000 ) ) ;
#275 = CARTESIAN_POINT ( 'NONE',  ( 13.16666666666658969, -8.673617379884035472E-16, 0.000000000000000000 ) ) ;
#276 = CARTESIAN_POINT ( 'NONE',  ( -154.8395502972293230, 0.000000000000000000, 0.000000000000000000 ) ) ;
#277 = VERTEX_POINT ( 'NONE', #146 ) ;
#278 = AXIS2_PLACEMENT_3D ( 'NONE', #276, #83, #302 ) ;
#279 = CC_DESIGN_PERSON_AND_ORGANIZATION_ASSIGNMENT ( #86, #227, ( #104 ) ) ;
#280 = LINE ( 'NONE', #36, #185 ) ;
#281 = CARTESIAN_POINT ( 'NONE',  ( 0.000000000000000000, 0.000000000000000000, 0.000000000000000000 ) ) ;
#282 = CARTESIAN_POINT ( 'NONE',  ( 7.000000000000588862, 8.572527594031495870E-16, -7.000000000000019540 ) ) ;
#283 = ORIENTED_EDGE ( 'NONE', *, *, #260, .T. ) ;
#284 = DIRECTION ( 'NONE',  ( -1.000000000000000000, -0.000000000000000000, -0.000000000000000000 ) ) ;
#285 = ORIENTED_EDGE ( 'NONE', *, *, #234, .F. ) ;
#286 = EDGE_CURVE ( 'NONE', #13, #90, #41, .T. ) ;
#287 = DATE_AND_TIME ( #249, #163 ) ;
#288 = CARTESIAN_POINT ( 'NONE',  ( -2.775557561562891351E-14, 9.797174393178849323E-16, -8.000000000000019540 ) ) ;
#289 = CARTESIAN_POINT ( 'NONE',  ( 6.000000000000587974, 0.000000000000000000, 0.000000000000000000 ) ) ;
#290 = DIRECTION ( 'NONE',  ( -0.7071067811865472397, 0.000000000000000000, 0.7071067811865479058 ) ) ;
#291 = VERTEX_POINT ( 'NONE', #200 ) ;
#292 = CALENDAR_DATE ( 2024, 21, 9 ) ;
#293 = APPROVAL ( #149, 'UNSPECIFIED' ) ;
#294 = DIRECTION ( 'NONE',  ( -1.000000000000000000, -0.000000000000000000, -0.000000000000000000 ) ) ;
#295 = FACE_OUTER_BOUND ( 'NONE', #47, .T. ) ;
#296 = COORDINATED_UNIVERSAL_TIME_OFFSET ( 1, 0, .AHEAD. ) ;
#297 = UNCERTAINTY_MEASURE_WITH_UNIT (LENGTH_MEASURE( 1.000000000000000082E-05 ), #334, 'distance_accuracy_value', 'NONE');
#298 = FACE_OUTER_BOUND ( 'NONE', #264, .T. ) ;
#299 = EDGE_CURVE ( 'NONE', #7, #277, #106, .T. ) ;
#300 = VECTOR ( 'NONE', #294, 1000.000000000000000 ) ;
#301 = EDGE_CURVE ( 'NONE', #90, #13, #32, .T. ) ;
#302 = DIRECTION ( 'NONE',  ( 0.000000000000000000, 0.000000000000000000, 1.000000000000000000 ) ) ;
#303 = AXIS2_PLACEMENT_3D ( 'NONE', #164, #192, #52 ) ;
#304 = CARTESIAN_POINT ( 'NONE',  ( -2.000000000000000888, 10.00000000000001599, 0.000000000000000000 ) ) ;
#305 = EDGE_CURVE ( 'NONE', #124, #63, #18, .T. ) ;
#306 = CARTESIAN_POINT ( 'NONE',  ( -2.000000000000001776, 0.000000000000000000, 0.000000000000000000 ) ) ;
#307 = DIRECTION ( 'NONE',  ( 0.000000000000000000, 0.000000000000000000, 1.000000000000000000 ) ) ;
#308 = DIRECTION ( 'NONE',  ( 0.000000000000000000, 0.000000000000000000, 1.000000000000000000 ) ) ;
#309 = CARTESIAN_POINT ( 'NONE',  ( -2.000000000000001776, 0.000000000000000000, 0.000000000000000000 ) ) ;
#310 = ORIENTED_EDGE ( 'NONE', *, *, #131, .F. ) ;
#311 = ORIENTED_EDGE ( 'NONE', *, *, #245, .T. ) ;
#312 = APPROVAL_ROLE ( '' ) ;
#313 = AXIS2_PLACEMENT_3D ( 'NONE', #289, #123, #10 ) ;
#314 = DIRECTION ( 'NONE',  ( 0.000000000000000000, 0.000000000000000000, 1.000000000000000000 ) ) ;
#315 = ORIENTED_EDGE ( 'NONE', *, *, #61, .F. ) ;
#316 = ORIENTED_EDGE ( 'NONE', *, *, #88, .F. ) ;
#317 = ORIENTED_EDGE ( 'NONE', *, *, #88, .T. ) ;
#318 = CIRCLE ( 'NONE', #140, 7.000000000000019540 ) ;
#319 = CARTESIAN_POINT ( 'NONE',  ( -2.775557561562891351E-14, 0.000000000000000000, 0.000000000000000000 ) ) ;
#320 = ORIENTED_EDGE ( 'NONE', *, *, #344, .T. ) ;
#321 = DIRECTION ( 'NONE',  ( -1.000000000000000000, -0.000000000000000000, -0.000000000000000000 ) ) ;
#322 = AXIS2_PLACEMENT_3D ( 'NONE', #309, #44, #307 ) ;
#323 = CC_DESIGN_DATE_AND_TIME_ASSIGNMENT ( #154, #19, ( #97 ) ) ;
#324 = MANIFOLD_SOLID_BREP ( 'Rotation1', #21 ) ;
#325 = FACE_OUTER_BOUND ( 'NONE', #37, .T. ) ;
#326 = CARTESIAN_POINT ( 'NONE',  ( -154.8395502972293230, 9.797174393178851295E-16, -8.000000000000021316 ) ) ;
#327 = APPROVAL_PERSON_ORGANIZATION ( #42, #293, #259 ) ;
#328 = CARTESIAN_POINT ( 'NONE',  ( 6.000000000000587974, 0.000000000000000000, 0.000000000000000000 ) ) ;
#329 = CARTESIAN_POINT ( 'NONE',  ( -2.000000000000001776, 0.000000000000000000, 0.000000000000000000 ) ) ;
#330 = ORIENTED_EDGE ( 'NONE', *, *, #344, .F. ) ;
#331 = ORIENTED_EDGE ( 'NONE', *, *, #241, .F. ) ;
#332 = AXIS2_PLACEMENT_3D ( 'NONE', #347, #75, #81 ) ;
#333 = VECTOR ( 'NONE', #195, 1000.000000000000000 ) ;
#334 =( LENGTH_UNIT ( ) NAMED_UNIT ( * ) SI_UNIT ( .MILLI., .METRE. ) );
#335 = LINE ( 'NONE', #171, #341 ) ;
#336 = EDGE_LOOP ( 'NONE', ( #338, #89 ) ) ;
#337 = EDGE_LOOP ( 'NONE', ( #51, #232, #311, #67, #128 ) ) ;
#338 = ORIENTED_EDGE ( 'NONE', *, *, #208, .F. ) ;
#339 = CALENDAR_DATE ( 2024, 21, 9 ) ;
#340 = DIRECTION ( 'NONE',  ( -1.000000000000000000, 0.000000000000000000, -0.000000000000000000 ) ) ;
#341 = VECTOR ( 'NONE', #91, 1000.000000000000000 ) ;
#342 = EDGE_LOOP ( 'NONE', ( #68, #265, #126, #45 ) ) ;
#343 = EDGE_LOOP ( 'NONE', ( #229, #320, #92, #315 ) ) ;
#344 = EDGE_CURVE ( 'NONE', #277, #7, #228, .T. ) ;
#345 = PERSON_AND_ORGANIZATION_ROLE ( 'design_supplier' ) ;
#346 = DIRECTION ( 'NONE',  ( -1.000000000000000000, 0.000000000000000000, -0.000000000000000000 ) ) ;
#347 = CARTESIAN_POINT ( 'NONE',  ( 7.000000000000588862, 0.000000000000000000, 0.000000000000000000 ) ) ;
#348 = CIRCLE ( 'NONE', #193, 7.000000000000019540 ) ;
#349 = CYLINDRICAL_SURFACE ( 'NONE', #278, 8.000000000000021316 ) ;
#350 = LOCAL_TIME ( 12, 12, 20.00000000000000000, #296 ) ;
#351 = CC_DESIGN_DATE_AND_TIME_ASSIGNMENT ( #287, #233, ( #104 ) ) ;
ENDSEC;
END-ISO-10303-21;
