ISO-10303-21;
HEADER;
FILE_DESCRIPTION (( 'STEP AP203' ),
    '1' );
FILE_NAME ('3D_M2060_32-20_174121045.STEP',
    '2024-09-05T10:16:48',
    ( '' ),
    ( '' ),
    'SwSTEP 2.0',
    'SolidWorks 2024',
    '' );
FILE_SCHEMA (( 'CONFIG_CONTROL_DESIGN' ));
ENDSEC;

DATA;
#1 = VECTOR ( 'NONE', #61, 1000.000000000000000 ) ;
#2 = EDGE_CURVE ( 'NONE', #158, #20, #59, .T. ) ;
#3 = ORIENTED_EDGE ( 'NONE', *, *, #199, .F. ) ;
#4 = SECURITY_CLASSIFICATION ( '', '', #97 ) ;
#5 = CARTESIAN_POINT ( 'NONE',  ( 22.00000000000000000, 0.000000000000000000, 0.000000000000000000 ) ) ;
#6 = DIRECTION ( 'NONE',  ( 0.000000000000000000, 0.000000000000000000, -1.000000000000000000 ) ) ;
#7 = AXIS2_PLACEMENT_3D ( 'NONE', #105, #172, #141 ) ;
#8 = CARTESIAN_POINT ( 'NONE',  ( 21.60532389131183706, 0.000000000000000000, 0.000000000000000000 ) ) ;
#9 = DIRECTION ( 'NONE',  ( 0.000000000000000000, 0.000000000000000000, -1.000000000000000000 ) ) ;
#10 = CARTESIAN_POINT ( 'NONE',  ( 21.60532389131183706, 0.000000000000000000, 0.000000000000000000 ) ) ;
#11 = AXIS2_PLACEMENT_3D ( 'NONE', #237, #91, #130 ) ;
#12 = ADVANCED_FACE ( 'NONE', ( #37, #138 ), #63, .T. ) ;
#13 = APPROVAL_ROLE ( '' ) ;
#14 = AXIS2_PLACEMENT_3D ( 'NONE', #163, #85, #149 ) ;
#15 = ORIENTED_EDGE ( 'NONE', *, *, #93, .F. ) ;
#16 = PERSON_AND_ORGANIZATION_ROLE ( 'design_supplier' ) ;
#17 = AXIS2_PLACEMENT_3D ( 'NONE', #249, #80, #60 ) ;
#18 = DIRECTION ( 'NONE',  ( 0.000000000000000000, 0.000000000000000000, -1.000000000000000000 ) ) ;
#19 = EDGE_CURVE ( 'NONE', #126, #158, #145, .T. ) ;
#20 = VERTEX_POINT ( 'NONE', #211 ) ;
#21 = CARTESIAN_POINT ( 'NONE',  ( 22.00000000000000000, 0.000000000000000000, 0.000000000000000000 ) ) ;
#22 = CC_DESIGN_PERSON_AND_ORGANIZATION_ASSIGNMENT ( #186, #16, ( #78 ) ) ;
#23 = DIRECTION ( 'NONE',  ( 0.000000000000000000, 0.000000000000000000, 1.000000000000000000 ) ) ;
#24 = LOCAL_TIME ( 12, 16, 48.00000000000000000, #200 ) ;
#25 = ORIENTED_EDGE ( 'NONE', *, *, #2, .F. ) ;
#26 =( LENGTH_UNIT ( ) NAMED_UNIT ( * ) SI_UNIT ( .MILLI., .METRE. ) );
#27 = EDGE_CURVE ( 'NONE', #126, #114, #39, .T. ) ;
#28 = APPLICATION_PROTOCOL_DEFINITION ( 'international standard', 'config_control_design', 1994, #69 ) ;
#29 = DATE_AND_TIME ( #239, #24 ) ;
#30 = DIRECTION ( 'NONE',  ( 0.000000000000000000, 0.000000000000000000, 1.000000000000000000 ) ) ;
#31 = APPROVAL ( #183, 'UNSPECIFIED' ) ;
#32 = DATE_AND_TIME ( #206, #238 ) ;
#33 = ORIENTED_EDGE ( 'NONE', *, *, #46, .F. ) ;
#34 = CALENDAR_DATE ( 2024, 5, 9 ) ;
#35 = PRODUCT_DEFINITION_SHAPE ( 'NONE', 'NONE',  #82 ) ;
#36 = ORIENTED_EDGE ( 'NONE', *, *, #27, .T. ) ;
#37 = FACE_BOUND ( 'NONE', #203, .T. ) ;
#38 = DESIGN_CONTEXT ( 'detailed design', #69, 'design' ) ;
#39 = LINE ( 'NONE', #232, #173 ) ;
#40 = EDGE_CURVE ( 'NONE', #43, #245, #178, .T. ) ;
#41 = LINE ( 'NONE', #142, #140 ) ;
#42 = CIRCLE ( 'NONE', #202, 14.44521532941026365 ) ;
#43 = VERTEX_POINT ( 'NONE', #135 ) ;
#44 = AXIS2_PLACEMENT_3D ( 'NONE', #146, #182, #9 ) ;
#45 = PERSON_AND_ORGANIZATION ( #100, #139 ) ;
#46 = EDGE_CURVE ( 'NONE', #43, #92, #41, .T. ) ;
#47 = LOCAL_TIME ( 12, 16, 48.00000000000000000, #243 ) ;
#48 = PERSON_AND_ORGANIZATION_ROLE ( 'design_owner' ) ;
#49 = CARTESIAN_POINT ( 'NONE',  ( 0.000000000000000000, 0.000000000000000000, 0.000000000000000000 ) ) ;
#50 = CARTESIAN_POINT ( 'NONE',  ( 0.000000000000000000, 0.000000000000000000, 0.000000000000000000 ) ) ;
#51 = CALENDAR_DATE ( 2024, 5, 9 ) ;
#52 = CIRCLE ( 'NONE', #118, 8.445215329410265426 ) ;
#53 = DATE_TIME_ROLE ( 'creation_date' ) ;
#54 = PERSON_AND_ORGANIZATION_ROLE ( 'creator' ) ;
#55 = APPROVAL_PERSON_ORGANIZATION ( #112, #73, #244 ) ;
#56 = ORIENTED_EDGE ( 'NONE', *, *, #171, .T. ) ;
#57 = APPROVAL_DATE_TIME ( #32, #73 ) ;
#58 = EDGE_CURVE ( 'NONE', #245, #153, #229, .T. ) ;
#59 = LINE ( 'NONE', #231, #1 ) ;
#60 = DIRECTION ( 'NONE',  ( 0.000000000000000000, 0.000000000000000000, 1.000000000000000000 ) ) ;
#61 = DIRECTION ( 'NONE',  ( -0.9647638212377321887, 3.222258888032613123E-17, -0.2631174057921087939 ) ) ;
#62 = ADVANCED_FACE ( 'NONE', ( #157 ), #233, .T. ) ;
#63 = PLANE ( 'NONE',  #119 ) ;
#64 = CONICAL_SURFACE ( 'NONE', #17, 10.00000000000000000, 0.2662520491509253739 ) ;
#65 = DIRECTION ( 'NONE',  ( -0.9647638212377321887, 0.000000000000000000, 0.2631174057921087939 ) ) ;
#66 = CONICAL_SURFACE ( 'NONE', #101, 8.552854268143402550, 0.2662520491509253739 ) ;
#67 = DIRECTION ( 'NONE',  ( 1.000000000000000000, 0.000000000000000000, 0.000000000000000000 ) ) ;
#68 = CARTESIAN_POINT ( 'NONE',  ( 22.00000000000000000, 6.123233995736766282E-16, -10.00000000000000000 ) ) ;
#69 = APPLICATION_CONTEXT ( 'configuration controlled 3d designs of mechanical parts and assemblies' ) ;
#70 = AXIS2_PLACEMENT_3D ( 'NONE', #124, #175, #179 ) ;
#71 = DIRECTION ( 'NONE',  ( 1.000000000000000000, 0.000000000000000000, 0.000000000000000000 ) ) ;
#72 = DIRECTION ( 'NONE',  ( 0.000000000000000000, 0.000000000000000000, -1.000000000000000000 ) ) ;
#73 = APPROVAL ( #187, 'UNSPECIFIED' ) ;
#74 = CARTESIAN_POINT ( 'NONE',  ( 22.00000000000000000, 6.123233995736766282E-16, 10.00000000000000000 ) ) ;
#75 = APPROVAL_DATE_TIME ( #189, #156 ) ;
#76 = EDGE_CURVE ( 'NONE', #245, #43, #52, .T. ) ;
#77 = DATE_AND_TIME ( #51, #47 ) ;
#78 = PRODUCT_DEFINITION_FORMATION_WITH_SPECIFIED_SOURCE ( 'ANY', '', #248, .NOT_KNOWN. ) ;
#79 = CARTESIAN_POINT ( 'NONE',  ( 21.60532389131183706, 0.000000000000000000, 8.552854268143402550 ) ) ;
#80 = DIRECTION ( 'NONE',  ( -1.000000000000000000, -0.000000000000000000, -0.000000000000000000 ) ) ;
#81 = ORIENTED_EDGE ( 'NONE', *, *, #19, .T. ) ;
#82 = PRODUCT_DEFINITION ( 'UNKNOWN', '', #78, #38 ) ;
#83 = DIRECTION ( 'NONE',  ( -0.9647638212377321887, 0.000000000000000000, 0.2631174057921087939 ) ) ;
#84 = ORIENTED_EDGE ( 'NONE', *, *, #40, .T. ) ;
#85 = DIRECTION ( 'NONE',  ( 1.000000000000000000, 0.000000000000000000, 0.000000000000000000 ) ) ;
#86 = LOCAL_TIME ( 12, 16, 48.00000000000000000, #208 ) ;
#87 = MECHANICAL_CONTEXT ( 'NONE', #190, 'mechanical' ) ;
#88 = AXIS2_PLACEMENT_3D ( 'NONE', #5, #195, #23 ) ;
#89 = DIRECTION ( 'NONE',  ( -1.000000000000000000, -0.000000000000000000, -0.000000000000000000 ) ) ;
#90 = CARTESIAN_POINT ( 'NONE',  ( 22.00000000000000000, 0.000000000000000000, 8.445215329410265426 ) ) ;
#91 = DIRECTION ( 'NONE',  ( 0.000000000000000000, 0.000000000000000000, 1.000000000000000000 ) ) ;
#92 = VERTEX_POINT ( 'NONE', #121 ) ;
#93 = EDGE_CURVE ( 'NONE', #153, #92, #127, .T. ) ;
#94 = CC_DESIGN_APPROVAL ( #31, ( #82 ) ) ;
#95 = DATE_AND_TIME ( #150, #185 ) ;
#96 = CONICAL_SURFACE ( 'NONE', #234, 8.552854268143402550, 0.2662520491509253739 ) ;
#97 = SECURITY_CLASSIFICATION_LEVEL ( 'unclassified' ) ;
#98 = ADVANCED_FACE ( 'NONE', ( #192 ), #64, .T. ) ;
#99 = ORIENTED_EDGE ( 'NONE', *, *, #181, .F. ) ;
#100 = PERSON ( 'UNSPECIFIED', 'UNSPECIFIED', 'UNSPECIFIED', ('UNSPECIFIED'), ('UNSPECIFIED'), ('UNSPECIFIED') ) ;
#101 = AXIS2_PLACEMENT_3D ( 'NONE', #8, #89, #131 ) ;
#102 = DIRECTION ( 'NONE',  ( 1.000000000000000000, 0.000000000000000000, 0.000000000000000000 ) ) ;
#103 = ORIENTED_EDGE ( 'NONE', *, *, #40, .F. ) ;
#104 = ADVANCED_FACE ( 'NONE', ( #210 ), #96, .F. ) ;
#105 = CARTESIAN_POINT ( 'NONE',  ( 22.00000000000000000, 0.000000000000000000, 0.000000000000000000 ) ) ;
#106 = DIRECTION ( 'NONE',  ( 1.000000000000000000, 0.000000000000000000, 0.000000000000000000 ) ) ;
#107 = EDGE_LOOP ( 'NONE', ( #33, #84, #133, #170 ) ) ;
#108 = APPLICATION_PROTOCOL_DEFINITION ( 'international standard', 'config_control_design', 1994, #190 ) ;
#109 = PERSON_AND_ORGANIZATION ( #100, #139 ) ;
#110 = AXIS2_PLACEMENT_3D ( 'NONE', #50, #144, #184 ) ;
#111 = PLANE ( 'NONE',  #14 ) ;
#112 = PERSON_AND_ORGANIZATION ( #100, #139 ) ;
#113 = COORDINATED_UNIVERSAL_TIME_OFFSET ( 1, 0, .AHEAD. ) ;
#114 = VERTEX_POINT ( 'NONE', #198 ) ;
#115 = APPROVAL_PERSON_ORGANIZATION ( #225, #156, #242 ) ;
#116 = COORDINATED_UNIVERSAL_TIME_OFFSET ( 1, 0, .AHEAD. ) ;
#117 = ORIENTED_EDGE ( 'NONE', *, *, #93, .T. ) ;
#118 = AXIS2_PLACEMENT_3D ( 'NONE', #177, #102, #6 ) ;
#119 = AXIS2_PLACEMENT_3D ( 'NONE', #21, #106, #18 ) ;
#120 = ORIENTED_EDGE ( 'NONE', *, *, #58, .F. ) ;
#121 = CARTESIAN_POINT ( 'NONE',  ( 0.000000000000000000, 1.769028671615656471E-15, -14.44521532941026720 ) ) ;
#122 = UNCERTAINTY_MEASURE_WITH_UNIT (LENGTH_MEASURE( 1.000000000000000082E-05 ), #26, 'distance_accuracy_value', 'NONE');
#123 = EDGE_LOOP ( 'NONE', ( #81, #196 ) ) ;
#124 = CARTESIAN_POINT ( 'NONE',  ( 22.00000000000000000, 0.000000000000000000, 0.000000000000000000 ) ) ;
#125 = DIRECTION ( 'NONE',  ( -0.9647638212377321887, 3.222258888032613123E-17, -0.2631174057921087939 ) ) ;
#126 = VERTEX_POINT ( 'NONE', #74 ) ;
#127 = CIRCLE ( 'NONE', #129, 14.44521532941026365 ) ;
#128 = EDGE_CURVE ( 'NONE', #158, #126, #169, .T. ) ;
#129 = AXIS2_PLACEMENT_3D ( 'NONE', #209, #161, #215 ) ;
#130 = DIRECTION ( 'NONE',  ( 1.000000000000000000, 0.000000000000000000, 0.000000000000000000 ) ) ;
#131 = DIRECTION ( 'NONE',  ( 0.000000000000000000, 0.000000000000000000, 1.000000000000000000 ) ) ;
#132 = APPROVAL_STATUS ( 'not_yet_approved' ) ;
#133 = ORIENTED_EDGE ( 'NONE', *, *, #58, .T. ) ;
#134 = PERSON_AND_ORGANIZATION ( #100, #139 ) ;
#135 = CARTESIAN_POINT ( 'NONE',  ( 22.00000000000000000, 1.401634631871450435E-15, -8.445215329410265426 ) ) ;
#136 =( GEOMETRIC_REPRESENTATION_CONTEXT ( 3 ) GLOBAL_UNCERTAINTY_ASSIGNED_CONTEXT ( ( #122 ) ) GLOBAL_UNIT_ASSIGNED_CONTEXT ( ( #26, #143, #217 ) ) REPRESENTATION_CONTEXT ( 'NONE', 'WORKASPACE' ) );
#137 = ORIENTED_EDGE ( 'NONE', *, *, #76, .T. ) ;
#138 = FACE_OUTER_BOUND ( 'NONE', #123, .T. ) ;
#139 = ORGANIZATION ( 'UNSPECIFIED', 'UNSPECIFIED', '' ) ;
#140 = VECTOR ( 'NONE', #125, 1000.000000000000000 ) ;
#141 = DIRECTION ( 'NONE',  ( 0.000000000000000000, 0.000000000000000000, -1.000000000000000000 ) ) ;
#142 = CARTESIAN_POINT ( 'NONE',  ( 21.60532389131183706, 1.047422560305559652E-15, -8.552854268143402550 ) ) ;
#143 =( NAMED_UNIT ( * ) PLANE_ANGLE_UNIT ( ) SI_UNIT ( $, .RADIAN. ) );
#144 = DIRECTION ( 'NONE',  ( 1.000000000000000000, 0.000000000000000000, 0.000000000000000000 ) ) ;
#145 = CIRCLE ( 'NONE', #7, 10.00000000000000000 ) ;
#146 = CARTESIAN_POINT ( 'NONE',  ( 0.000000000000000000, 0.000000000000000000, 0.000000000000000000 ) ) ;
#147 = ADVANCED_FACE ( 'NONE', ( #201 ), #66, .F. ) ;
#148 = APPROVAL_DATE_TIME ( #29, #31 ) ;
#149 = DIRECTION ( 'NONE',  ( 0.000000000000000000, 0.000000000000000000, -1.000000000000000000 ) ) ;
#150 = CALENDAR_DATE ( 2024, 5, 9 ) ;
#151 = SHAPE_DEFINITION_REPRESENTATION ( #35, #228 ) ;
#152 = PERSON_AND_ORGANIZATION_ROLE ( 'classification_officer' ) ;
#153 = VERTEX_POINT ( 'NONE', #223 ) ;
#154 = ORIENTED_EDGE ( 'NONE', *, *, #19, .F. ) ;
#155 = CIRCLE ( 'NONE', #44, 16.00000000000000000 ) ;
#156 = APPROVAL ( #132, 'UNSPECIFIED' ) ;
#157 = FACE_OUTER_BOUND ( 'NONE', #174, .T. ) ;
#158 = VERTEX_POINT ( 'NONE', #68 ) ;
#159 = EDGE_LOOP ( 'NONE', ( #117, #56 ) ) ;
#160 = CC_DESIGN_PERSON_AND_ORGANIZATION_ASSIGNMENT ( #205, #54, ( #78 ) ) ;
#161 = DIRECTION ( 'NONE',  ( 1.000000000000000000, 0.000000000000000000, 0.000000000000000000 ) ) ;
#162 = DIRECTION ( 'NONE',  ( -1.000000000000000000, -0.000000000000000000, -0.000000000000000000 ) ) ;
#163 = CARTESIAN_POINT ( 'NONE',  ( 0.000000000000000000, 0.000000000000000000, 0.000000000000000000 ) ) ;
#164 = DIRECTION ( 'NONE',  ( 0.000000000000000000, 0.000000000000000000, -1.000000000000000000 ) ) ;
#165 = PRODUCT_RELATED_PRODUCT_CATEGORY ( 'detail', '', ( #248 ) ) ;
#166 = ORIENTED_EDGE ( 'NONE', *, *, #128, .F. ) ;
#167 = DATE_TIME_ROLE ( 'classification_date' ) ;
#168 = PERSON_AND_ORGANIZATION_ROLE ( 'creator' ) ;
#169 = CIRCLE ( 'NONE', #212, 10.00000000000000000 ) ;
#170 = ORIENTED_EDGE ( 'NONE', *, *, #171, .F. ) ;
#171 = EDGE_CURVE ( 'NONE', #92, #153, #42, .T. ) ;
#172 = DIRECTION ( 'NONE',  ( 1.000000000000000000, 0.000000000000000000, 0.000000000000000000 ) ) ;
#173 = VECTOR ( 'NONE', #65, 1000.000000000000000 ) ;
#174 = EDGE_LOOP ( 'NONE', ( #25, #154, #36, #224 ) ) ;
#175 = DIRECTION ( 'NONE',  ( 1.000000000000000000, 0.000000000000000000, 0.000000000000000000 ) ) ;
#176 = MANIFOLD_SOLID_BREP ( 'Wandung2', #219 ) ;
#177 = CARTESIAN_POINT ( 'NONE',  ( 22.00000000000000000, 0.000000000000000000, 0.000000000000000000 ) ) ;
#178 = CIRCLE ( 'NONE', #70, 8.445215329410265426 ) ;
#179 = DIRECTION ( 'NONE',  ( 0.000000000000000000, 0.000000000000000000, -1.000000000000000000 ) ) ;
#180 = CARTESIAN_POINT ( 'NONE',  ( 22.00000000000000000, 0.000000000000000000, 0.000000000000000000 ) ) ;
#181 = EDGE_CURVE ( 'NONE', #114, #20, #216, .T. ) ;
#182 = DIRECTION ( 'NONE',  ( 1.000000000000000000, 0.000000000000000000, 0.000000000000000000 ) ) ;
#183 = APPROVAL_STATUS ( 'not_yet_approved' ) ;
#184 = DIRECTION ( 'NONE',  ( 0.000000000000000000, 0.000000000000000000, -1.000000000000000000 ) ) ;
#185 = LOCAL_TIME ( 12, 16, 48.00000000000000000, #113 ) ;
#186 = PERSON_AND_ORGANIZATION ( #100, #139 ) ;
#187 = APPROVAL_STATUS ( 'not_yet_approved' ) ;
#188 = ADVANCED_FACE ( 'NONE', ( #240, #220 ), #111, .F. ) ;
#189 = DATE_AND_TIME ( #34, #86 ) ;
#190 = APPLICATION_CONTEXT ( 'configuration controlled 3d designs of mechanical parts and assemblies' ) ;
#191 = EDGE_LOOP ( 'NONE', ( #99, #3 ) ) ;
#192 = FACE_OUTER_BOUND ( 'NONE', #207, .T. ) ;
#193 = ORIENTED_EDGE ( 'NONE', *, *, #199, .T. ) ;
#194 = ORIENTED_EDGE ( 'NONE', *, *, #27, .F. ) ;
#195 = DIRECTION ( 'NONE',  ( -1.000000000000000000, -0.000000000000000000, -0.000000000000000000 ) ) ;
#196 = ORIENTED_EDGE ( 'NONE', *, *, #128, .T. ) ;
#197 = CC_DESIGN_PERSON_AND_ORGANIZATION_ASSIGNMENT ( #134, #152, ( #4 ) ) ;
#198 = CARTESIAN_POINT ( 'NONE',  ( 0.000000000000000000, -9.797174393178825657E-16, 16.00000000000000000 ) ) ;
#199 = EDGE_CURVE ( 'NONE', #20, #114, #155, .T. ) ;
#200 = COORDINATED_UNIVERSAL_TIME_OFFSET ( 1, 0, .AHEAD. ) ;
#201 = FACE_OUTER_BOUND ( 'NONE', #247, .T. ) ;
#202 = AXIS2_PLACEMENT_3D ( 'NONE', #49, #71, #164 ) ;
#203 = EDGE_LOOP ( 'NONE', ( #235, #103 ) ) ;
#204 = CC_DESIGN_DATE_AND_TIME_ASSIGNMENT ( #77, #53, ( #82 ) ) ;
#205 = PERSON_AND_ORGANIZATION ( #100, #139 ) ;
#206 = CALENDAR_DATE ( 2024, 5, 9 ) ;
#207 = EDGE_LOOP ( 'NONE', ( #166, #213, #193, #194 ) ) ;
#208 = COORDINATED_UNIVERSAL_TIME_OFFSET ( 1, 0, .AHEAD. ) ;
#209 = CARTESIAN_POINT ( 'NONE',  ( 0.000000000000000000, 0.000000000000000000, 0.000000000000000000 ) ) ;
#210 = FACE_OUTER_BOUND ( 'NONE', #107, .T. ) ;
#211 = CARTESIAN_POINT ( 'NONE',  ( 0.000000000000000000, 2.939152317953647894E-15, -16.00000000000000000 ) ) ;
#212 = AXIS2_PLACEMENT_3D ( 'NONE', #180, #67, #72 ) ;
#213 = ORIENTED_EDGE ( 'NONE', *, *, #2, .T. ) ;
#214 = CC_DESIGN_APPROVAL ( #156, ( #4 ) ) ;
#215 = DIRECTION ( 'NONE',  ( 0.000000000000000000, 0.000000000000000000, -1.000000000000000000 ) ) ;
#216 = CIRCLE ( 'NONE', #110, 16.00000000000000000 ) ;
#217 =( NAMED_UNIT ( * ) SI_UNIT ( $, .STERADIAN. ) SOLID_ANGLE_UNIT ( ) );
#218 = VECTOR ( 'NONE', #83, 1000.000000000000000 ) ;
#219 = CLOSED_SHELL ( 'NONE', ( #147, #98, #12, #188, #62, #104 ) ) ;
#220 = FACE_OUTER_BOUND ( 'NONE', #191, .T. ) ;
#221 = CC_DESIGN_PERSON_AND_ORGANIZATION_ASSIGNMENT ( #222, #168, ( #82 ) ) ;
#222 = PERSON_AND_ORGANIZATION ( #100, #139 ) ;
#223 = CARTESIAN_POINT ( 'NONE',  ( 0.000000000000000000, 0.000000000000000000, 14.44521532941026720 ) ) ;
#224 = ORIENTED_EDGE ( 'NONE', *, *, #181, .T. ) ;
#225 = PERSON_AND_ORGANIZATION ( #100, #139 ) ;
#226 = CC_DESIGN_DATE_AND_TIME_ASSIGNMENT ( #95, #167, ( #4 ) ) ;
#227 = ORIENTED_EDGE ( 'NONE', *, *, #46, .T. ) ;
#228 = ADVANCED_BREP_SHAPE_REPRESENTATION ( '3D_M2060_32-20_174121045', ( #176, #11 ), #136 ) ;
#229 = LINE ( 'NONE', #79, #218 ) ;
#230 = CC_DESIGN_APPROVAL ( #73, ( #78 ) ) ;
#231 = CARTESIAN_POINT ( 'NONE',  ( 22.00000000000000000, 1.224646799147353256E-15, -10.00000000000000000 ) ) ;
#232 = CARTESIAN_POINT ( 'NONE',  ( 22.00000000000000000, 0.000000000000000000, 10.00000000000000000 ) ) ;
#233 = CONICAL_SURFACE ( 'NONE', #88, 10.00000000000000000, 0.2662520491509253739 ) ;
#234 = AXIS2_PLACEMENT_3D ( 'NONE', #10, #162, #30 ) ;
#235 = ORIENTED_EDGE ( 'NONE', *, *, #76, .F. ) ;
#236 = CC_DESIGN_SECURITY_CLASSIFICATION ( #4, ( #78 ) ) ;
#237 = CARTESIAN_POINT ( 'NONE',  ( 0.000000000000000000, 0.000000000000000000, 0.000000000000000000 ) ) ;
#238 = LOCAL_TIME ( 12, 16, 48.00000000000000000, #116 ) ;
#239 = CALENDAR_DATE ( 2024, 5, 9 ) ;
#240 = FACE_BOUND ( 'NONE', #159, .T. ) ;
#241 = CC_DESIGN_PERSON_AND_ORGANIZATION_ASSIGNMENT ( #45, #48, ( #248 ) ) ;
#242 = APPROVAL_ROLE ( '' ) ;
#243 = COORDINATED_UNIVERSAL_TIME_OFFSET ( 1, 0, .AHEAD. ) ;
#244 = APPROVAL_ROLE ( '' ) ;
#245 = VERTEX_POINT ( 'NONE', #90 ) ;
#246 = APPROVAL_PERSON_ORGANIZATION ( #109, #31, #13 ) ;
#247 = EDGE_LOOP ( 'NONE', ( #137, #227, #15, #120 ) ) ;
#248 = PRODUCT ( '3D_M2060_32-20_174121045', '3D_M2060_32-20_174121045', '', ( #87 ) ) ;
#249 = CARTESIAN_POINT ( 'NONE',  ( 22.00000000000000000, 0.000000000000000000, 0.000000000000000000 ) ) ;
ENDSEC;
END-ISO-10303-21;
