ISO-10303-21;
HEADER;
FILE_DESCRIPTION (( 'STEP AP203' ),
    '1' );
FILE_NAME ('3D_M2060_40-25_174121060.STEP',
    '2024-09-05T10:18:16',
    ( '' ),
    ( '' ),
    'SwSTEP 2.0',
    'SolidWorks 2024',
    '' );
FILE_SCHEMA (( 'CONFIG_CONTROL_DESIGN' ));
ENDSEC;

DATA;
#1 = PRODUCT_DEFINITION_SHAPE ( 'NONE', 'NONE',  #72 ) ;
#2 = APPROVAL_ROLE ( '' ) ;
#3 = UNCERTAINTY_MEASURE_WITH_UNIT (LENGTH_MEASURE( 1.000000000000000082E-05 ), #205, 'distance_accuracy_value', 'NONE');
#4 = ADVANCED_FACE ( 'NONE', ( #61, #46 ), #81, .F. ) ;
#5 = ORIENTED_EDGE ( 'NONE', *, *, #199, .F. ) ;
#6 = AXIS2_PLACEMENT_3D ( 'NONE', #224, #146, #89 ) ;
#7 = DIRECTION ( 'NONE',  ( 0.000000000000000000, 0.000000000000000000, -1.000000000000000000 ) ) ;
#8 = DIRECTION ( 'NONE',  ( -0.9647638212377321887, 3.222258888032611890E-17, -0.2631174057921087384 ) ) ;
#9 = CC_DESIGN_PERSON_AND_ORGANIZATION_ASSIGNMENT ( #152, #231, ( #49 ) ) ;
#10 = LOCAL_TIME ( 12, 18, 16.00000000000000000, #213 ) ;
#11 = CARTESIAN_POINT ( 'NONE',  ( 22.00000000000000000, 7.960204194457796463E-16, 13.00000000000000178 ) ) ;
#12 = CARTESIAN_POINT ( 'NONE',  ( 22.00000000000000000, 0.000000000000000000, 13.00000000000000178 ) ) ;
#13 = DIRECTION ( 'NONE',  ( 0.000000000000000000, 0.000000000000000000, 1.000000000000000000 ) ) ;
#14 = AXIS2_PLACEMENT_3D ( 'NONE', #125, #157, #7 ) ;
#15 = CIRCLE ( 'NONE', #6, 13.00000000000000178 ) ;
#16 = DATE_AND_TIME ( #187, #10 ) ;
#17 = PRODUCT ( '3D_M2060_40-25_174121060', '3D_M2060_40-25_174121060', '', ( #119 ) ) ;
#18 = DATE_AND_TIME ( #154, #108 ) ;
#19 = DATE_AND_TIME ( #171, #189 ) ;
#20 = VECTOR ( 'NONE', #88, 1000.000000000000000 ) ;
#21 = APPROVAL_DATE_TIME ( #190, #105 ) ;
#22 = PERSON_AND_ORGANIZATION_ROLE ( 'creator' ) ;
#23 = LOCAL_TIME ( 12, 18, 16.00000000000000000, #117 ) ;
#24 = ORIENTED_EDGE ( 'NONE', *, *, #161, .T. ) ;
#25 = ORIENTED_EDGE ( 'NONE', *, *, #199, .T. ) ;
#26 = DIRECTION ( 'NONE',  ( 0.000000000000000000, 0.000000000000000000, 1.000000000000000000 ) ) ;
#27 = CARTESIAN_POINT ( 'NONE',  ( 0.000000000000000000, 3.490243377569956456E-15, -19.00000000000000000 ) ) ;
#28 = CIRCLE ( 'NONE', #249, 19.00000000000000000 ) ;
#29 = DIRECTION ( 'NONE',  ( -0.9647638212377321887, 0.000000000000000000, 0.2631174057921087384 ) ) ;
#30 = DIRECTION ( 'NONE',  ( 0.000000000000000000, 0.000000000000000000, -1.000000000000000000 ) ) ;
#31 = CARTESIAN_POINT ( 'NONE',  ( 22.00000000000000000, 7.960204194457796463E-16, -13.00000000000000178 ) ) ;
#32 = DIRECTION ( 'NONE',  ( 1.000000000000000000, 0.000000000000000000, 0.000000000000000000 ) ) ;
#33 = AXIS2_PLACEMENT_3D ( 'NONE', #132, #109, #106 ) ;
#34 = COORDINATED_UNIVERSAL_TIME_OFFSET ( 1, 0, .AHEAD. ) ;
#35 = APPROVAL_STATUS ( 'not_yet_approved' ) ;
#36 = APPROVAL_STATUS ( 'not_yet_approved' ) ;
#37 = AXIS2_PLACEMENT_3D ( 'NONE', #95, #115, #248 ) ;
#38 = ADVANCED_FACE ( 'NONE', ( #236 ), #118, .F. ) ;
#39 =( NAMED_UNIT ( * ) SI_UNIT ( $, .STERADIAN. ) SOLID_ANGLE_UNIT ( ) );
#40 = CC_DESIGN_DATE_AND_TIME_ASSIGNMENT ( #172, #75, ( #72 ) ) ;
#41 = DIRECTION ( 'NONE',  ( -1.000000000000000000, -0.000000000000000000, -0.000000000000000000 ) ) ;
#42 = ORIENTED_EDGE ( 'NONE', *, *, #135, .F. ) ;
#43 = ORIENTED_EDGE ( 'NONE', *, *, #204, .T. ) ;
#44 = ADVANCED_FACE ( 'NONE', ( #140 ), #78, .T. ) ;
#45 = CIRCLE ( 'NONE', #239, 17.44521532941026720 ) ;
#46 = FACE_OUTER_BOUND ( 'NONE', #84, .T. ) ;
#47 = FACE_BOUND ( 'NONE', #155, .T. ) ;
#48 = DIRECTION ( 'NONE',  ( 1.000000000000000000, 0.000000000000000000, 0.000000000000000000 ) ) ;
#49 = PRODUCT_DEFINITION_FORMATION_WITH_SPECIFIED_SOURCE ( 'ANY', '', #17, .NOT_KNOWN. ) ;
#50 = DIRECTION ( 'NONE',  ( 0.000000000000000000, 0.000000000000000000, -1.000000000000000000 ) ) ;
#51 = CC_DESIGN_PERSON_AND_ORGANIZATION_ASSIGNMENT ( #55, #169, ( #192 ) ) ;
#52 = CARTESIAN_POINT ( 'NONE',  ( 0.000000000000000000, 0.000000000000000000, 0.000000000000000000 ) ) ;
#53 = APPROVAL ( #35, 'UNSPECIFIED' ) ;
#54 = CARTESIAN_POINT ( 'NONE',  ( 0.000000000000000000, -1.163414459189985485E-15, 19.00000000000000000 ) ) ;
#55 = PERSON_AND_ORGANIZATION ( #238, #179 ) ;
#56 = CC_DESIGN_APPROVAL ( #53, ( #72 ) ) ;
#57 = COORDINATED_UNIVERSAL_TIME_OFFSET ( 1, 0, .AHEAD. ) ;
#58 = LOCAL_TIME ( 12, 18, 16.00000000000000000, #57 ) ;
#59 = PERSON_AND_ORGANIZATION ( #238, #179 ) ;
#60 = ADVANCED_FACE ( 'NONE', ( #149 ), #229, .T. ) ;
#61 = FACE_BOUND ( 'NONE', #219, .T. ) ;
#62 = VERTEX_POINT ( 'NONE', #147 ) ;
#63 = ORIENTED_EDGE ( 'NONE', *, *, #99, .T. ) ;
#64 = CARTESIAN_POINT ( 'NONE',  ( 21.60532389131183706, 0.000000000000000000, 0.000000000000000000 ) ) ;
#65 = ORIENTED_EDGE ( 'NONE', *, *, #135, .T. ) ;
#66 = CARTESIAN_POINT ( 'NONE',  ( 22.00000000000000000, 1.769028671615656077E-15, -11.44521532941026720 ) ) ;
#67 = CARTESIAN_POINT ( 'NONE',  ( 22.00000000000000000, 0.000000000000000000, 0.000000000000000000 ) ) ;
#68 = FACE_OUTER_BOUND ( 'NONE', #193, .T. ) ;
#69 = CIRCLE ( 'NONE', #225, 17.44521532941026720 ) ;
#70 = FACE_OUTER_BOUND ( 'NONE', #142, .T. ) ;
#71 = DIRECTION ( 'NONE',  ( 0.000000000000000000, 0.000000000000000000, -1.000000000000000000 ) ) ;
#72 = PRODUCT_DEFINITION ( 'UNKNOWN', '', #49, #144 ) ;
#73 = ADVANCED_BREP_SHAPE_REPRESENTATION ( '3D_M2060_40-25_174121060', ( #173, #37 ), #206 ) ;
#74 = AXIS2_PLACEMENT_3D ( 'NONE', #240, #48, #50 ) ;
#75 = DATE_TIME_ROLE ( 'creation_date' ) ;
#76 = CALENDAR_DATE ( 2024, 5, 9 ) ;
#77 = SECURITY_CLASSIFICATION_LEVEL ( 'unclassified' ) ;
#78 = CONICAL_SURFACE ( 'NONE', #220, 13.00000000000000178, 0.2662520491509253184 ) ;
#79 = ORIENTED_EDGE ( 'NONE', *, *, #165, .F. ) ;
#80 = EDGE_LOOP ( 'NONE', ( #180, #43, #101, #121 ) ) ;
#81 = PLANE ( 'NONE',  #14 ) ;
#82 = CC_DESIGN_SECURITY_CLASSIFICATION ( #192, ( #49 ) ) ;
#83 = EDGE_CURVE ( 'NONE', #143, #234, #28, .T. ) ;
#84 = EDGE_LOOP ( 'NONE', ( #181, #178 ) ) ;
#85 = ORIENTED_EDGE ( 'NONE', *, *, #235, .T. ) ;
#86 = CARTESIAN_POINT ( 'NONE',  ( 0.000000000000000000, 0.000000000000000000, 0.000000000000000000 ) ) ;
#87 = CIRCLE ( 'NONE', #74, 13.00000000000000178 ) ;
#88 = DIRECTION ( 'NONE',  ( -0.9647638212377321887, 3.222258888032611890E-17, -0.2631174057921087384 ) ) ;
#89 = DIRECTION ( 'NONE',  ( 0.000000000000000000, 0.000000000000000000, -1.000000000000000000 ) ) ;
#90 = DIRECTION ( 'NONE',  ( -0.9647638212377321887, 0.000000000000000000, 0.2631174057921087384 ) ) ;
#91 = CARTESIAN_POINT ( 'NONE',  ( 22.00000000000000000, 0.000000000000000000, 11.44521532941026720 ) ) ;
#92 = EDGE_CURVE ( 'NONE', #234, #143, #163, .T. ) ;
#93 = APPROVAL_DATE_TIME ( #16, #96 ) ;
#94 = SHAPE_DEFINITION_REPRESENTATION ( #1, #73 ) ;
#95 = CARTESIAN_POINT ( 'NONE',  ( 0.000000000000000000, 0.000000000000000000, 0.000000000000000000 ) ) ;
#96 = APPROVAL ( #139, 'UNSPECIFIED' ) ;
#97 =( NAMED_UNIT ( * ) PLANE_ANGLE_UNIT ( ) SI_UNIT ( $, .RADIAN. ) );
#98 = APPROVAL_DATE_TIME ( #19, #53 ) ;
#99 = EDGE_CURVE ( 'NONE', #160, #177, #15, .T. ) ;
#100 = AXIS2_PLACEMENT_3D ( 'NONE', #67, #200, #243 ) ;
#101 = ORIENTED_EDGE ( 'NONE', *, *, #83, .T. ) ;
#102 = VERTEX_POINT ( 'NONE', #66 ) ;
#103 = ORIENTED_EDGE ( 'NONE', *, *, #175, .F. ) ;
#104 = CARTESIAN_POINT ( 'NONE',  ( 22.00000000000000000, 0.000000000000000000, 0.000000000000000000 ) ) ;
#105 = APPROVAL ( #36, 'UNSPECIFIED' ) ;
#106 = DIRECTION ( 'NONE',  ( 0.000000000000000000, 0.000000000000000000, -1.000000000000000000 ) ) ;
#107 = PRODUCT_RELATED_PRODUCT_CATEGORY ( 'detail', '', ( #17 ) ) ;
#108 = LOCAL_TIME ( 12, 18, 16.00000000000000000, #34 ) ;
#109 = DIRECTION ( 'NONE',  ( 1.000000000000000000, 0.000000000000000000, 0.000000000000000000 ) ) ;
#110 = LINE ( 'NONE', #184, #20 ) ;
#111 = CC_DESIGN_PERSON_AND_ORGANIZATION_ASSIGNMENT ( #151, #230, ( #17 ) ) ;
#112 = DIRECTION ( 'NONE',  ( 0.000000000000000000, 0.000000000000000000, -1.000000000000000000 ) ) ;
#113 = AXIS2_PLACEMENT_3D ( 'NONE', #127, #164, #133 ) ;
#114 = CARTESIAN_POINT ( 'NONE',  ( 22.00000000000000000, 0.000000000000000000, 0.000000000000000000 ) ) ;
#115 = DIRECTION ( 'NONE',  ( 0.000000000000000000, 0.000000000000000000, 1.000000000000000000 ) ) ;
#116 = PERSON_AND_ORGANIZATION ( #238, #179 ) ;
#117 = COORDINATED_UNIVERSAL_TIME_OFFSET ( 1, 0, .AHEAD. ) ;
#118 = CONICAL_SURFACE ( 'NONE', #182, 11.55285426814340255, 0.2662520491509253184 ) ;
#119 = MECHANICAL_CONTEXT ( 'NONE', #241, 'mechanical' ) ;
#120 = CIRCLE ( 'NONE', #100, 11.44521532941026720 ) ;
#121 = ORIENTED_EDGE ( 'NONE', *, *, #209, .F. ) ;
#122 = ORIENTED_EDGE ( 'NONE', *, *, #209, .T. ) ;
#123 = CLOSED_SHELL ( 'NONE', ( #196, #60, #153, #4, #44, #38 ) ) ;
#124 = AXIS2_PLACEMENT_3D ( 'NONE', #114, #227, #13 ) ;
#125 = CARTESIAN_POINT ( 'NONE',  ( 0.000000000000000000, 0.000000000000000000, 0.000000000000000000 ) ) ;
#126 = CC_DESIGN_PERSON_AND_ORGANIZATION_ASSIGNMENT ( #137, #212, ( #49 ) ) ;
#127 = CARTESIAN_POINT ( 'NONE',  ( 21.60532389131183706, 0.000000000000000000, 0.000000000000000000 ) ) ;
#128 = DIRECTION ( 'NONE',  ( 1.000000000000000000, 0.000000000000000000, 0.000000000000000000 ) ) ;
#129 = VECTOR ( 'NONE', #8, 1000.000000000000000 ) ;
#130 = CARTESIAN_POINT ( 'NONE',  ( 21.60532389131183706, 1.414816600049765688E-15, -11.55285426814340255 ) ) ;
#131 = EDGE_CURVE ( 'NONE', #177, #160, #87, .T. ) ;
#132 = CARTESIAN_POINT ( 'NONE',  ( 22.00000000000000000, 0.000000000000000000, 0.000000000000000000 ) ) ;
#133 = DIRECTION ( 'NONE',  ( 0.000000000000000000, 0.000000000000000000, 1.000000000000000000 ) ) ;
#134 = VECTOR ( 'NONE', #90, 1000.000000000000000 ) ;
#135 = EDGE_CURVE ( 'NONE', #102, #217, #120, .T. ) ;
#136 = APPROVAL_ROLE ( '' ) ;
#137 = PERSON_AND_ORGANIZATION ( #238, #179 ) ;
#138 = CC_DESIGN_APPROVAL ( #105, ( #49 ) ) ;
#139 = APPROVAL_STATUS ( 'not_yet_approved' ) ;
#140 = FACE_OUTER_BOUND ( 'NONE', #218, .T. ) ;
#141 = ORIENTED_EDGE ( 'NONE', *, *, #131, .F. ) ;
#142 = EDGE_LOOP ( 'NONE', ( #156, #63 ) ) ;
#143 = VERTEX_POINT ( 'NONE', #27 ) ;
#144 = DESIGN_CONTEXT ( 'detailed design', #194, 'design' ) ;
#145 = CARTESIAN_POINT ( 'NONE',  ( 21.60532389131183706, 0.000000000000000000, 11.55285426814340255 ) ) ;
#146 = DIRECTION ( 'NONE',  ( 1.000000000000000000, 0.000000000000000000, 0.000000000000000000 ) ) ;
#147 = CARTESIAN_POINT ( 'NONE',  ( 0.000000000000000000, 0.000000000000000000, 17.44521532941026720 ) ) ;
#148 = CIRCLE ( 'NONE', #174, 11.44521532941026720 ) ;
#149 = FACE_OUTER_BOUND ( 'NONE', #80, .T. ) ;
#150 = CC_DESIGN_APPROVAL ( #96, ( #192 ) ) ;
#151 = PERSON_AND_ORGANIZATION ( #238, #179 ) ;
#152 = PERSON_AND_ORGANIZATION ( #238, #179 ) ;
#153 = ADVANCED_FACE ( 'NONE', ( #47, #70 ), #226, .T. ) ;
#154 = CALENDAR_DATE ( 2024, 5, 9 ) ;
#155 = EDGE_LOOP ( 'NONE', ( #5, #42 ) ) ;
#156 = ORIENTED_EDGE ( 'NONE', *, *, #131, .T. ) ;
#157 = DIRECTION ( 'NONE',  ( 1.000000000000000000, 0.000000000000000000, 0.000000000000000000 ) ) ;
#158 = VECTOR ( 'NONE', #29, 1000.000000000000000 ) ;
#159 = ORIENTED_EDGE ( 'NONE', *, *, #204, .F. ) ;
#160 = VERTEX_POINT ( 'NONE', #31 ) ;
#161 = EDGE_CURVE ( 'NONE', #217, #62, #223, .T. ) ;
#162 = DIRECTION ( 'NONE',  ( 0.000000000000000000, 0.000000000000000000, -1.000000000000000000 ) ) ;
#163 = CIRCLE ( 'NONE', #245, 19.00000000000000000 ) ;
#164 = DIRECTION ( 'NONE',  ( -1.000000000000000000, -0.000000000000000000, -0.000000000000000000 ) ) ;
#165 = EDGE_CURVE ( 'NONE', #102, #233, #166, .T. ) ;
#166 = LINE ( 'NONE', #130, #129 ) ;
#167 = CARTESIAN_POINT ( 'NONE',  ( 0.000000000000000000, 0.000000000000000000, 0.000000000000000000 ) ) ;
#168 = DIRECTION ( 'NONE',  ( 1.000000000000000000, 0.000000000000000000, 0.000000000000000000 ) ) ;
#169 = PERSON_AND_ORGANIZATION_ROLE ( 'classification_officer' ) ;
#170 = APPLICATION_PROTOCOL_DEFINITION ( 'international standard', 'config_control_design', 1994, #194 ) ;
#171 = CALENDAR_DATE ( 2024, 5, 9 ) ;
#172 = DATE_AND_TIME ( #76, #58 ) ;
#173 = MANIFOLD_SOLID_BREP ( 'Wandung2', #123 ) ;
#174 = AXIS2_PLACEMENT_3D ( 'NONE', #202, #32, #30 ) ;
#175 = EDGE_CURVE ( 'NONE', #233, #62, #45, .T. ) ;
#176 = ORIENTED_EDGE ( 'NONE', *, *, #161, .F. ) ;
#177 = VERTEX_POINT ( 'NONE', #11 ) ;
#178 = ORIENTED_EDGE ( 'NONE', *, *, #83, .F. ) ;
#179 = ORGANIZATION ( 'UNSPECIFIED', 'UNSPECIFIED', '' ) ;
#180 = ORIENTED_EDGE ( 'NONE', *, *, #99, .F. ) ;
#181 = ORIENTED_EDGE ( 'NONE', *, *, #92, .F. ) ;
#182 = AXIS2_PLACEMENT_3D ( 'NONE', #64, #198, #26 ) ;
#183 = CARTESIAN_POINT ( 'NONE',  ( 0.000000000000000000, 0.000000000000000000, 0.000000000000000000 ) ) ;
#184 = CARTESIAN_POINT ( 'NONE',  ( 22.00000000000000000, 1.592040838891559293E-15, -13.00000000000000178 ) ) ;
#185 = LINE ( 'NONE', #12, #134 ) ;
#186 = CONICAL_SURFACE ( 'NONE', #113, 11.55285426814340255, 0.2662520491509253184 ) ;
#187 = CALENDAR_DATE ( 2024, 5, 9 ) ;
#188 = APPLICATION_PROTOCOL_DEFINITION ( 'international standard', 'config_control_design', 1994, #241 ) ;
#189 = LOCAL_TIME ( 12, 18, 16.00000000000000000, #228 ) ;
#190 = DATE_AND_TIME ( #207, #23 ) ;
#191 = CC_DESIGN_PERSON_AND_ORGANIZATION_ASSIGNMENT ( #116, #22, ( #72 ) ) ;
#192 = SECURITY_CLASSIFICATION ( '', '', #77 ) ;
#193 = EDGE_LOOP ( 'NONE', ( #25, #214, #195, #176 ) ) ;
#194 = APPLICATION_CONTEXT ( 'configuration controlled 3d designs of mechanical parts and assemblies' ) ;
#195 = ORIENTED_EDGE ( 'NONE', *, *, #235, .F. ) ;
#196 = ADVANCED_FACE ( 'NONE', ( #68 ), #186, .F. ) ;
#197 = ORIENTED_EDGE ( 'NONE', *, *, #175, .T. ) ;
#198 = DIRECTION ( 'NONE',  ( -1.000000000000000000, -0.000000000000000000, -0.000000000000000000 ) ) ;
#199 = EDGE_CURVE ( 'NONE', #217, #102, #148, .T. ) ;
#200 = DIRECTION ( 'NONE',  ( 1.000000000000000000, 0.000000000000000000, 0.000000000000000000 ) ) ;
#201 = APPROVAL_PERSON_ORGANIZATION ( #59, #96, #247 ) ;
#202 = CARTESIAN_POINT ( 'NONE',  ( 22.00000000000000000, 0.000000000000000000, 0.000000000000000000 ) ) ;
#203 = DIRECTION ( 'NONE',  ( 1.000000000000000000, 0.000000000000000000, 0.000000000000000000 ) ) ;
#204 = EDGE_CURVE ( 'NONE', #160, #143, #110, .T. ) ;
#205 =( LENGTH_UNIT ( ) NAMED_UNIT ( * ) SI_UNIT ( .MILLI., .METRE. ) );
#206 =( GEOMETRIC_REPRESENTATION_CONTEXT ( 3 ) GLOBAL_UNCERTAINTY_ASSIGNED_CONTEXT ( ( #3 ) ) GLOBAL_UNIT_ASSIGNED_CONTEXT ( ( #205, #97, #39 ) ) REPRESENTATION_CONTEXT ( 'NONE', 'WORKASPACE' ) );
#207 = CALENDAR_DATE ( 2024, 5, 9 ) ;
#208 = PERSON_AND_ORGANIZATION ( #238, #179 ) ;
#209 = EDGE_CURVE ( 'NONE', #177, #234, #185, .T. ) ;
#210 = PERSON_AND_ORGANIZATION ( #238, #179 ) ;
#211 = APPROVAL_PERSON_ORGANIZATION ( #210, #105, #2 ) ;
#212 = PERSON_AND_ORGANIZATION_ROLE ( 'design_supplier' ) ;
#213 = COORDINATED_UNIVERSAL_TIME_OFFSET ( 1, 0, .AHEAD. ) ;
#214 = ORIENTED_EDGE ( 'NONE', *, *, #165, .T. ) ;
#215 = APPROVAL_PERSON_ORGANIZATION ( #208, #53, #136 ) ;
#216 = ORIENTED_EDGE ( 'NONE', *, *, #92, .T. ) ;
#217 = VERTEX_POINT ( 'NONE', #91 ) ;
#218 = EDGE_LOOP ( 'NONE', ( #159, #141, #122, #216 ) ) ;
#219 = EDGE_LOOP ( 'NONE', ( #85, #197 ) ) ;
#220 = AXIS2_PLACEMENT_3D ( 'NONE', #104, #41, #242 ) ;
#221 = DIRECTION ( 'NONE',  ( 1.000000000000000000, 0.000000000000000000, 0.000000000000000000 ) ) ;
#222 = CC_DESIGN_DATE_AND_TIME_ASSIGNMENT ( #18, #232, ( #192 ) ) ;
#223 = LINE ( 'NONE', #145, #158 ) ;
#224 = CARTESIAN_POINT ( 'NONE',  ( 22.00000000000000000, 0.000000000000000000, 0.000000000000000000 ) ) ;
#225 = AXIS2_PLACEMENT_3D ( 'NONE', #167, #168, #71 ) ;
#226 = PLANE ( 'NONE',  #33 ) ;
#227 = DIRECTION ( 'NONE',  ( -1.000000000000000000, -0.000000000000000000, -0.000000000000000000 ) ) ;
#228 = COORDINATED_UNIVERSAL_TIME_OFFSET ( 1, 0, .AHEAD. ) ;
#229 = CONICAL_SURFACE ( 'NONE', #124, 13.00000000000000178, 0.2662520491509253184 ) ;
#230 = PERSON_AND_ORGANIZATION_ROLE ( 'design_owner' ) ;
#231 = PERSON_AND_ORGANIZATION_ROLE ( 'creator' ) ;
#232 = DATE_TIME_ROLE ( 'classification_date' ) ;
#233 = VERTEX_POINT ( 'NONE', #246 ) ;
#234 = VERTEX_POINT ( 'NONE', #54 ) ;
#235 = EDGE_CURVE ( 'NONE', #62, #233, #69, .T. ) ;
#236 = FACE_OUTER_BOUND ( 'NONE', #237, .T. ) ;
#237 = EDGE_LOOP ( 'NONE', ( #79, #65, #24, #103 ) ) ;
#238 = PERSON ( 'UNSPECIFIED', 'UNSPECIFIED', 'UNSPECIFIED', ('UNSPECIFIED'), ('UNSPECIFIED'), ('UNSPECIFIED') ) ;
#239 = AXIS2_PLACEMENT_3D ( 'NONE', #183, #221, #112 ) ;
#240 = CARTESIAN_POINT ( 'NONE',  ( 22.00000000000000000, 0.000000000000000000, 0.000000000000000000 ) ) ;
#241 = APPLICATION_CONTEXT ( 'configuration controlled 3d designs of mechanical parts and assemblies' ) ;
#242 = DIRECTION ( 'NONE',  ( 0.000000000000000000, 0.000000000000000000, 1.000000000000000000 ) ) ;
#243 = DIRECTION ( 'NONE',  ( 0.000000000000000000, 0.000000000000000000, -1.000000000000000000 ) ) ;
#244 = DIRECTION ( 'NONE',  ( 0.000000000000000000, 0.000000000000000000, -1.000000000000000000 ) ) ;
#245 = AXIS2_PLACEMENT_3D ( 'NONE', #52, #128, #244 ) ;
#246 = CARTESIAN_POINT ( 'NONE',  ( 0.000000000000000000, 2.136422711359862507E-15, -17.44521532941026720 ) ) ;
#247 = APPROVAL_ROLE ( '' ) ;
#248 = DIRECTION ( 'NONE',  ( 1.000000000000000000, 0.000000000000000000, 0.000000000000000000 ) ) ;
#249 = AXIS2_PLACEMENT_3D ( 'NONE', #86, #203, #162 ) ;
ENDSEC;
END-ISO-10303-21;
