ISO-10303-21;
HEADER;
FILE_DESCRIPTION (( 'STEP AP203' ),
    '1' );
FILE_NAME ('3D_GR1382_DN20x1.5_18380296.STEP',
    '2024-09-23T05:59:14',
    ( '' ),
    ( '' ),
    'SwSTEP 2.0',
    'SolidWorks 2024',
    '' );
FILE_SCHEMA (( 'CONFIG_CONTROL_DESIGN' ));
ENDSEC;

DATA;
#1 = ORIENTED_EDGE ( 'NONE', *, *, #158, .F. ) ;
#2 = CARTESIAN_POINT ( 'NONE',  ( 0.000000000000000000, 0.000000000000000000, 0.000000000000000000 ) ) ;
#3 = CIRCLE ( 'NONE', #52, 9.500000000000019540 ) ;
#4 = EDGE_LOOP ( 'NONE', ( #60, #334, #31, #252 ) ) ;
#5 = EDGE_CURVE ( 'NONE', #283, #231, #274, .T. ) ;
#6 = CARTESIAN_POINT ( 'NONE',  ( -3.000000000000557776, 1.194030629168671836E-15, -9.500000000000019540 ) ) ;
#7 = ORIENTED_EDGE ( 'NONE', *, *, #304, .F. ) ;
#8 = DIRECTION ( 'NONE',  ( 0.000000000000000000, 0.000000000000000000, 1.000000000000000000 ) ) ;
#9 = PRODUCT_DEFINITION_FORMATION_WITH_SPECIFIED_SOURCE ( 'ANY', '', #204, .NOT_KNOWN. ) ;
#10 = EDGE_CURVE ( 'NONE', #202, #35, #187, .T. ) ;
#11 = AXIS2_PLACEMENT_3D ( 'NONE', #2, #114, #150 ) ;
#12 = APPROVAL_ROLE ( '' ) ;
#13 = DIRECTION ( 'NONE',  ( -1.000000000000000000, -0.000000000000000000, -0.000000000000000000 ) ) ;
#14 =( NAMED_UNIT ( * ) PLANE_ANGLE_UNIT ( ) SI_UNIT ( $, .RADIAN. ) );
#15 = CARTESIAN_POINT ( 'NONE',  ( 0.000000000000000000, 1.224646799147355426E-15, -10.00000000000001954 ) ) ;
#16 = CIRCLE ( 'NONE', #155, 9.500000000000019540 ) ;
#17 = PERSON_AND_ORGANIZATION ( #250, #131 ) ;
#18 = APPROVAL_PERSON_ORGANIZATION ( #119, #309, #12 ) ;
#19 = PRODUCT_DEFINITION ( 'UNKNOWN', '', #9, #243 ) ;
#20 = VECTOR ( 'NONE', #263, 1000.000000000000114 ) ;
#21 = CALENDAR_DATE ( 2024, 23, 9 ) ;
#22 = ORIENTED_EDGE ( 'NONE', *, *, #72, .T. ) ;
#23 = DIRECTION ( 'NONE',  ( -1.000000000000000000, -0.000000000000000000, -0.000000000000000000 ) ) ;
#24 = EDGE_LOOP ( 'NONE', ( #191, #51, #104, #7 ) ) ;
#25 = EDGE_LOOP ( 'NONE', ( #108, #194, #99, #107 ) ) ;
#26 = LOCAL_TIME ( 7, 59, 14.00000000000000000, #192 ) ;
#27 = ORIENTED_EDGE ( 'NONE', *, *, #268, .T. ) ;
#28 = COORDINATED_UNIVERSAL_TIME_OFFSET ( 1, 0, .AHEAD. ) ;
#29 = DIRECTION ( 'NONE',  ( -1.000000000000000000, -0.000000000000000000, -0.000000000000000000 ) ) ;
#30 = CC_DESIGN_SECURITY_CLASSIFICATION ( #254, ( #9 ) ) ;
#31 = ORIENTED_EDGE ( 'NONE', *, *, #34, .T. ) ;
#32 = APPLICATION_CONTEXT ( 'configuration controlled 3d designs of mechanical parts and assemblies' ) ;
#33 = CARTESIAN_POINT ( 'NONE',  ( -2.500000000000552891, 0.000000000000000000, 0.000000000000000000 ) ) ;
#34 = EDGE_CURVE ( 'NONE', #356, #133, #223, .T. ) ;
#35 = VERTEX_POINT ( 'NONE', #311 ) ;
#36 = CARTESIAN_POINT ( 'NONE',  ( -154.8395502972293230, 1.040949779275252901E-15, -8.500000000000021316 ) ) ;
#37 = ORIENTED_EDGE ( 'NONE', *, *, #320, .F. ) ;
#38 = CARTESIAN_POINT ( 'NONE',  ( -154.8395502972293230, 0.000000000000000000, 0.000000000000000000 ) ) ;
#39 = EDGE_CURVE ( 'NONE', #332, #308, #208, .T. ) ;
#40 = PLANE ( 'NONE',  #132 ) ;
#41 = CARTESIAN_POINT ( 'NONE',  ( -2.500000000000557332, 0.000000000000000000, 0.000000000000000000 ) ) ;
#42 = DIRECTION ( 'NONE',  ( 0.000000000000000000, 0.000000000000000000, -1.000000000000000000 ) ) ;
#43 = DIRECTION ( 'NONE',  ( 0.000000000000000000, 0.000000000000000000, -1.000000000000000000 ) ) ;
#44 = ADVANCED_FACE ( 'NONE', ( #307 ), #138, .T. ) ;
#45 = FACE_OUTER_BOUND ( 'NONE', #167, .T. ) ;
#46 = DIRECTION ( 'NONE',  ( -1.000000000000000000, -0.000000000000000000, -0.000000000000000000 ) ) ;
#47 = VECTOR ( 'NONE', #225, 1000.000000000000000 ) ;
#48 = APPLICATION_PROTOCOL_DEFINITION ( 'international standard', 'config_control_design', 1994, #32 ) ;
#49 = CC_DESIGN_DATE_AND_TIME_ASSIGNMENT ( #273, #222, ( #19 ) ) ;
#50 = VECTOR ( 'NONE', #277, 1000.000000000000000 ) ;
#51 = ORIENTED_EDGE ( 'NONE', *, *, #39, .T. ) ;
#52 = AXIS2_PLACEMENT_3D ( 'NONE', #118, #91, #198 ) ;
#53 = SHAPE_DEFINITION_REPRESENTATION ( #292, #102 ) ;
#54 = DIRECTION ( 'NONE',  ( -1.000000000000000000, -0.000000000000000000, -0.000000000000000000 ) ) ;
#55 = APPLICATION_CONTEXT ( 'configuration controlled 3d designs of mechanical parts and assemblies' ) ;
#56 = ORIENTED_EDGE ( 'NONE', *, *, #62, .F. ) ;
#57 = CARTESIAN_POINT ( 'NONE',  ( 7.000000000002282619, 0.000000000000000000, 0.000000000000000000 ) ) ;
#58 = ORIENTED_EDGE ( 'NONE', *, *, #122, .F. ) ;
#59 = PERSON_AND_ORGANIZATION ( #250, #131 ) ;
#60 = ORIENTED_EDGE ( 'NONE', *, *, #5, .F. ) ;
#61 = DIRECTION ( 'NONE',  ( 0.000000000000000000, 0.000000000000000000, 1.000000000000000000 ) ) ;
#62 = EDGE_CURVE ( 'NONE', #229, #228, #16, .T. ) ;
#63 = ORIENTED_EDGE ( 'NONE', *, *, #304, .T. ) ;
#64 = DIRECTION ( 'NONE',  ( 0.000000000000000000, 0.000000000000000000, 1.000000000000000000 ) ) ;
#65 = DIRECTION ( 'NONE',  ( -0.000000000000000000, 0.000000000000000000, 1.000000000000000000 ) ) ;
#66 = FACE_BOUND ( 'NONE', #162, .T. ) ;
#67 = CLOSED_SHELL ( 'NONE', ( #205, #232, #136, #75, #171, #44, #109, #95, #329, #175, #240 ) ) ;
#68 = CARTESIAN_POINT ( 'NONE',  ( -2.500000000000557332, 1.224646799147355426E-15, -10.00000000000001954 ) ) ;
#69 = CC_DESIGN_APPROVAL ( #309, ( #19 ) ) ;
#70 = CARTESIAN_POINT ( 'NONE',  ( -2.500000000000557332, 0.000000000000000000, 0.000000000000000000 ) ) ;
#71 = APPLICATION_PROTOCOL_DEFINITION ( 'international standard', 'config_control_design', 1994, #55 ) ;
#72 = EDGE_CURVE ( 'NONE', #88, #140, #328, .T. ) ;
#73 = DIRECTION ( 'NONE',  ( 0.000000000000000000, 0.000000000000000000, 1.000000000000000000 ) ) ;
#74 = DIRECTION ( 'NONE',  ( 0.000000000000000000, -1.224646799147353454E-16, 1.000000000000000000 ) ) ;
#75 = ADVANCED_FACE ( 'NONE', ( #159 ), #173, .T. ) ;
#76 = PERSON_AND_ORGANIZATION ( #250, #131 ) ;
#77 = DATE_AND_TIME ( #325, #127 ) ;
#78 = CARTESIAN_POINT ( 'NONE',  ( -3.000000000000557776, 0.000000000000000000, 0.000000000000000000 ) ) ;
#79 = PERSON_AND_ORGANIZATION ( #250, #131 ) ;
#80 = CC_DESIGN_PERSON_AND_ORGANIZATION_ASSIGNMENT ( #249, #310, ( #254 ) ) ;
#81 = AXIS2_PLACEMENT_3D ( 'NONE', #344, #177, #42 ) ;
#82 = APPROVAL_PERSON_ORGANIZATION ( #79, #190, #103 ) ;
#83 = APPROVAL_DATE_TIME ( #77, #341 ) ;
#84 = EDGE_CURVE ( 'NONE', #356, #283, #206, .T. ) ;
#85 = DIRECTION ( 'NONE',  ( -1.000000000000000000, -0.000000000000000000, -0.000000000000000000 ) ) ;
#86 = ORIENTED_EDGE ( 'NONE', *, *, #349, .T. ) ;
#87 = FACE_OUTER_BOUND ( 'NONE', #25, .T. ) ;
#88 = VERTEX_POINT ( 'NONE', #285 ) ;
#89 = DIRECTION ( 'NONE',  ( -1.000000000000000000, -0.000000000000000000, -0.000000000000000000 ) ) ;
#90 = DIRECTION ( 'NONE',  ( -1.000000000000000000, -0.000000000000000000, -0.000000000000000000 ) ) ;
#91 = DIRECTION ( 'NONE',  ( -1.000000000000000000, -0.000000000000000000, -0.000000000000000000 ) ) ;
#92 = AXIS2_PLACEMENT_3D ( 'NONE', #255, #29, #189 ) ;
#93 = AXIS2_PLACEMENT_3D ( 'NONE', #70, #297, #153 ) ;
#94 = CARTESIAN_POINT ( 'NONE',  ( 6.000000000002280842, 0.000000000000000000, 0.000000000000000000 ) ) ;
#95 = ADVANCED_FACE ( 'NONE', ( #287, #66 ), #111, .F. ) ;
#96 = AXIS2_PLACEMENT_3D ( 'NONE', #295, #323, #43 ) ;
#97 = CARTESIAN_POINT ( 'NONE',  ( 0.000000000000000000, 0.000000000000000000, 0.000000000000000000 ) ) ;
#98 = CC_DESIGN_DATE_AND_TIME_ASSIGNMENT ( #276, #224, ( #254 ) ) ;
#99 = ORIENTED_EDGE ( 'NONE', *, *, #213, .F. ) ;
#100 = DIRECTION ( 'NONE',  ( 1.000000000000000000, 0.000000000000000000, 0.000000000000000000 ) ) ;
#101 = VECTOR ( 'NONE', #170, 1000.000000000000000 ) ;
#102 = ADVANCED_BREP_SHAPE_REPRESENTATION ( '3D_GR1382_DN20x1.5_18380296', ( #181, #125 ), #142 ) ;
#103 = APPROVAL_ROLE ( '' ) ;
#104 = ORIENTED_EDGE ( 'NONE', *, *, #199, .T. ) ;
#105 = APPROVAL_STATUS ( 'not_yet_approved' ) ;
#106 = CC_DESIGN_PERSON_AND_ORGANIZATION_ASSIGNMENT ( #76, #298, ( #204 ) ) ;
#107 = ORIENTED_EDGE ( 'NONE', *, *, #349, .F. ) ;
#108 = ORIENTED_EDGE ( 'NONE', *, *, #158, .T. ) ;
#109 = ADVANCED_FACE ( 'NONE', ( #234 ), #195, .T. ) ;
#110 = ORIENTED_EDGE ( 'NONE', *, *, #129, .T. ) ;
#111 = PLANE ( 'NONE',  #355 ) ;
#112 = LOCAL_TIME ( 7, 59, 14.00000000000000000, #28 ) ;
#113 = ORIENTED_EDGE ( 'NONE', *, *, #184, .F. ) ;
#114 = DIRECTION ( 'NONE',  ( -1.000000000000000000, -0.000000000000000000, -0.000000000000000000 ) ) ;
#115 = ORIENTED_EDGE ( 'NONE', *, *, #10, .F. ) ;
#116 = FACE_OUTER_BOUND ( 'NONE', #305, .T. ) ;
#117 = FACE_OUTER_BOUND ( 'NONE', #145, .T. ) ;
#118 = CARTESIAN_POINT ( 'NONE',  ( -3.000000000000557776, 0.000000000000000000, 0.000000000000000000 ) ) ;
#119 = PERSON_AND_ORGANIZATION ( #250, #131 ) ;
#120 = AXIS2_PLACEMENT_3D ( 'NONE', #38, #85, #147 ) ;
#121 = CIRCLE ( 'NONE', #81, 0.5000000000000004441 ) ;
#122 = EDGE_CURVE ( 'NONE', #35, #202, #226, .T. ) ;
#123 = UNCERTAINTY_MEASURE_WITH_UNIT (LENGTH_MEASURE( 1.000000000000000082E-05 ), #343, 'distance_accuracy_value', 'NONE');
#124 = MECHANICAL_CONTEXT ( 'NONE', #55, 'mechanical' ) ;
#125 = AXIS2_PLACEMENT_3D ( 'NONE', #97, #347, #100 ) ;
#126 = APPROVAL_ROLE ( '' ) ;
#127 = LOCAL_TIME ( 7, 59, 14.00000000000000000, #161 ) ;
#128 = DATE_AND_TIME ( #306, #26 ) ;
#129 = EDGE_CURVE ( 'NONE', #88, #35, #339, .T. ) ;
#130 = CALENDAR_DATE ( 2024, 23, 9 ) ;
#131 = ORGANIZATION ( 'UNSPECIFIED', 'UNSPECIFIED', '' ) ;
#132 = AXIS2_PLACEMENT_3D ( 'NONE', #174, #317, #65 ) ;
#133 = VERTEX_POINT ( 'NONE', #338 ) ;
#134 = APPROVAL_STATUS ( 'not_yet_approved' ) ;
#135 = DIRECTION ( 'NONE',  ( 0.000000000000000000, 0.000000000000000000, 1.000000000000000000 ) ) ;
#136 = ADVANCED_FACE ( 'NONE', ( #313 ), #331, .T. ) ;
#137 = ORIENTED_EDGE ( 'NONE', *, *, #62, .T. ) ;
#138 = CONICAL_SURFACE ( 'NONE', #340, 7.500000000000020428, 0.7853981633974482790 ) ;
#139 = DIRECTION ( 'NONE',  ( 0.000000000000000000, 0.000000000000000000, 1.000000000000000000 ) ) ;
#140 = VERTEX_POINT ( 'NONE', #333 ) ;
#141 = DIRECTION ( 'NONE',  ( -1.000000000000000000, 0.000000000000000000, -0.000000000000000000 ) ) ;
#142 =( GEOMETRIC_REPRESENTATION_CONTEXT ( 3 ) GLOBAL_UNCERTAINTY_ASSIGNED_CONTEXT ( ( #123 ) ) GLOBAL_UNIT_ASSIGNED_CONTEXT ( ( #343, #14, #211 ) ) REPRESENTATION_CONTEXT ( 'NONE', 'WORKASPACE' ) );
#143 = ORIENTED_EDGE ( 'NONE', *, *, #34, .F. ) ;
#144 = DIRECTION ( 'NONE',  ( -1.000000000000000000, -0.000000000000000000, -0.000000000000000000 ) ) ;
#145 = EDGE_LOOP ( 'NONE', ( #37, #27, #86, #56 ) ) ;
#146 = CC_DESIGN_PERSON_AND_ORGANIZATION_ASSIGNMENT ( #163, #185, ( #9 ) ) ;
#147 = DIRECTION ( 'NONE',  ( 0.000000000000000000, 0.000000000000000000, 1.000000000000000000 ) ) ;
#148 = DIRECTION ( 'NONE',  ( -1.000000000000000000, -0.000000000000000000, -0.000000000000000000 ) ) ;
#149 = CIRCLE ( 'NONE', #93, 10.00000000000001954 ) ;
#150 = DIRECTION ( 'NONE',  ( 0.000000000000000000, 0.000000000000000000, 1.000000000000000000 ) ) ;
#151 = CARTESIAN_POINT ( 'NONE',  ( 0.000000000000000000, 0.000000000000000000, 10.00000000000001954 ) ) ;
#152 = CARTESIAN_POINT ( 'NONE',  ( 7.000000000002282619, 0.000000000000000000, 0.000000000000000000 ) ) ;
#153 = DIRECTION ( 'NONE',  ( 0.000000000000000000, 0.000000000000000000, 1.000000000000000000 ) ) ;
#154 = FACE_OUTER_BOUND ( 'NONE', #4, .T. ) ;
#155 = AXIS2_PLACEMENT_3D ( 'NONE', #78, #357, #303 ) ;
#156 = APPROVAL_STATUS ( 'not_yet_approved' ) ;
#157 = CARTESIAN_POINT ( 'NONE',  ( 6.000000000002280842, 0.000000000000000000, 0.000000000000000000 ) ) ;
#158 = EDGE_CURVE ( 'NONE', #133, #231, #210, .T. ) ;
#159 = FACE_OUTER_BOUND ( 'NONE', #235, .T. ) ;
#160 = EDGE_LOOP ( 'NONE', ( #286, #63, #110, #115 ) ) ;
#161 = COORDINATED_UNIVERSAL_TIME_OFFSET ( 1, 0, .AHEAD. ) ;
#162 = EDGE_LOOP ( 'NONE', ( #200, #248 ) ) ;
#163 = PERSON_AND_ORGANIZATION ( #250, #131 ) ;
#164 = DIRECTION ( 'NONE',  ( 0.000000000000000000, 0.000000000000000000, 1.000000000000000000 ) ) ;
#165 = CIRCLE ( 'NONE', #11, 10.00000000000001954 ) ;
#166 = ORIENTED_EDGE ( 'NONE', *, *, #5, .T. ) ;
#167 = EDGE_LOOP ( 'NONE', ( #281, #137 ) ) ;
#168 = DIRECTION ( 'NONE',  ( -1.000000000000000000, -0.000000000000000000, -0.000000000000000000 ) ) ;
#169 = ORIENTED_EDGE ( 'NONE', *, *, #129, .F. ) ;
#170 = DIRECTION ( 'NONE',  ( -1.000000000000000000, -0.000000000000000000, -0.000000000000000000 ) ) ;
#171 = ADVANCED_FACE ( 'NONE', ( #284 ), #40, .F. ) ;
#172 = CARTESIAN_POINT ( 'NONE',  ( 0.000000000000000000, 0.000000000000000000, 0.000000000000000000 ) ) ;
#173 = CONICAL_SURFACE ( 'NONE', #272, 7.500000000000020428, 0.7853981633974482790 ) ;
#174 = CARTESIAN_POINT ( 'NONE',  ( 7.000000000001135980, 0.000000000000000000, 0.000000000000000000 ) ) ;
#175 = ADVANCED_FACE ( 'NONE', ( #117 ), #265, .T. ) ;
#176 = CYLINDRICAL_SURFACE ( 'NONE', #259, 10.00000000000001954 ) ;
#177 = DIRECTION ( 'NONE',  ( 0.000000000000000000, -1.000000000000000000, 0.000000000000000000 ) ) ;
#178 = DIRECTION ( 'NONE',  ( -0.7071067811865474617, 8.659560562354932858E-17, -0.7071067811865474617 ) ) ;
#179 = CIRCLE ( 'NONE', #346, 7.500000000000020428 ) ;
#180 = LINE ( 'NONE', #269, #302 ) ;
#181 = MANIFOLD_SOLID_BREP ( 'Rotation1', #67 ) ;
#182 = PLANE ( 'NONE',  #96 ) ;
#183 = APPROVAL_DATE_TIME ( #219, #190 ) ;
#184 = EDGE_CURVE ( 'NONE', #283, #356, #165, .T. ) ;
#185 = PERSON_AND_ORGANIZATION_ROLE ( 'creator' ) ;
#186 = PERSON_AND_ORGANIZATION ( #250, #131 ) ;
#187 = CIRCLE ( 'NONE', #251, 8.500000000000019540 ) ;
#188 = PERSON_AND_ORGANIZATION_ROLE ( 'creator' ) ;
#189 = DIRECTION ( 'NONE',  ( 0.000000000000000000, 0.000000000000000000, 1.000000000000000000 ) ) ;
#190 = APPROVAL ( #134, 'UNSPECIFIED' ) ;
#191 = ORIENTED_EDGE ( 'NONE', *, *, #244, .F. ) ;
#192 = COORDINATED_UNIVERSAL_TIME_OFFSET ( 1, 0, .AHEAD. ) ;
#193 = DIRECTION ( 'NONE',  ( -1.000000000000000000, -0.000000000000000000, -0.000000000000000000 ) ) ;
#194 = ORIENTED_EDGE ( 'NONE', *, *, #320, .T. ) ;
#195 = CYLINDRICAL_SURFACE ( 'NONE', #120, 8.500000000000021316 ) ;
#196 = ORIENTED_EDGE ( 'NONE', *, *, #84, .T. ) ;
#197 = CIRCLE ( 'NONE', #221, 0.5000000000000004441 ) ;
#198 = DIRECTION ( 'NONE',  ( 0.000000000000000000, 0.000000000000000000, 1.000000000000000000 ) ) ;
#199 = EDGE_CURVE ( 'NONE', #308, #88, #236, .T. ) ;
#200 = ORIENTED_EDGE ( 'NONE', *, *, #122, .T. ) ;
#201 = DIRECTION ( 'NONE',  ( 0.000000000000000000, 0.000000000000000000, 1.000000000000000000 ) ) ;
#202 = VERTEX_POINT ( 'NONE', #203 ) ;
#203 = CARTESIAN_POINT ( 'NONE',  ( 0.000000000000000000, 1.040949779275252704E-15, -8.500000000000019540 ) ) ;
#204 = PRODUCT ( '3D_GR1382_DN20x1.5_18380296', '3D_GR1382_DN20x1.5_18380296', '', ( #124 ) ) ;
#205 = ADVANCED_FACE ( 'NONE', ( #87 ), #322, .T. ) ;
#206 = CIRCLE ( 'NONE', #299, 10.00000000000001954 ) ;
#207 = DIRECTION ( 'NONE',  ( -0.000000000000000000, 0.000000000000000000, 1.000000000000000000 ) ) ;
#208 = CIRCLE ( 'NONE', #92, 7.500000000000020428 ) ;
#209 = CARTESIAN_POINT ( 'NONE',  ( -2.500000000000552891, 1.163414459189987852E-15, -9.500000000000019540 ) ) ;
#210 = CIRCLE ( 'NONE', #296, 10.00000000000001954 ) ;
#211 =( NAMED_UNIT ( * ) SI_UNIT ( $, .STERADIAN. ) SOLID_ANGLE_UNIT ( ) );
#212 = DIRECTION ( 'NONE',  ( 0.000000000000000000, 0.000000000000000000, 1.000000000000000000 ) ) ;
#213 = EDGE_CURVE ( 'NONE', #228, #229, #3, .T. ) ;
#214 = AXIS2_PLACEMENT_3D ( 'NONE', #294, #238, #270 ) ;
#215 = CARTESIAN_POINT ( 'NONE',  ( -154.8395502972293230, 0.000000000000000000, 0.000000000000000000 ) ) ;
#216 = ORIENTED_EDGE ( 'NONE', *, *, #336, .F. ) ;
#217 = AXIS2_PLACEMENT_3D ( 'NONE', #316, #318, #289 ) ;
#218 = EDGE_CURVE ( 'NONE', #140, #202, #261, .T. ) ;
#219 = DATE_AND_TIME ( #21, #324 ) ;
#220 = DIRECTION ( 'NONE',  ( 0.000000000000000000, 0.000000000000000000, 1.000000000000000000 ) ) ;
#221 = AXIS2_PLACEMENT_3D ( 'NONE', #209, #267, #74 ) ;
#222 = DATE_TIME_ROLE ( 'creation_date' ) ;
#223 = LINE ( 'NONE', #353, #47 ) ;
#224 = DATE_TIME_ROLE ( 'classification_date' ) ;
#225 = DIRECTION ( 'NONE',  ( -1.000000000000000000, -0.000000000000000000, -0.000000000000000000 ) ) ;
#226 = CIRCLE ( 'NONE', #282, 8.500000000000019540 ) ;
#227 = CC_DESIGN_APPROVAL ( #341, ( #9 ) ) ;
#228 = VERTEX_POINT ( 'NONE', #319 ) ;
#229 = VERTEX_POINT ( 'NONE', #6 ) ;
#230 = DIRECTION ( 'NONE',  ( -1.000000000000000000, -0.000000000000000000, -0.000000000000000000 ) ) ;
#231 = VERTEX_POINT ( 'NONE', #68 ) ;
#232 = ADVANCED_FACE ( 'NONE', ( #116 ), #176, .T. ) ;
#233 = CARTESIAN_POINT ( 'NONE',  ( 7.000000000002282619, 0.000000000000000000, 7.500000000000020428 ) ) ;
#234 = FACE_OUTER_BOUND ( 'NONE', #160, .T. ) ;
#235 = EDGE_LOOP ( 'NONE', ( #246, #280, #315, #260 ) ) ;
#236 = LINE ( 'NONE', #233, #20 ) ;
#237 = CARTESIAN_POINT ( 'NONE',  ( 0.000000000000000000, 0.000000000000000000, 0.000000000000000000 ) ) ;
#238 = DIRECTION ( 'NONE',  ( -1.000000000000000000, -0.000000000000000000, -0.000000000000000000 ) ) ;
#239 = AXIS2_PLACEMENT_3D ( 'NONE', #262, #168, #8 ) ;
#240 = ADVANCED_FACE ( 'NONE', ( #45 ), #182, .F. ) ;
#241 = CYLINDRICAL_SURFACE ( 'NONE', #214, 10.00000000000001954 ) ;
#242 = DIRECTION ( 'NONE',  ( 0.000000000000000000, 0.000000000000000000, 1.000000000000000000 ) ) ;
#243 = DESIGN_CONTEXT ( 'detailed design', #32, 'design' ) ;
#244 = EDGE_CURVE ( 'NONE', #332, #140, #180, .T. ) ;
#245 = COORDINATED_UNIVERSAL_TIME_OFFSET ( 1, 0, .AHEAD. ) ;
#246 = ORIENTED_EDGE ( 'NONE', *, *, #336, .T. ) ;
#247 = CARTESIAN_POINT ( 'NONE',  ( 0.000000000000000000, 0.000000000000000000, 0.000000000000000000 ) ) ;
#248 = ORIENTED_EDGE ( 'NONE', *, *, #10, .T. ) ;
#249 = PERSON_AND_ORGANIZATION ( #250, #131 ) ;
#250 = PERSON ( 'UNSPECIFIED', 'UNSPECIFIED', 'UNSPECIFIED', ('UNSPECIFIED'), ('UNSPECIFIED'), ('UNSPECIFIED') ) ;
#251 = AXIS2_PLACEMENT_3D ( 'NONE', #247, #326, #139 ) ;
#252 = ORIENTED_EDGE ( 'NONE', *, *, #268, .F. ) ;
#253 = VECTOR ( 'NONE', #144, 1000.000000000000000 ) ;
#254 = SECURITY_CLASSIFICATION ( '', '', #354 ) ;
#255 = CARTESIAN_POINT ( 'NONE',  ( 7.000000000002282619, 0.000000000000000000, 0.000000000000000000 ) ) ;
#256 = CC_DESIGN_PERSON_AND_ORGANIZATION_ASSIGNMENT ( #186, #327, ( #9 ) ) ;
#257 = EDGE_LOOP ( 'NONE', ( #22, #337, #58, #169 ) ) ;
#258 = DIRECTION ( 'NONE',  ( 0.000000000000000000, 0.000000000000000000, 1.000000000000000000 ) ) ;
#259 = AXIS2_PLACEMENT_3D ( 'NONE', #215, #342, #73 ) ;
#260 = ORIENTED_EDGE ( 'NONE', *, *, #199, .F. ) ;
#261 = LINE ( 'NONE', #36, #101 ) ;
#262 = CARTESIAN_POINT ( 'NONE',  ( -154.8395502972293230, 0.000000000000000000, 0.000000000000000000 ) ) ;
#263 = DIRECTION ( 'NONE',  ( -0.7071067811865474617, 0.000000000000000000, 0.7071067811865474617 ) ) ;
#264 = APPROVAL_PERSON_ORGANIZATION ( #17, #341, #126 ) ;
#265 = TOROIDAL_SURFACE ( 'NONE', #290, 9.500000000000019540, 0.5000000000000000000 ) ;
#266 = CARTESIAN_POINT ( 'NONE',  ( -154.8395502972293230, 0.000000000000000000, 8.500000000000021316 ) ) ;
#267 = DIRECTION ( 'NONE',  ( -0.000000000000000000, 1.000000000000000000, 1.224646799147353207E-16 ) ) ;
#268 = EDGE_CURVE ( 'NONE', #231, #133, #149, .T. ) ;
#269 = CARTESIAN_POINT ( 'NONE',  ( 7.000000000002282619, 9.184850993605175555E-16, -7.500000000000020428 ) ) ;
#270 = DIRECTION ( 'NONE',  ( 0.000000000000000000, 0.000000000000000000, 1.000000000000000000 ) ) ;
#271 = LOCAL_TIME ( 7, 59, 14.00000000000000000, #245 ) ;
#272 = AXIS2_PLACEMENT_3D ( 'NONE', #279, #23, #135 ) ;
#273 = DATE_AND_TIME ( #130, #112 ) ;
#274 = LINE ( 'NONE', #352, #50 ) ;
#275 = CC_DESIGN_PERSON_AND_ORGANIZATION_ASSIGNMENT ( #59, #188, ( #19 ) ) ;
#276 = DATE_AND_TIME ( #348, #271 ) ;
#277 = DIRECTION ( 'NONE',  ( -1.000000000000000000, -0.000000000000000000, -0.000000000000000000 ) ) ;
#278 = ORIENTED_EDGE ( 'NONE', *, *, #39, .F. ) ;
#279 = CARTESIAN_POINT ( 'NONE',  ( 7.000000000002282619, 0.000000000000000000, 0.000000000000000000 ) ) ;
#280 = ORIENTED_EDGE ( 'NONE', *, *, #244, .T. ) ;
#281 = ORIENTED_EDGE ( 'NONE', *, *, #213, .T. ) ;
#282 = AXIS2_PLACEMENT_3D ( 'NONE', #237, #89, #64 ) ;
#283 = VERTEX_POINT ( 'NONE', #15 ) ;
#284 = FACE_OUTER_BOUND ( 'NONE', #312, .T. ) ;
#285 = CARTESIAN_POINT ( 'NONE',  ( 6.000000000002280842, 0.000000000000000000, 8.500000000000021316 ) ) ;
#286 = ORIENTED_EDGE ( 'NONE', *, *, #218, .F. ) ;
#287 = FACE_OUTER_BOUND ( 'NONE', #330, .T. ) ;
#288 = AXIS2_PLACEMENT_3D ( 'NONE', #157, #54, #220 ) ;
#289 = DIRECTION ( 'NONE',  ( 0.000000000000000000, 0.000000000000000000, 1.000000000000000000 ) ) ;
#290 = AXIS2_PLACEMENT_3D ( 'NONE', #33, #90, #258 ) ;
#291 = CARTESIAN_POINT ( 'NONE',  ( 7.000000000002282619, 0.000000000000000000, 7.500000000000020428 ) ) ;
#292 = PRODUCT_DEFINITION_SHAPE ( 'NONE', 'NONE',  #19 ) ;
#293 = CIRCLE ( 'NONE', #314, 8.500000000000021316 ) ;
#294 = CARTESIAN_POINT ( 'NONE',  ( -154.8395502972293230, 0.000000000000000000, 0.000000000000000000 ) ) ;
#295 = CARTESIAN_POINT ( 'NONE',  ( -3.000000000000276668, 9.500000000000019540, 0.000000000000000000 ) ) ;
#296 = AXIS2_PLACEMENT_3D ( 'NONE', #41, #148, #201 ) ;
#297 = DIRECTION ( 'NONE',  ( -1.000000000000000000, -0.000000000000000000, -0.000000000000000000 ) ) ;
#298 = PERSON_AND_ORGANIZATION_ROLE ( 'design_owner' ) ;
#299 = AXIS2_PLACEMENT_3D ( 'NONE', #172, #230, #61 ) ;
#300 = CC_DESIGN_APPROVAL ( #190, ( #254 ) ) ;
#301 = COORDINATED_UNIVERSAL_TIME_OFFSET ( 1, 0, .AHEAD. ) ;
#302 = VECTOR ( 'NONE', #178, 1000.000000000000114 ) ;
#303 = DIRECTION ( 'NONE',  ( 0.000000000000000000, 0.000000000000000000, 1.000000000000000000 ) ) ;
#304 = EDGE_CURVE ( 'NONE', #140, #88, #293, .T. ) ;
#305 = EDGE_LOOP ( 'NONE', ( #196, #166, #1, #143 ) ) ;
#306 = CALENDAR_DATE ( 2024, 23, 9 ) ;
#307 = FACE_OUTER_BOUND ( 'NONE', #24, .T. ) ;
#308 = VERTEX_POINT ( 'NONE', #291 ) ;
#309 = APPROVAL ( #156, 'UNSPECIFIED' ) ;
#310 = PERSON_AND_ORGANIZATION_ROLE ( 'classification_officer' ) ;
#311 = CARTESIAN_POINT ( 'NONE',  ( 0.000000000000000000, 0.000000000000000000, 8.500000000000019540 ) ) ;
#312 = EDGE_LOOP ( 'NONE', ( #216, #278 ) ) ;
#313 = FACE_OUTER_BOUND ( 'NONE', #257, .T. ) ;
#314 = AXIS2_PLACEMENT_3D ( 'NONE', #94, #46, #242 ) ;
#315 = ORIENTED_EDGE ( 'NONE', *, *, #72, .F. ) ;
#316 = CARTESIAN_POINT ( 'NONE',  ( -2.500000000000552891, 0.000000000000000000, 0.000000000000000000 ) ) ;
#317 = DIRECTION ( 'NONE',  ( -1.000000000000000000, 0.000000000000000000, -0.000000000000000000 ) ) ;
#318 = DIRECTION ( 'NONE',  ( -1.000000000000000000, -0.000000000000000000, -0.000000000000000000 ) ) ;
#319 = CARTESIAN_POINT ( 'NONE',  ( -3.000000000000557776, 0.000000000000000000, 9.500000000000019540 ) ) ;
#320 = EDGE_CURVE ( 'NONE', #231, #229, #197, .T. ) ;
#321 = CARTESIAN_POINT ( 'NONE',  ( 7.000000000002282619, 9.797174393178851295E-16, -7.500000000000020428 ) ) ;
#322 = TOROIDAL_SURFACE ( 'NONE', #217, 9.500000000000019540, 0.5000000000000000000 ) ;
#323 = DIRECTION ( 'NONE',  ( 1.000000000000000000, 0.000000000000000000, 0.000000000000000000 ) ) ;
#324 = LOCAL_TIME ( 7, 59, 14.00000000000000000, #301 ) ;
#325 = CALENDAR_DATE ( 2024, 23, 9 ) ;
#326 = DIRECTION ( 'NONE',  ( -1.000000000000000000, -0.000000000000000000, -0.000000000000000000 ) ) ;
#327 = PERSON_AND_ORGANIZATION_ROLE ( 'design_supplier' ) ;
#328 = CIRCLE ( 'NONE', #288, 8.500000000000021316 ) ;
#329 = ADVANCED_FACE ( 'NONE', ( #154 ), #241, .T. ) ;
#330 = EDGE_LOOP ( 'NONE', ( #350, #113 ) ) ;
#331 = CYLINDRICAL_SURFACE ( 'NONE', #239, 8.500000000000021316 ) ;
#332 = VERTEX_POINT ( 'NONE', #321 ) ;
#333 = CARTESIAN_POINT ( 'NONE',  ( 6.000000000002280842, 1.040949779275252901E-15, -8.500000000000021316 ) ) ;
#334 = ORIENTED_EDGE ( 'NONE', *, *, #184, .T. ) ;
#335 = CARTESIAN_POINT ( 'NONE',  ( -1.010333609296505610E-15, 8.500000000000019540, 0.000000000000000000 ) ) ;
#336 = EDGE_CURVE ( 'NONE', #308, #332, #179, .T. ) ;
#337 = ORIENTED_EDGE ( 'NONE', *, *, #218, .T. ) ;
#338 = CARTESIAN_POINT ( 'NONE',  ( -2.500000000000557332, 0.000000000000000000, 10.00000000000001954 ) ) ;
#339 = LINE ( 'NONE', #266, #253 ) ;
#340 = AXIS2_PLACEMENT_3D ( 'NONE', #57, #193, #164 ) ;
#341 = APPROVAL ( #105, 'UNSPECIFIED' ) ;
#342 = DIRECTION ( 'NONE',  ( -1.000000000000000000, -0.000000000000000000, -0.000000000000000000 ) ) ;
#343 =( LENGTH_UNIT ( ) NAMED_UNIT ( * ) SI_UNIT ( .MILLI., .METRE. ) );
#344 = CARTESIAN_POINT ( 'NONE',  ( -2.500000000000552891, 0.000000000000000000, 9.500000000000019540 ) ) ;
#345 = PRODUCT_RELATED_PRODUCT_CATEGORY ( 'detail', '', ( #204 ) ) ;
#346 = AXIS2_PLACEMENT_3D ( 'NONE', #152, #13, #212 ) ;
#347 = DIRECTION ( 'NONE',  ( 0.000000000000000000, 0.000000000000000000, 1.000000000000000000 ) ) ;
#348 = CALENDAR_DATE ( 2024, 23, 9 ) ;
#349 = EDGE_CURVE ( 'NONE', #133, #228, #121, .T. ) ;
#350 = ORIENTED_EDGE ( 'NONE', *, *, #84, .F. ) ;
#351 = APPROVAL_DATE_TIME ( #128, #309 ) ;
#352 = CARTESIAN_POINT ( 'NONE',  ( -154.8395502972293230, 1.224646799147355426E-15, -10.00000000000001954 ) ) ;
#353 = CARTESIAN_POINT ( 'NONE',  ( -154.8395502972293230, 0.000000000000000000, 10.00000000000001954 ) ) ;
#354 = SECURITY_CLASSIFICATION_LEVEL ( 'unclassified' ) ;
#355 = AXIS2_PLACEMENT_3D ( 'NONE', #335, #141, #207 ) ;
#356 = VERTEX_POINT ( 'NONE', #151 ) ;
#357 = DIRECTION ( 'NONE',  ( -1.000000000000000000, -0.000000000000000000, -0.000000000000000000 ) ) ;
ENDSEC;
END-ISO-10303-21;
