ISO-10303-21;
HEADER;
/* Generated by software containing ST-Developer
 * from STEP Tools, Inc. (www.steptools.com) 
 */

FILE_DESCRIPTION(
/* description */ (''),
/* implementation_level */ '2;1');

FILE_NAME(
/* name */ 
'C:\\Users\\cad\\Desktop\\Zeichnungen neu von Ralph\\3D_Kupplung_R666-
SE\\3D_R666-SE-15-DN20_17113324.stp',
/* time_stamp */ '2021-06-17T16:28:10+02:00',
/* author */ ('cad'),
/* organization */ (''),
/* preprocessor_version */ 'ST-DEVELOPER v18.1',
/* originating_system */ 'Autodesk Inventor 2022',
/* authorisation */ '');

FILE_SCHEMA (('AUTOMOTIVE_DESIGN { 1 0 10303 214 3 1 1 }'));
ENDSEC;

DATA;
#10=MECHANICAL_DESIGN_GEOMETRIC_PRESENTATION_REPRESENTATION('',(#13),#493);
#11=SHAPE_REPRESENTATION_RELATIONSHIP('SRR','None',#500,#12);
#12=ADVANCED_BREP_SHAPE_REPRESENTATION('',(#14),#492);
#13=STYLED_ITEM('',(#509),#14);
#14=MANIFOLD_SOLID_BREP('Volumenk\X\F6rper1',#260);
#15=CONICAL_SURFACE('',#300,6.1,0.785398163397445);
#16=CONICAL_SURFACE('',#308,7.4,0.785398163397451);
#17=CONICAL_SURFACE('',#309,8.65,0.785398163397454);
#18=CONICAL_SURFACE('',#310,11.65,0.785398163397448);
#19=CONICAL_SURFACE('',#316,11.65,0.785398163397434);
#20=CONICAL_SURFACE('',#320,6.5,0.523598775598298);
#21=FACE_BOUND('',#72,.T.);
#22=FACE_BOUND('',#76,.T.);
#23=FACE_BOUND('',#79,.T.);
#24=FACE_BOUND('',#87,.T.);
#25=PLANE('',#288);
#26=PLANE('',#298);
#27=PLANE('',#304);
#28=PLANE('',#318);
#29=LINE('',#426,#39);
#30=LINE('',#443,#40);
#31=LINE('',#454,#41);
#32=LINE('',#464,#42);
#33=LINE('',#466,#43);
#34=LINE('',#468,#44);
#35=LINE('',#474,#45);
#36=LINE('',#480,#46);
#37=LINE('',#484,#47);
#38=LINE('',#489,#48);
#39=VECTOR('',#335,7.5);
#40=VECTOR('',#356,8.75);
#41=VECTOR('',#369,6.1);
#42=VECTOR('',#382,6.);
#43=VECTOR('',#385,7.4);
#44=VECTOR('',#388,8.65);
#45=VECTOR('',#395,11.65);
#46=VECTOR('',#402,11.75);
#47=VECTOR('',#407,11.65);
#48=VECTOR('',#414,6.5);
#49=CYLINDRICAL_SURFACE('',#285,7.5);
#50=CYLINDRICAL_SURFACE('',#295,8.75);
#51=CYLINDRICAL_SURFACE('',#306,6.);
#52=CYLINDRICAL_SURFACE('',#313,11.75);
#53=FACE_OUTER_BOUND('',#69,.T.);
#54=FACE_OUTER_BOUND('',#70,.T.);
#55=FACE_OUTER_BOUND('',#71,.T.);
#56=FACE_OUTER_BOUND('',#73,.T.);
#57=FACE_OUTER_BOUND('',#74,.T.);
#58=FACE_OUTER_BOUND('',#75,.T.);
#59=FACE_OUTER_BOUND('',#77,.T.);
#60=FACE_OUTER_BOUND('',#78,.T.);
#61=FACE_OUTER_BOUND('',#80,.T.);
#62=FACE_OUTER_BOUND('',#81,.T.);
#63=FACE_OUTER_BOUND('',#82,.T.);
#64=FACE_OUTER_BOUND('',#83,.T.);
#65=FACE_OUTER_BOUND('',#84,.T.);
#66=FACE_OUTER_BOUND('',#85,.T.);
#67=FACE_OUTER_BOUND('',#86,.T.);
#68=FACE_OUTER_BOUND('',#88,.T.);
#69=EDGE_LOOP('',(#172,#173,#174,#175,#176));
#70=EDGE_LOOP('',(#177,#178,#179,#180,#181,#182));
#71=EDGE_LOOP('',(#183));
#72=EDGE_LOOP('',(#184));
#73=EDGE_LOOP('',(#185,#186,#187,#188,#189));
#74=EDGE_LOOP('',(#190,#191,#192,#193,#194,#195));
#75=EDGE_LOOP('',(#196));
#76=EDGE_LOOP('',(#197));
#77=EDGE_LOOP('',(#198,#199,#200,#201,#202));
#78=EDGE_LOOP('',(#203));
#79=EDGE_LOOP('',(#204));
#80=EDGE_LOOP('',(#205,#206,#207,#208,#209));
#81=EDGE_LOOP('',(#210,#211,#212,#213,#214));
#82=EDGE_LOOP('',(#215,#216,#217,#218,#219));
#83=EDGE_LOOP('',(#220,#221,#222,#223,#224));
#84=EDGE_LOOP('',(#225,#226,#227,#228,#229,#230));
#85=EDGE_LOOP('',(#231,#232,#233,#234,#235));
#86=EDGE_LOOP('',(#236));
#87=EDGE_LOOP('',(#237));
#88=EDGE_LOOP('',(#238,#239,#240,#241));
#89=CIRCLE('',#281,7.5);
#90=CIRCLE('',#282,0.4);
#91=CIRCLE('',#283,7.9);
#92=CIRCLE('',#284,7.5);
#93=CIRCLE('',#286,7.5);
#94=CIRCLE('',#287,7.5);
#95=CIRCLE('',#289,8.55);
#96=CIRCLE('',#291,8.75);
#97=CIRCLE('',#292,0.4);
#98=CIRCLE('',#293,9.15);
#99=CIRCLE('',#294,8.75);
#100=CIRCLE('',#296,8.75);
#101=CIRCLE('',#297,8.75);
#102=CIRCLE('',#299,11.55);
#103=CIRCLE('',#301,6.2);
#104=CIRCLE('',#302,6.);
#105=CIRCLE('',#303,6.);
#106=CIRCLE('',#305,7.3);
#107=CIRCLE('',#307,6.);
#108=CIRCLE('',#311,11.75);
#109=CIRCLE('',#312,11.75);
#110=CIRCLE('',#314,11.75);
#111=CIRCLE('',#315,11.75);
#112=CIRCLE('',#317,11.55);
#113=CIRCLE('',#319,7.);
#114=VERTEX_POINT('',#417);
#115=VERTEX_POINT('',#418);
#116=VERTEX_POINT('',#420);
#117=VERTEX_POINT('',#425);
#118=VERTEX_POINT('',#427);
#119=VERTEX_POINT('',#431);
#120=VERTEX_POINT('',#434);
#121=VERTEX_POINT('',#435);
#122=VERTEX_POINT('',#437);
#123=VERTEX_POINT('',#442);
#124=VERTEX_POINT('',#444);
#125=VERTEX_POINT('',#448);
#126=VERTEX_POINT('',#451);
#127=VERTEX_POINT('',#453);
#128=VERTEX_POINT('',#455);
#129=VERTEX_POINT('',#459);
#130=VERTEX_POINT('',#462);
#131=VERTEX_POINT('',#470);
#132=VERTEX_POINT('',#471);
#133=VERTEX_POINT('',#476);
#134=VERTEX_POINT('',#477);
#135=VERTEX_POINT('',#482);
#136=VERTEX_POINT('',#486);
#137=EDGE_CURVE('',#114,#115,#89,.T.);
#138=EDGE_CURVE('',#115,#116,#90,.T.);
#139=EDGE_CURVE('',#116,#116,#91,.T.);
#140=EDGE_CURVE('',#115,#114,#92,.T.);
#141=EDGE_CURVE('',#114,#117,#29,.T.);
#142=EDGE_CURVE('',#118,#117,#93,.T.);
#143=EDGE_CURVE('',#117,#118,#94,.T.);
#144=EDGE_CURVE('',#119,#119,#95,.T.);
#145=EDGE_CURVE('',#120,#121,#96,.T.);
#146=EDGE_CURVE('',#121,#122,#97,.T.);
#147=EDGE_CURVE('',#122,#122,#98,.T.);
#148=EDGE_CURVE('',#121,#120,#99,.T.);
#149=EDGE_CURVE('',#120,#123,#30,.T.);
#150=EDGE_CURVE('',#124,#123,#100,.T.);
#151=EDGE_CURVE('',#123,#124,#101,.T.);
#152=EDGE_CURVE('',#125,#125,#102,.T.);
#153=EDGE_CURVE('',#126,#126,#103,.T.);
#154=EDGE_CURVE('',#126,#127,#31,.T.);
#155=EDGE_CURVE('',#127,#128,#104,.T.);
#156=EDGE_CURVE('',#128,#127,#105,.T.);
#157=EDGE_CURVE('',#129,#129,#106,.T.);
#158=EDGE_CURVE('',#130,#130,#107,.T.);
#159=EDGE_CURVE('',#130,#128,#32,.T.);
#160=EDGE_CURVE('',#118,#129,#33,.T.);
#161=EDGE_CURVE('',#124,#119,#34,.T.);
#162=EDGE_CURVE('',#131,#132,#108,.T.);
#163=EDGE_CURVE('',#132,#131,#109,.T.);
#164=EDGE_CURVE('',#131,#125,#35,.T.);
#165=EDGE_CURVE('',#133,#134,#110,.T.);
#166=EDGE_CURVE('',#134,#133,#111,.T.);
#167=EDGE_CURVE('',#134,#132,#36,.T.);
#168=EDGE_CURVE('',#135,#135,#112,.T.);
#169=EDGE_CURVE('',#135,#133,#37,.T.);
#170=EDGE_CURVE('',#136,#136,#113,.T.);
#171=EDGE_CURVE('',#136,#130,#38,.T.);
#172=ORIENTED_EDGE('',*,*,#137,.T.);
#173=ORIENTED_EDGE('',*,*,#138,.T.);
#174=ORIENTED_EDGE('',*,*,#139,.T.);
#175=ORIENTED_EDGE('',*,*,#138,.F.);
#176=ORIENTED_EDGE('',*,*,#140,.T.);
#177=ORIENTED_EDGE('',*,*,#137,.F.);
#178=ORIENTED_EDGE('',*,*,#141,.T.);
#179=ORIENTED_EDGE('',*,*,#142,.F.);
#180=ORIENTED_EDGE('',*,*,#143,.F.);
#181=ORIENTED_EDGE('',*,*,#141,.F.);
#182=ORIENTED_EDGE('',*,*,#140,.F.);
#183=ORIENTED_EDGE('',*,*,#144,.F.);
#184=ORIENTED_EDGE('',*,*,#139,.F.);
#185=ORIENTED_EDGE('',*,*,#145,.T.);
#186=ORIENTED_EDGE('',*,*,#146,.T.);
#187=ORIENTED_EDGE('',*,*,#147,.T.);
#188=ORIENTED_EDGE('',*,*,#146,.F.);
#189=ORIENTED_EDGE('',*,*,#148,.T.);
#190=ORIENTED_EDGE('',*,*,#145,.F.);
#191=ORIENTED_EDGE('',*,*,#149,.T.);
#192=ORIENTED_EDGE('',*,*,#150,.F.);
#193=ORIENTED_EDGE('',*,*,#151,.F.);
#194=ORIENTED_EDGE('',*,*,#149,.F.);
#195=ORIENTED_EDGE('',*,*,#148,.F.);
#196=ORIENTED_EDGE('',*,*,#152,.F.);
#197=ORIENTED_EDGE('',*,*,#147,.F.);
#198=ORIENTED_EDGE('',*,*,#153,.T.);
#199=ORIENTED_EDGE('',*,*,#154,.T.);
#200=ORIENTED_EDGE('',*,*,#155,.T.);
#201=ORIENTED_EDGE('',*,*,#156,.T.);
#202=ORIENTED_EDGE('',*,*,#154,.F.);
#203=ORIENTED_EDGE('',*,*,#157,.F.);
#204=ORIENTED_EDGE('',*,*,#153,.F.);
#205=ORIENTED_EDGE('',*,*,#158,.T.);
#206=ORIENTED_EDGE('',*,*,#159,.T.);
#207=ORIENTED_EDGE('',*,*,#155,.F.);
#208=ORIENTED_EDGE('',*,*,#156,.F.);
#209=ORIENTED_EDGE('',*,*,#159,.F.);
#210=ORIENTED_EDGE('',*,*,#142,.T.);
#211=ORIENTED_EDGE('',*,*,#143,.T.);
#212=ORIENTED_EDGE('',*,*,#160,.T.);
#213=ORIENTED_EDGE('',*,*,#157,.T.);
#214=ORIENTED_EDGE('',*,*,#160,.F.);
#215=ORIENTED_EDGE('',*,*,#150,.T.);
#216=ORIENTED_EDGE('',*,*,#151,.T.);
#217=ORIENTED_EDGE('',*,*,#161,.T.);
#218=ORIENTED_EDGE('',*,*,#144,.T.);
#219=ORIENTED_EDGE('',*,*,#161,.F.);
#220=ORIENTED_EDGE('',*,*,#162,.T.);
#221=ORIENTED_EDGE('',*,*,#163,.T.);
#222=ORIENTED_EDGE('',*,*,#164,.T.);
#223=ORIENTED_EDGE('',*,*,#152,.T.);
#224=ORIENTED_EDGE('',*,*,#164,.F.);
#225=ORIENTED_EDGE('',*,*,#165,.F.);
#226=ORIENTED_EDGE('',*,*,#166,.F.);
#227=ORIENTED_EDGE('',*,*,#167,.T.);
#228=ORIENTED_EDGE('',*,*,#162,.F.);
#229=ORIENTED_EDGE('',*,*,#163,.F.);
#230=ORIENTED_EDGE('',*,*,#167,.F.);
#231=ORIENTED_EDGE('',*,*,#168,.T.);
#232=ORIENTED_EDGE('',*,*,#169,.T.);
#233=ORIENTED_EDGE('',*,*,#165,.T.);
#234=ORIENTED_EDGE('',*,*,#166,.T.);
#235=ORIENTED_EDGE('',*,*,#169,.F.);
#236=ORIENTED_EDGE('',*,*,#168,.F.);
#237=ORIENTED_EDGE('',*,*,#170,.F.);
#238=ORIENTED_EDGE('',*,*,#170,.T.);
#239=ORIENTED_EDGE('',*,*,#171,.T.);
#240=ORIENTED_EDGE('',*,*,#158,.F.);
#241=ORIENTED_EDGE('',*,*,#171,.F.);
#242=TOROIDAL_SURFACE('',#280,7.9,0.4);
#243=TOROIDAL_SURFACE('',#290,9.15,0.4);
#244=ADVANCED_FACE('',(#53),#242,.F.);
#245=ADVANCED_FACE('',(#54),#49,.T.);
#246=ADVANCED_FACE('',(#55,#21),#25,.T.);
#247=ADVANCED_FACE('',(#56),#243,.F.);
#248=ADVANCED_FACE('',(#57),#50,.T.);
#249=ADVANCED_FACE('',(#58,#22),#26,.T.);
#250=ADVANCED_FACE('',(#59),#15,.F.);
#251=ADVANCED_FACE('',(#60,#23),#27,.T.);
#252=ADVANCED_FACE('',(#61),#51,.F.);
#253=ADVANCED_FACE('',(#62),#16,.T.);
#254=ADVANCED_FACE('',(#63),#17,.T.);
#255=ADVANCED_FACE('',(#64),#18,.T.);
#256=ADVANCED_FACE('',(#65),#52,.T.);
#257=ADVANCED_FACE('',(#66),#19,.T.);
#258=ADVANCED_FACE('',(#67,#24),#28,.T.);
#259=ADVANCED_FACE('',(#68),#20,.F.);
#260=CLOSED_SHELL('',(#244,#245,#246,#247,#248,#249,#250,#251,#252,#253,
#254,#255,#256,#257,#258,#259));
#261=DERIVED_UNIT_ELEMENT(#263,1.);
#262=DERIVED_UNIT_ELEMENT(#495,-3.);
#263=(
MASS_UNIT()
NAMED_UNIT(*)
SI_UNIT($,.GRAM.)
);
#264=DERIVED_UNIT((#261,#262));
#265=MEASURE_REPRESENTATION_ITEM('density measure',
POSITIVE_RATIO_MEASURE(1.),#264);
#266=PROPERTY_DEFINITION_REPRESENTATION(#271,#268);
#267=PROPERTY_DEFINITION_REPRESENTATION(#272,#269);
#268=REPRESENTATION('material name',(#270),#492);
#269=REPRESENTATION('density',(#265),#492);
#270=DESCRIPTIVE_REPRESENTATION_ITEM('Generisch','Generisch');
#271=PROPERTY_DEFINITION('material property','material name',#502);
#272=PROPERTY_DEFINITION('material property','density of part',#502);
#273=DATE_TIME_ROLE('creation_date');
#274=APPLIED_DATE_AND_TIME_ASSIGNMENT(#275,#273,(#502));
#275=DATE_AND_TIME(#276,#277);
#276=CALENDAR_DATE(2021,17,6);
#277=LOCAL_TIME(0,0,0.,#278);
#278=COORDINATED_UNIVERSAL_TIME_OFFSET(0,0,.BEHIND.);
#279=AXIS2_PLACEMENT_3D('placement',#415,#321,#322);
#280=AXIS2_PLACEMENT_3D('',#416,#323,#324);
#281=AXIS2_PLACEMENT_3D('',#419,#325,#326);
#282=AXIS2_PLACEMENT_3D('',#421,#327,#328);
#283=AXIS2_PLACEMENT_3D('',#422,#329,#330);
#284=AXIS2_PLACEMENT_3D('',#423,#331,#332);
#285=AXIS2_PLACEMENT_3D('',#424,#333,#334);
#286=AXIS2_PLACEMENT_3D('',#428,#336,#337);
#287=AXIS2_PLACEMENT_3D('',#429,#338,#339);
#288=AXIS2_PLACEMENT_3D('',#430,#340,#341);
#289=AXIS2_PLACEMENT_3D('',#432,#342,#343);
#290=AXIS2_PLACEMENT_3D('',#433,#344,#345);
#291=AXIS2_PLACEMENT_3D('',#436,#346,#347);
#292=AXIS2_PLACEMENT_3D('',#438,#348,#349);
#293=AXIS2_PLACEMENT_3D('',#439,#350,#351);
#294=AXIS2_PLACEMENT_3D('',#440,#352,#353);
#295=AXIS2_PLACEMENT_3D('',#441,#354,#355);
#296=AXIS2_PLACEMENT_3D('',#445,#357,#358);
#297=AXIS2_PLACEMENT_3D('',#446,#359,#360);
#298=AXIS2_PLACEMENT_3D('',#447,#361,#362);
#299=AXIS2_PLACEMENT_3D('',#449,#363,#364);
#300=AXIS2_PLACEMENT_3D('',#450,#365,#366);
#301=AXIS2_PLACEMENT_3D('',#452,#367,#368);
#302=AXIS2_PLACEMENT_3D('',#456,#370,#371);
#303=AXIS2_PLACEMENT_3D('',#457,#372,#373);
#304=AXIS2_PLACEMENT_3D('',#458,#374,#375);
#305=AXIS2_PLACEMENT_3D('',#460,#376,#377);
#306=AXIS2_PLACEMENT_3D('',#461,#378,#379);
#307=AXIS2_PLACEMENT_3D('',#463,#380,#381);
#308=AXIS2_PLACEMENT_3D('',#465,#383,#384);
#309=AXIS2_PLACEMENT_3D('',#467,#386,#387);
#310=AXIS2_PLACEMENT_3D('',#469,#389,#390);
#311=AXIS2_PLACEMENT_3D('',#472,#391,#392);
#312=AXIS2_PLACEMENT_3D('',#473,#393,#394);
#313=AXIS2_PLACEMENT_3D('',#475,#396,#397);
#314=AXIS2_PLACEMENT_3D('',#478,#398,#399);
#315=AXIS2_PLACEMENT_3D('',#479,#400,#401);
#316=AXIS2_PLACEMENT_3D('',#481,#403,#404);
#317=AXIS2_PLACEMENT_3D('',#483,#405,#406);
#318=AXIS2_PLACEMENT_3D('',#485,#408,#409);
#319=AXIS2_PLACEMENT_3D('',#487,#410,#411);
#320=AXIS2_PLACEMENT_3D('',#488,#412,#413);
#321=DIRECTION('axis',(0.,0.,1.));
#322=DIRECTION('refdir',(1.,0.,0.));
#323=DIRECTION('center_axis',(1.,0.,0.));
#324=DIRECTION('ref_axis',(0.,0.,-1.));
#325=DIRECTION('center_axis',(1.,0.,0.));
#326=DIRECTION('ref_axis',(0.,-1.,1.83697019872103E-16));
#327=DIRECTION('center_axis',(0.,-1.,-1.22464679914735E-16));
#328=DIRECTION('ref_axis',(0.,-1.22464679914735E-16,1.));
#329=DIRECTION('center_axis',(-1.,0.,0.));
#330=DIRECTION('ref_axis',(0.,-1.,1.83697019872103E-16));
#331=DIRECTION('center_axis',(1.,0.,0.));
#332=DIRECTION('ref_axis',(0.,-1.,1.83697019872103E-16));
#333=DIRECTION('center_axis',(1.,0.,0.));
#334=DIRECTION('ref_axis',(0.,1.,0.));
#335=DIRECTION('',(-1.,0.,0.));
#336=DIRECTION('center_axis',(-1.,0.,0.));
#337=DIRECTION('ref_axis',(0.,-1.,0.));
#338=DIRECTION('center_axis',(-1.,0.,0.));
#339=DIRECTION('ref_axis',(0.,-1.,0.));
#340=DIRECTION('center_axis',(-1.,0.,0.));
#341=DIRECTION('ref_axis',(0.,0.,1.));
#342=DIRECTION('center_axis',(1.,0.,0.));
#343=DIRECTION('ref_axis',(0.,-1.,0.));
#344=DIRECTION('center_axis',(1.,0.,0.));
#345=DIRECTION('ref_axis',(0.,0.,-1.));
#346=DIRECTION('center_axis',(1.,0.,0.));
#347=DIRECTION('ref_axis',(0.,-1.,1.83697019872103E-16));
#348=DIRECTION('center_axis',(0.,-1.,-1.22464679914735E-16));
#349=DIRECTION('ref_axis',(0.,-1.22464679914735E-16,1.));
#350=DIRECTION('center_axis',(-1.,0.,0.));
#351=DIRECTION('ref_axis',(0.,-1.,1.83697019872103E-16));
#352=DIRECTION('center_axis',(1.,0.,0.));
#353=DIRECTION('ref_axis',(0.,-1.,1.83697019872103E-16));
#354=DIRECTION('center_axis',(1.,0.,0.));
#355=DIRECTION('ref_axis',(0.,1.,0.));
#356=DIRECTION('',(-1.,0.,0.));
#357=DIRECTION('center_axis',(-1.,0.,0.));
#358=DIRECTION('ref_axis',(0.,-1.,0.));
#359=DIRECTION('center_axis',(-1.,0.,0.));
#360=DIRECTION('ref_axis',(0.,-1.,0.));
#361=DIRECTION('center_axis',(-1.,0.,0.));
#362=DIRECTION('ref_axis',(0.,0.,1.));
#363=DIRECTION('center_axis',(1.,0.,0.));
#364=DIRECTION('ref_axis',(0.,-1.,0.));
#365=DIRECTION('center_axis',(-1.,0.,0.));
#366=DIRECTION('ref_axis',(0.,-1.,0.));
#367=DIRECTION('center_axis',(-1.,0.,0.));
#368=DIRECTION('ref_axis',(0.,-1.,0.));
#369=DIRECTION('',(0.707106781186549,-0.707106781186545,8.65956056235491E-17));
#370=DIRECTION('center_axis',(1.,0.,0.));
#371=DIRECTION('ref_axis',(0.,-1.,0.));
#372=DIRECTION('center_axis',(1.,0.,0.));
#373=DIRECTION('ref_axis',(0.,-1.,0.));
#374=DIRECTION('center_axis',(-1.,0.,0.));
#375=DIRECTION('ref_axis',(0.,0.,1.));
#376=DIRECTION('center_axis',(1.,0.,0.));
#377=DIRECTION('ref_axis',(0.,-1.,0.));
#378=DIRECTION('center_axis',(1.,0.,0.));
#379=DIRECTION('ref_axis',(0.,1.,0.));
#380=DIRECTION('center_axis',(1.,0.,0.));
#381=DIRECTION('ref_axis',(0.,0.,-1.));
#382=DIRECTION('',(-1.,0.,0.));
#383=DIRECTION('center_axis',(1.,0.,0.));
#384=DIRECTION('ref_axis',(0.,-1.,0.));
#385=DIRECTION('',(-0.707106781186546,-0.707106781186549,-8.65956056235496E-17));
#386=DIRECTION('center_axis',(1.,0.,0.));
#387=DIRECTION('ref_axis',(0.,-1.,0.));
#388=DIRECTION('',(-0.707106781186544,-0.707106781186551,-8.65956056235498E-17));
#389=DIRECTION('center_axis',(1.,0.,0.));
#390=DIRECTION('ref_axis',(0.,-1.,0.));
#391=DIRECTION('center_axis',(-1.,0.,0.));
#392=DIRECTION('ref_axis',(0.,-1.,0.));
#393=DIRECTION('center_axis',(-1.,0.,0.));
#394=DIRECTION('ref_axis',(0.,-1.,0.));
#395=DIRECTION('',(-0.707106781186547,-0.707106781186547,-8.65956056235493E-17));
#396=DIRECTION('center_axis',(1.,0.,0.));
#397=DIRECTION('ref_axis',(0.,1.,0.));
#398=DIRECTION('center_axis',(1.,0.,0.));
#399=DIRECTION('ref_axis',(0.,-1.,0.));
#400=DIRECTION('center_axis',(1.,0.,0.));
#401=DIRECTION('ref_axis',(0.,-1.,0.));
#402=DIRECTION('',(-1.,0.,0.));
#403=DIRECTION('center_axis',(-1.,0.,0.));
#404=DIRECTION('ref_axis',(0.,-1.,0.));
#405=DIRECTION('center_axis',(-1.,0.,0.));
#406=DIRECTION('ref_axis',(0.,-1.,0.));
#407=DIRECTION('',(-0.707106781186558,0.707106781186537,8.65956056235481E-17));
#408=DIRECTION('center_axis',(1.,0.,0.));
#409=DIRECTION('ref_axis',(0.,0.,-1.));
#410=DIRECTION('center_axis',(1.,0.,0.));
#411=DIRECTION('ref_axis',(0.,0.,-1.));
#412=DIRECTION('center_axis',(1.,0.,0.));
#413=DIRECTION('ref_axis',(0.,1.,0.));
#414=DIRECTION('',(-0.866025403784439,0.5,6.12323399573676E-17));
#415=CARTESIAN_POINT('',(0.,0.,0.));
#416=CARTESIAN_POINT('Origin',(-9.4,0.,0.));
#417=CARTESIAN_POINT('',(-9.4,-7.5,-9.18485099360514E-16));
#418=CARTESIAN_POINT('',(-9.4,-9.18485099360514E-16,7.5));
#419=CARTESIAN_POINT('Origin',(-9.4,0.,0.));
#420=CARTESIAN_POINT('',(-9.,-9.67470971326409E-16,7.9));
#421=CARTESIAN_POINT('Origin',(-9.4,-9.67470971326409E-16,7.9));
#422=CARTESIAN_POINT('Origin',(-9.,0.,0.));
#423=CARTESIAN_POINT('Origin',(-9.4,0.,0.));
#424=CARTESIAN_POINT('Origin',(-12.5,0.,0.));
#425=CARTESIAN_POINT('',(-15.8,-7.5,-9.18485099360514E-16));
#426=CARTESIAN_POINT('',(-12.5,-7.5,-9.18485099360514E-16));
#427=CARTESIAN_POINT('',(-15.8,7.5,-9.18485099360514E-16));
#428=CARTESIAN_POINT('Origin',(-15.8,0.,0.));
#429=CARTESIAN_POINT('Origin',(-15.8,0.,0.));
#430=CARTESIAN_POINT('Origin',(-9.,8.75,0.));
#431=CARTESIAN_POINT('',(-9.,8.55,1.04707301327099E-15));
#432=CARTESIAN_POINT('Origin',(-9.,0.,0.));
#433=CARTESIAN_POINT('Origin',(-3.4,0.,0.));
#434=CARTESIAN_POINT('',(-3.4,-8.75,-1.07156594925393E-15));
#435=CARTESIAN_POINT('',(-3.4,-1.07156594925393E-15,8.75));
#436=CARTESIAN_POINT('Origin',(-3.4,0.,0.));
#437=CARTESIAN_POINT('',(-3.,-1.12055182121983E-15,9.15));
#438=CARTESIAN_POINT('Origin',(-3.4,-1.12055182121983E-15,9.15));
#439=CARTESIAN_POINT('Origin',(-3.,0.,0.));
#440=CARTESIAN_POINT('Origin',(-3.4,0.,0.));
#441=CARTESIAN_POINT('Origin',(-6.,0.,0.));
#442=CARTESIAN_POINT('',(-8.8,-8.75,-1.07156594925393E-15));
#443=CARTESIAN_POINT('',(-6.,-8.75,-1.07156594925393E-15));
#444=CARTESIAN_POINT('',(-8.8,8.75,-1.07156594925393E-15));
#445=CARTESIAN_POINT('Origin',(-8.8,0.,0.));
#446=CARTESIAN_POINT('Origin',(-8.8,0.,0.));
#447=CARTESIAN_POINT('Origin',(-3.,11.75,0.));
#448=CARTESIAN_POINT('',(-3.,11.55,1.41446705301519E-15));
#449=CARTESIAN_POINT('Origin',(-3.,0.,0.));
#450=CARTESIAN_POINT('Origin',(-15.9,0.,0.));
#451=CARTESIAN_POINT('',(-16.,6.2,-7.59281015471359E-16));
#452=CARTESIAN_POINT('Origin',(-16.,0.,0.));
#453=CARTESIAN_POINT('',(-15.8,6.,7.34788079488412E-16));
#454=CARTESIAN_POINT('',(-15.9,6.1,-7.47034547479885E-16));
#455=CARTESIAN_POINT('',(-15.8,-6.,-7.34788079488412E-16));
#456=CARTESIAN_POINT('Origin',(-15.8,0.,0.));
#457=CARTESIAN_POINT('Origin',(-15.8,0.,0.));
#458=CARTESIAN_POINT('Origin',(-16.,7.5,0.));
#459=CARTESIAN_POINT('',(-16.,7.3,8.93992163377567E-16));
#460=CARTESIAN_POINT('Origin',(-16.,0.,0.));
#461=CARTESIAN_POINT('Origin',(-8.86602540378444,0.,0.));
#462=CARTESIAN_POINT('',(-1.73205080756888,-6.,-7.34788079488412E-16));
#463=CARTESIAN_POINT('Origin',(-1.73205080756888,0.,0.));
#464=CARTESIAN_POINT('',(-8.86602540378444,-6.,-7.34788079488412E-16));
#465=CARTESIAN_POINT('Origin',(-15.9,0.,0.));
#466=CARTESIAN_POINT('',(-15.9,7.4,9.06238631369041E-16));
#467=CARTESIAN_POINT('Origin',(-8.9,0.,0.));
#468=CARTESIAN_POINT('',(-8.9,8.65,1.05931948126246E-15));
#469=CARTESIAN_POINT('Origin',(-2.9,0.,0.));
#470=CARTESIAN_POINT('',(-2.8,11.75,-1.43895998899814E-15));
#471=CARTESIAN_POINT('',(-2.8,-11.75,-1.43895998899814E-15));
#472=CARTESIAN_POINT('Origin',(-2.8,0.,0.));
#473=CARTESIAN_POINT('Origin',(-2.8,0.,0.));
#474=CARTESIAN_POINT('',(-2.9,11.65,1.42671352100667E-15));
#475=CARTESIAN_POINT('Origin',(-1.50000000000001,0.,0.));
#476=CARTESIAN_POINT('',(-0.200000000000009,11.75,1.43895998899814E-15));
#477=CARTESIAN_POINT('',(-0.200000000000009,-11.75,-1.43895998899814E-15));
#478=CARTESIAN_POINT('Origin',(-0.200000000000009,0.,0.));
#479=CARTESIAN_POINT('Origin',(-0.200000000000009,0.,0.));
#480=CARTESIAN_POINT('',(-1.50000000000001,-11.75,-1.43895998899814E-15));
#481=CARTESIAN_POINT('Origin',(-0.100000000000007,0.,0.));
#482=CARTESIAN_POINT('',(-5.55111512312578E-15,11.55,-1.41446705301519E-15));
#483=CARTESIAN_POINT('Origin',(-5.55111512312578E-15,0.,0.));
#484=CARTESIAN_POINT('',(-0.100000000000007,11.65,1.42671352100667E-15));
#485=CARTESIAN_POINT('Origin',(-5.55111512312578E-15,7.,0.));
#486=CARTESIAN_POINT('',(-5.41233724504764E-15,-7.,-8.57252759403147E-16));
#487=CARTESIAN_POINT('Origin',(-5.55111512312578E-15,0.,0.));
#488=CARTESIAN_POINT('Origin',(-0.866025403784445,0.,0.));
#489=CARTESIAN_POINT('',(-0.866025403784445,-6.5,-7.9602041944578E-16));
#490=UNCERTAINTY_MEASURE_WITH_UNIT(LENGTH_MEASURE(0.01),#494,
'DISTANCE_ACCURACY_VALUE',
'Maximum model space distance between geometric entities at asserted c
onnectivities');
#491=UNCERTAINTY_MEASURE_WITH_UNIT(LENGTH_MEASURE(0.01),#494,
'DISTANCE_ACCURACY_VALUE',
'Maximum model space distance between geometric entities at asserted c
onnectivities');
#492=(
GEOMETRIC_REPRESENTATION_CONTEXT(3)
GLOBAL_UNCERTAINTY_ASSIGNED_CONTEXT((#490))
GLOBAL_UNIT_ASSIGNED_CONTEXT((#494,#496,#497))
REPRESENTATION_CONTEXT('','3D')
);
#493=(
GEOMETRIC_REPRESENTATION_CONTEXT(3)
GLOBAL_UNCERTAINTY_ASSIGNED_CONTEXT((#491))
GLOBAL_UNIT_ASSIGNED_CONTEXT((#494,#496,#497))
REPRESENTATION_CONTEXT('','3D')
);
#494=(
LENGTH_UNIT()
NAMED_UNIT(*)
SI_UNIT(.MILLI.,.METRE.)
);
#495=(
LENGTH_UNIT()
NAMED_UNIT(*)
SI_UNIT(.CENTI.,.METRE.)
);
#496=(
NAMED_UNIT(*)
PLANE_ANGLE_UNIT()
SI_UNIT($,.RADIAN.)
);
#497=(
NAMED_UNIT(*)
SI_UNIT($,.STERADIAN.)
SOLID_ANGLE_UNIT()
);
#498=SHAPE_DEFINITION_REPRESENTATION(#499,#500);
#499=PRODUCT_DEFINITION_SHAPE('',$,#502);
#500=SHAPE_REPRESENTATION('',(#279),#492);
#501=PRODUCT_DEFINITION_CONTEXT('part definition',#506,'design');
#502=PRODUCT_DEFINITION('3D_R666-SE-15-DN20_17113324',
'3D_R666-SE-15-DN20_17113324',#503,#501);
#503=PRODUCT_DEFINITION_FORMATION('',$,#508);
#504=PRODUCT_RELATED_PRODUCT_CATEGORY('3D_R666-SE-15-DN20_17113324',
'3D_R666-SE-15-DN20_17113324',(#508));
#505=APPLICATION_PROTOCOL_DEFINITION('international standard',
'automotive_design',2009,#506);
#506=APPLICATION_CONTEXT(
'Core Data for Automotive Mechanical Design Process');
#507=PRODUCT_CONTEXT('part definition',#506,'mechanical');
#508=PRODUCT('3D_R666-SE-15-DN20_17113324',
'3D_R666-SE-15-DN20_17113324',$,(#507));
#509=PRESENTATION_STYLE_ASSIGNMENT((#510));
#510=SURFACE_STYLE_USAGE(.BOTH.,#513);
#511=SURFACE_STYLE_RENDERING_WITH_PROPERTIES($,#517,(#512));
#512=SURFACE_STYLE_TRANSPARENT(0.);
#513=SURFACE_SIDE_STYLE('',(#514,#511));
#514=SURFACE_STYLE_FILL_AREA(#515);
#515=FILL_AREA_STYLE('',(#516));
#516=FILL_AREA_STYLE_COLOUR('',#517);
#517=COLOUR_RGB('',0.749019607843137,0.749019607843137,0.749019607843137);
ENDSEC;
END-ISO-10303-21;
