ISO-10303-21;
HEADER;
FILE_DESCRIPTION (( 'STEP AP203' ),
    '1' );
FILE_NAME ('3D-LR-131-SE_21.3-16_17106530.STEP',
    '2024-09-02T20:24:13',
    ( '' ),
    ( '' ),
    'SwSTEP 2.0',
    'SolidWorks 2024',
    '' );
FILE_SCHEMA (( 'CONFIG_CONTROL_DESIGN' ));
ENDSEC;

DATA;
#1 = DIRECTION ( 'NONE',  ( 0.000000000000000000, 0.000000000000000000, 1.000000000000000000 ) ) ;
#2 = ADVANCED_FACE ( 'NONE', ( #414 ), #348, .F. ) ;
#3 = CARTESIAN_POINT ( 'NONE',  ( -8.500000000000003553, 7.999999999999996447, 0.000000000000000000 ) ) ;
#4 = ORIENTED_EDGE ( 'NONE', *, *, #426, .F. ) ;
#5 = CIRCLE ( 'NONE', #125, 14.00000000000000000 ) ;
#6 = VECTOR ( 'NONE', #135, 1000.000000000000000 ) ;
#7 = DIRECTION ( 'NONE',  ( 0.000000000000000000, 0.000000000000000000, 1.000000000000000000 ) ) ;
#8 = ORIENTED_EDGE ( 'NONE', *, *, #213, .T. ) ;
#9 = CARTESIAN_POINT ( 'NONE',  ( -36.70332301863295754, 0.000000000000000000, 0.000000000000000000 ) ) ;
#10 = DIRECTION ( 'NONE',  ( -1.000000000000000000, -0.000000000000000000, -0.000000000000000000 ) ) ;
#11 = EDGE_CURVE ( 'NONE', #231, #364, #260, .T. ) ;
#12 = CLOSED_SHELL ( 'NONE', ( #218, #282, #168, #379, #244, #288, #2, #268, #72, #47, #277, #360, #233 ) ) ;
#13 = LOCAL_TIME ( 22, 24, 13.00000000000000000, #384 ) ;
#14 = DIRECTION ( 'NONE',  ( 0.000000000000000000, 0.000000000000000000, 1.000000000000000000 ) ) ;
#15 = LINE ( 'NONE', #376, #175 ) ;
#16 = EDGE_CURVE ( 'NONE', #364, #231, #395, .T. ) ;
#17 = PLANE ( 'NONE',  #71 ) ;
#18 = ORIENTED_EDGE ( 'NONE', *, *, #398, .F. ) ;
#19 = AXIS2_PLACEMENT_3D ( 'NONE', #62, #299, #1 ) ;
#20 = FACE_OUTER_BOUND ( 'NONE', #191, .T. ) ;
#21 = DATE_AND_TIME ( #349, #362 ) ;
#22 = CARTESIAN_POINT ( 'NONE',  ( -36.70332301863295754, 0.000000000000000000, 0.000000000000000000 ) ) ;
#23 = CARTESIAN_POINT ( 'NONE',  ( 0.000000000000000000, 0.000000000000000000, 0.000000000000000000 ) ) ;
#24 = ORIENTED_EDGE ( 'NONE', *, *, #11, .T. ) ;
#25 = APPROVAL_PERSON_ORGANIZATION ( #87, #302, #262 ) ;
#26 = CC_DESIGN_DATE_AND_TIME_ASSIGNMENT ( #21, #123, ( #63 ) ) ;
#27 = PERSON_AND_ORGANIZATION ( #235, #31 ) ;
#28 = VERTEX_POINT ( 'NONE', #265 ) ;
#29 = LINE ( 'NONE', #390, #338 ) ;
#30 = FACE_OUTER_BOUND ( 'NONE', #326, .T. ) ;
#31 = ORGANIZATION ( 'UNSPECIFIED', 'UNSPECIFIED', '' ) ;
#32 = CYLINDRICAL_SURFACE ( 'NONE', #356, 10.65000000000000036 ) ;
#33 = FACE_OUTER_BOUND ( 'NONE', #42, .T. ) ;
#34 = VERTEX_POINT ( 'NONE', #161 ) ;
#35 = DIRECTION ( 'NONE',  ( 0.000000000000000000, 0.000000000000000000, 1.000000000000000000 ) ) ;
#36 = ORIENTED_EDGE ( 'NONE', *, *, #323, .T. ) ;
#37 = AXIS2_PLACEMENT_3D ( 'NONE', #350, #418, #53 ) ;
#38 = CC_DESIGN_APPROVAL ( #377, ( #312 ) ) ;
#39 = DIRECTION ( 'NONE',  ( -0.000000000000000000, 0.000000000000000000, 1.000000000000000000 ) ) ;
#40 = ORIENTED_EDGE ( 'NONE', *, *, #336, .F. ) ;
#41 = DIRECTION ( 'NONE',  ( -1.000000000000000000, -0.000000000000000000, -0.000000000000000000 ) ) ;
#42 = EDGE_LOOP ( 'NONE', ( #204, #226 ) ) ;
#43 = CARTESIAN_POINT ( 'NONE',  ( 1.499999999999994449, 0.000000000000000000, 0.000000000000000000 ) ) ;
#44 = ORIENTED_EDGE ( 'NONE', *, *, #307, .F. ) ;
#45 = CC_DESIGN_APPROVAL ( #302, ( #63 ) ) ;
#46 = CARTESIAN_POINT ( 'NONE',  ( -36.70332301863295754, 0.000000000000000000, 12.25000000000000000 ) ) ;
#47 = ADVANCED_FACE ( 'NONE', ( #20 ), #79, .T. ) ;
#48 = CARTESIAN_POINT ( 'NONE',  ( 8.500000000000000000, 9.797174393178823685E-16, -7.999999999999998224 ) ) ;
#49 = UNCERTAINTY_MEASURE_WITH_UNIT (LENGTH_MEASURE( 1.000000000000000082E-05 ), #321, 'distance_accuracy_value', 'NONE');
#50 = VECTOR ( 'NONE', #184, 1000.000000000000000 ) ;
#51 = DIRECTION ( 'NONE',  ( -1.000000000000000000, -0.000000000000000000, -0.000000000000000000 ) ) ;
#52 =( NAMED_UNIT ( * ) SI_UNIT ( $, .STERADIAN. ) SOLID_ANGLE_UNIT ( ) );
#53 = DIRECTION ( 'NONE',  ( 0.000000000000000000, 0.000000000000000000, 1.000000000000000000 ) ) ;
#54 = DATE_AND_TIME ( #421, #183 ) ;
#55 = DIRECTION ( 'NONE',  ( -1.000000000000000000, -0.000000000000000000, -0.000000000000000000 ) ) ;
#56 = APPLICATION_PROTOCOL_DEFINITION ( 'international standard', 'config_control_design', 1994, #185 ) ;
#57 = VERTEX_POINT ( 'NONE', #224 ) ;
#58 = AXIS2_PLACEMENT_3D ( 'NONE', #22, #55, #352 ) ;
#59 = EDGE_CURVE ( 'NONE', #335, #34, #404, .T. ) ;
#60 = EDGE_LOOP ( 'NONE', ( #240, #176 ) ) ;
#61 = DIRECTION ( 'NONE',  ( -1.000000000000000000, -0.000000000000000000, -0.000000000000000000 ) ) ;
#62 = CARTESIAN_POINT ( 'NONE',  ( -36.70332301863295754, 0.000000000000000000, 0.000000000000000000 ) ) ;
#63 = SECURITY_CLASSIFICATION ( '', '', #225 ) ;
#64 = CARTESIAN_POINT ( 'NONE',  ( -8.500000000000003553, 1.714505518806294638E-15, -14.00000000000000000 ) ) ;
#65 = ORIENTED_EDGE ( 'NONE', *, *, #398, .T. ) ;
#66 = DIRECTION ( 'NONE',  ( 0.000000000000000000, 0.000000000000000000, 1.000000000000000000 ) ) ;
#67 = EDGE_LOOP ( 'NONE', ( #305, #214, #374, #180 ) ) ;
#68 = CARTESIAN_POINT ( 'NONE',  ( -7.300000000000004263, 0.000000000000000000, 0.000000000000000000 ) ) ;
#69 = ORIENTED_EDGE ( 'NONE', *, *, #412, .T. ) ;
#70 = VECTOR ( 'NONE', #330, 1000.000000000000000 ) ;
#71 = AXIS2_PLACEMENT_3D ( 'NONE', #311, #210, #77 ) ;
#72 = ADVANCED_FACE ( 'NONE', ( #193 ), #320, .T. ) ;
#73 = FACE_OUTER_BOUND ( 'NONE', #60, .T. ) ;
#74 = EDGE_LOOP ( 'NONE', ( #341, #130, #105, #366 ) ) ;
#75 = FACE_BOUND ( 'NONE', #394, .T. ) ;
#76 = EDGE_LOOP ( 'NONE', ( #242, #156, #199, #91 ) ) ;
#77 = DIRECTION ( 'NONE',  ( 0.000000000000000000, 0.000000000000000000, -1.000000000000000000 ) ) ;
#78 = EDGE_CURVE ( 'NONE', #220, #231, #158, .T. ) ;
#79 = CONICAL_SURFACE ( 'NONE', #166, 14.00000000000000000, 1.396263401595467135 ) ;
#80 = APPROVAL_PERSON_ORGANIZATION ( #155, #377, #258 ) ;
#81 = DIRECTION ( 'NONE',  ( -1.000000000000000000, -0.000000000000000000, -0.000000000000000000 ) ) ;
#82 = CARTESIAN_POINT ( 'NONE',  ( -7.300000000000004263, 0.000000000000000000, 14.00000000000000000 ) ) ;
#83 = PERSON_AND_ORGANIZATION ( #235, #31 ) ;
#84 = CARTESIAN_POINT ( 'NONE',  ( 1.499999999999994449, 0.000000000000000000, 0.000000000000000000 ) ) ;
#85 = AXIS2_PLACEMENT_3D ( 'NONE', #257, #424, #380 ) ;
#86 = EDGE_CURVE ( 'NONE', #28, #220, #182, .T. ) ;
#87 = PERSON_AND_ORGANIZATION ( #235, #31 ) ;
#88 = CIRCLE ( 'NONE', #238, 7.999999999999998224 ) ;
#89 = ORIENTED_EDGE ( 'NONE', *, *, #336, .T. ) ;
#90 = PERSON_AND_ORGANIZATION_ROLE ( 'creator' ) ;
#91 = ORIENTED_EDGE ( 'NONE', *, *, #159, .T. ) ;
#92 = PERSON_AND_ORGANIZATION ( #235, #31 ) ;
#93 = ORIENTED_EDGE ( 'NONE', *, *, #16, .T. ) ;
#94 = EDGE_CURVE ( 'NONE', #278, #267, #5, .T. ) ;
#95 = ORIENTED_EDGE ( 'NONE', *, *, #107, .F. ) ;
#96 = AXIS2_PLACEMENT_3D ( 'NONE', #169, #397, #331 ) ;
#97 = CARTESIAN_POINT ( 'NONE',  ( -8.500000000000003553, 0.000000000000000000, 0.000000000000000000 ) ) ;
#98 = DIRECTION ( 'NONE',  ( -1.000000000000000000, -0.000000000000000000, -0.000000000000000000 ) ) ;
#99 = DIRECTION ( 'NONE',  ( 0.000000000000000000, 0.000000000000000000, 1.000000000000000000 ) ) ;
#100 = AXIS2_PLACEMENT_3D ( 'NONE', #322, #292, #422 ) ;
#101 = AXIS2_PLACEMENT_3D ( 'NONE', #400, #106, #243 ) ;
#102 = ORIENTED_EDGE ( 'NONE', *, *, #391, .T. ) ;
#103 = CC_DESIGN_PERSON_AND_ORGANIZATION_ASSIGNMENT ( #347, #413, ( #63 ) ) ;
#104 = CARTESIAN_POINT ( 'NONE',  ( 1.499999999999994449, 0.000000000000000000, 10.65000000000000213 ) ) ;
#105 = ORIENTED_EDGE ( 'NONE', *, *, #254, .F. ) ;
#106 = DIRECTION ( 'NONE',  ( -1.000000000000000000, -0.000000000000000000, -0.000000000000000000 ) ) ;
#107 = EDGE_CURVE ( 'NONE', #259, #113, #145, .T. ) ;
#108 = ORIENTED_EDGE ( 'NONE', *, *, #323, .F. ) ;
#109 = DIRECTION ( 'NONE',  ( 0.000000000000000000, 0.000000000000000000, 1.000000000000000000 ) ) ;
#110 = VERTEX_POINT ( 'NONE', #202 ) ;
#111 = AXIS2_PLACEMENT_3D ( 'NONE', #252, #148, #309 ) ;
#112 = DIRECTION ( 'NONE',  ( 0.000000000000000000, 0.000000000000000000, 1.000000000000000000 ) ) ;
#113 = VERTEX_POINT ( 'NONE', #236 ) ;
#114 = DIRECTION ( 'NONE',  ( -1.000000000000000000, -0.000000000000000000, -0.000000000000000000 ) ) ;
#115 = CARTESIAN_POINT ( 'NONE',  ( -8.500000000000003553, 0.000000000000000000, 0.000000000000000000 ) ) ;
#116 = AXIS2_PLACEMENT_3D ( 'NONE', #163, #295, #121 ) ;
#117 = AXIS2_PLACEMENT_3D ( 'NONE', #3, #407, #39 ) ;
#118 = CARTESIAN_POINT ( 'NONE',  ( 1.499999999999994449, 1.500192328955507734E-15, -12.25000000000000000 ) ) ;
#119 = CC_DESIGN_PERSON_AND_ORGANIZATION_ASSIGNMENT ( #354, #266, ( #296 ) ) ;
#120 = DATE_AND_TIME ( #293, #329 ) ;
#121 = DIRECTION ( 'NONE',  ( 0.000000000000000000, 0.000000000000000000, 1.000000000000000000 ) ) ;
#122 = EDGE_CURVE ( 'NONE', #325, #110, #425, .T. ) ;
#123 = DATE_TIME_ROLE ( 'classification_date' ) ;
#124 = EDGE_LOOP ( 'NONE', ( #143, #18 ) ) ;
#125 = AXIS2_PLACEMENT_3D ( 'NONE', #393, #98, #7 ) ;
#126 = AXIS2_PLACEMENT_3D ( 'NONE', #68, #237, #361 ) ;
#127 = DIRECTION ( 'NONE',  ( -1.000000000000000000, -0.000000000000000000, -0.000000000000000000 ) ) ;
#128 = APPROVAL_DATE_TIME ( #54, #302 ) ;
#129 = EDGE_CURVE ( 'NONE', #131, #325, #370, .T. ) ;
#130 = ORIENTED_EDGE ( 'NONE', *, *, #122, .T. ) ;
#131 = VERTEX_POINT ( 'NONE', #334 ) ;
#132 = CARTESIAN_POINT ( 'NONE',  ( -8.500000000000003553, 0.000000000000000000, 0.000000000000000000 ) ) ;
#133 = AXIS2_PLACEMENT_3D ( 'NONE', #273, #61, #35 ) ;
#134 = VECTOR ( 'NONE', #340, 999.9999999999998863 ) ;
#135 = DIRECTION ( 'NONE',  ( -1.000000000000000000, -0.000000000000000000, -0.000000000000000000 ) ) ;
#136 = CARTESIAN_POINT ( 'NONE',  ( -6.991427783760197023, 0.000000000000000000, 0.000000000000000000 ) ) ;
#137 = APPLICATION_CONTEXT ( 'configuration controlled 3d designs of mechanical parts and assemblies' ) ;
#138 = DIRECTION ( 'NONE',  ( -1.000000000000000000, -0.000000000000000000, -0.000000000000000000 ) ) ;
#139 = AXIS2_PLACEMENT_3D ( 'NONE', #339, #41, #14 ) ;
#140 = ORIENTED_EDGE ( 'NONE', *, *, #159, .F. ) ;
#141 = CARTESIAN_POINT ( 'NONE',  ( -36.70332301863295754, 1.500192328955507734E-15, -12.25000000000000000 ) ) ;
#142 = CYLINDRICAL_SURFACE ( 'NONE', #247, 12.25000000000000000 ) ;
#143 = ORIENTED_EDGE ( 'NONE', *, *, #129, .F. ) ;
#144 = DIRECTION ( 'NONE',  ( 0.000000000000000000, 0.000000000000000000, 1.000000000000000000 ) ) ;
#145 = CIRCLE ( 'NONE', #389, 14.00000000000000000 ) ;
#146 = ORIENTED_EDGE ( 'NONE', *, *, #307, .T. ) ;
#147 = DIRECTION ( 'NONE',  ( 0.000000000000000000, 0.000000000000000000, -1.000000000000000000 ) ) ;
#148 = DIRECTION ( 'NONE',  ( -1.000000000000000000, -0.000000000000000000, -0.000000000000000000 ) ) ;
#149 = DIRECTION ( 'NONE',  ( -1.000000000000000000, -0.000000000000000000, -0.000000000000000000 ) ) ;
#150 = VECTOR ( 'NONE', #195, 1000.000000000000000 ) ;
#151 = CIRCLE ( 'NONE', #316, 12.25000000000000000 ) ;
#152 = DIRECTION ( 'NONE',  ( 0.000000000000000000, 0.000000000000000000, 1.000000000000000000 ) ) ;
#153 = ORIENTED_EDGE ( 'NONE', *, *, #59, .F. ) ;
#154 = EDGE_CURVE ( 'NONE', #267, #278, #188, .T. ) ;
#155 = PERSON_AND_ORGANIZATION ( #235, #31 ) ;
#156 = ORIENTED_EDGE ( 'NONE', *, *, #294, .F. ) ;
#157 = MECHANICAL_CONTEXT ( 'NONE', #137, 'mechanical' ) ;
#158 = LINE ( 'NONE', #263, #150 ) ;
#159 = EDGE_CURVE ( 'NONE', #403, #206, #221, .T. ) ;
#160 = DATE_TIME_ROLE ( 'creation_date' ) ;
#161 = CARTESIAN_POINT ( 'NONE',  ( 8.500000000000000000, 0.000000000000000000, 7.999999999999998224 ) ) ;
#162 = PERSON_AND_ORGANIZATION_ROLE ( 'design_supplier' ) ;
#163 = CARTESIAN_POINT ( 'NONE',  ( -36.70332301863295754, 0.000000000000000000, 0.000000000000000000 ) ) ;
#164 = PRODUCT_DEFINITION ( 'UNKNOWN', '', #312, #368 ) ;
#165 = DIRECTION ( 'NONE',  ( -1.000000000000000000, -0.000000000000000000, -0.000000000000000000 ) ) ;
#166 = AXIS2_PLACEMENT_3D ( 'NONE', #287, #127, #416 ) ;
#167 = CYLINDRICAL_SURFACE ( 'NONE', #96, 10.65000000000000036 ) ;
#168 = ADVANCED_FACE ( 'NONE', ( #270 ), #304, .T. ) ;
#169 = CARTESIAN_POINT ( 'NONE',  ( -36.70332301863295754, 0.000000000000000000, 0.000000000000000000 ) ) ;
#170 = FACE_BOUND ( 'NONE', #289, .T. ) ;
#171 = ORIENTED_EDGE ( 'NONE', *, *, #200, .F. ) ;
#172 = EDGE_CURVE ( 'NONE', #113, #259, #419, .T. ) ;
#173 = DIRECTION ( 'NONE',  ( -1.000000000000000000, -0.000000000000000000, -0.000000000000000000 ) ) ;
#174 = AXIS2_PLACEMENT_3D ( 'NONE', #84, #51, #318 ) ;
#175 = VECTOR ( 'NONE', #81, 1000.000000000000000 ) ;
#176 = ORIENTED_EDGE ( 'NONE', *, *, #86, .F. ) ;
#177 = CYLINDRICAL_SURFACE ( 'NONE', #111, 14.00000000000000000 ) ;
#178 = ORIENTED_EDGE ( 'NONE', *, *, #353, .F. ) ;
#179 = CARTESIAN_POINT ( 'NONE',  ( 1.499999999999996669, 12.25000000000000000, 0.000000000000000000 ) ) ;
#180 = ORIENTED_EDGE ( 'NONE', *, *, #213, .F. ) ;
#181 = CARTESIAN_POINT ( 'NONE',  ( 8.500000000000000000, 0.000000000000000000, 0.000000000000000000 ) ) ;
#182 = CIRCLE ( 'NONE', #100, 10.65000000000000036 ) ;
#183 = LOCAL_TIME ( 22, 24, 13.00000000000000000, #351 ) ;
#184 = DIRECTION ( 'NONE',  ( -1.000000000000000000, -0.000000000000000000, -0.000000000000000000 ) ) ;
#185 = APPLICATION_CONTEXT ( 'configuration controlled 3d designs of mechanical parts and assemblies' ) ;
#186 = LINE ( 'NONE', #250, #372 ) ;
#187 = CALENDAR_DATE ( 2024, 2, 9 ) ;
#188 = CIRCLE ( 'NONE', #246, 14.00000000000000000 ) ;
#189 = AXIS2_PLACEMENT_3D ( 'NONE', #371, #373, #215 ) ;
#190 = COORDINATED_UNIVERSAL_TIME_OFFSET ( 1, 0, .AHEAD. ) ;
#191 = EDGE_LOOP ( 'NONE', ( #44, #387, #36, #301 ) ) ;
#192 = APPROVAL_DATE_TIME ( #120, #332 ) ;
#193 = FACE_OUTER_BOUND ( 'NONE', #209, .T. ) ;
#194 = APPROVAL_STATUS ( 'not_yet_approved' ) ;
#195 = DIRECTION ( 'NONE',  ( -1.000000000000000000, -0.000000000000000000, -0.000000000000000000 ) ) ;
#196 = DATE_AND_TIME ( #227, #13 ) ;
#197 = VECTOR ( 'NONE', #409, 999.9999999999998863 ) ;
#198 = EDGE_LOOP ( 'NONE', ( #399, #146, #95, #108 ) ) ;
#199 = ORIENTED_EDGE ( 'NONE', *, *, #426, .T. ) ;
#200 = EDGE_CURVE ( 'NONE', #113, #267, #303, .T. ) ;
#201 = CARTESIAN_POINT ( 'NONE',  ( -36.70332301863295754, 0.000000000000000000, 0.000000000000000000 ) ) ;
#202 = CARTESIAN_POINT ( 'NONE',  ( -6.991427783760197023, 1.607348923880901186E-15, -12.25000000000000000 ) ) ;
#203 = DIRECTION ( 'NONE',  ( 0.000000000000000000, 0.000000000000000000, 1.000000000000000000 ) ) ;
#204 = ORIENTED_EDGE ( 'NONE', *, *, #94, .T. ) ;
#205 = CARTESIAN_POINT ( 'NONE',  ( -7.300000000000004263, 0.000000000000000000, 0.000000000000000000 ) ) ;
#206 = VERTEX_POINT ( 'NONE', #392 ) ;
#207 = CARTESIAN_POINT ( 'NONE',  ( -36.70332301863295754, 1.714505518806294638E-15, -14.00000000000000000 ) ) ;
#208 = VECTOR ( 'NONE', #165, 1000.000000000000000 ) ;
#209 = EDGE_LOOP ( 'NONE', ( #171, #369, #8, #385 ) ) ;
#210 = DIRECTION ( 'NONE',  ( 1.000000000000000000, 0.000000000000000000, 0.000000000000000000 ) ) ;
#211 = ORIENTED_EDGE ( 'NONE', *, *, #239, .T. ) ;
#212 = DIRECTION ( 'NONE',  ( 0.000000000000000000, 0.000000000000000000, 1.000000000000000000 ) ) ;
#213 = EDGE_CURVE ( 'NONE', #259, #278, #29, .T. ) ;
#214 = ORIENTED_EDGE ( 'NONE', *, *, #200, .T. ) ;
#215 = DIRECTION ( 'NONE',  ( 0.000000000000000000, 0.000000000000000000, 1.000000000000000000 ) ) ;
#216 = CIRCLE ( 'NONE', #427, 12.25000000000000000 ) ;
#217 = FACE_OUTER_BOUND ( 'NONE', #74, .T. ) ;
#218 = ADVANCED_FACE ( 'NONE', ( #358 ), #32, .T. ) ;
#219 =( NAMED_UNIT ( * ) PLANE_ANGLE_UNIT ( ) SI_UNIT ( $, .RADIAN. ) );
#220 = VERTEX_POINT ( 'NONE', #298 ) ;
#221 = CIRCLE ( 'NONE', #382, 7.999999999999996447 ) ;
#222 = AXIS2_PLACEMENT_3D ( 'NONE', #23, #152, #315 ) ;
#223 = APPROVAL_STATUS ( 'not_yet_approved' ) ;
#224 = CARTESIAN_POINT ( 'NONE',  ( -6.991427783760197023, 0.000000000000000000, 12.25000000000000000 ) ) ;
#225 = SECURITY_CLASSIFICATION_LEVEL ( 'unclassified' ) ;
#226 = ORIENTED_EDGE ( 'NONE', *, *, #154, .T. ) ;
#227 = CALENDAR_DATE ( 2024, 2, 9 ) ;
#228 = ORIENTED_EDGE ( 'NONE', *, *, #294, .T. ) ;
#229 = PRODUCT_RELATED_PRODUCT_CATEGORY ( 'detail', '', ( #296 ) ) ;
#230 = CIRCLE ( 'NONE', #139, 10.65000000000000036 ) ;
#231 = VERTEX_POINT ( 'NONE', #104 ) ;
#232 = PRODUCT_DEFINITION_SHAPE ( 'NONE', 'NONE',  #164 ) ;
#233 = ADVANCED_FACE ( 'NONE', ( #30 ), #167, .T. ) ;
#234 = DIRECTION ( 'NONE',  ( -1.000000000000000000, -0.000000000000000000, -0.000000000000000000 ) ) ;
#235 = PERSON ( 'UNSPECIFIED', 'UNSPECIFIED', 'UNSPECIFIED', ('UNSPECIFIED'), ('UNSPECIFIED'), ('UNSPECIFIED') ) ;
#236 = CARTESIAN_POINT ( 'NONE',  ( -7.300000000000004263, 1.714505518806294638E-15, -14.00000000000000000 ) ) ;
#237 = DIRECTION ( 'NONE',  ( -1.000000000000000000, -0.000000000000000000, -0.000000000000000000 ) ) ;
#238 = AXIS2_PLACEMENT_3D ( 'NONE', #181, #344, #283 ) ;
#239 = EDGE_CURVE ( 'NONE', #335, #206, #429, .T. ) ;
#240 = ORIENTED_EDGE ( 'NONE', *, *, #319, .F. ) ;
#241 = CARTESIAN_POINT ( 'NONE',  ( -36.70332301863295754, 9.797174393178821713E-16, -7.999999999999996447 ) ) ;
#242 = ORIENTED_EDGE ( 'NONE', *, *, #239, .F. ) ;
#243 = DIRECTION ( 'NONE',  ( 0.000000000000000000, 0.000000000000000000, 1.000000000000000000 ) ) ;
#244 = ADVANCED_FACE ( 'NONE', ( #271 ), #365, .F. ) ;
#245 = LINE ( 'NONE', #82, #197 ) ;
#246 = AXIS2_PLACEMENT_3D ( 'NONE', #132, #173, #367 ) ;
#247 = AXIS2_PLACEMENT_3D ( 'NONE', #253, #114, #212 ) ;
#248 = CIRCLE ( 'NONE', #396, 7.999999999999996447 ) ;
#249 = EDGE_LOOP ( 'NONE', ( #355, #65, #69, #178 ) ) ;
#250 = CARTESIAN_POINT ( 'NONE',  ( -36.70332301863295754, 1.304248841091931261E-15, -10.65000000000000036 ) ) ;
#251 = ORIENTED_EDGE ( 'NONE', *, *, #319, .T. ) ;
#252 = CARTESIAN_POINT ( 'NONE',  ( -36.70332301863295754, 0.000000000000000000, 0.000000000000000000 ) ) ;
#253 = CARTESIAN_POINT ( 'NONE',  ( -36.70332301863295754, 0.000000000000000000, 0.000000000000000000 ) ) ;
#254 = EDGE_CURVE ( 'NONE', #57, #110, #151, .T. ) ;
#255 = PLANE ( 'NONE',  #428 ) ;
#256 = COORDINATED_UNIVERSAL_TIME_OFFSET ( 1, 0, .AHEAD. ) ;
#257 = CARTESIAN_POINT ( 'NONE',  ( 1.499999999999994449, 0.000000000000000000, 0.000000000000000000 ) ) ;
#258 = APPROVAL_ROLE ( '' ) ;
#259 = VERTEX_POINT ( 'NONE', #363 ) ;
#260 = CIRCLE ( 'NONE', #85, 10.65000000000000213 ) ;
#261 = LOCAL_TIME ( 22, 24, 13.00000000000000000, #291 ) ;
#262 = APPROVAL_ROLE ( '' ) ;
#263 = CARTESIAN_POINT ( 'NONE',  ( -36.70332301863295754, 0.000000000000000000, 10.65000000000000036 ) ) ;
#264 = CC_DESIGN_PERSON_AND_ORGANIZATION_ASSIGNMENT ( #83, #415, ( #312 ) ) ;
#265 = CARTESIAN_POINT ( 'NONE',  ( 8.500000000000000000, 1.304248841091931261E-15, -10.65000000000000036 ) ) ;
#266 = PERSON_AND_ORGANIZATION_ROLE ( 'design_owner' ) ;
#267 = VERTEX_POINT ( 'NONE', #64 ) ;
#268 = ADVANCED_FACE ( 'NONE', ( #33, #170 ), #300, .T. ) ;
#269 = AXIS2_PLACEMENT_3D ( 'NONE', #9, #378, #109 ) ;
#270 = FACE_OUTER_BOUND ( 'NONE', #198, .T. ) ;
#271 = FACE_OUTER_BOUND ( 'NONE', #275, .T. ) ;
#272 = DIRECTION ( 'NONE',  ( -1.000000000000000000, -0.000000000000000000, -0.000000000000000000 ) ) ;
#273 = CARTESIAN_POINT ( 'NONE',  ( 1.499999999999994449, 0.000000000000000000, 0.000000000000000000 ) ) ;
#274 = DIRECTION ( 'NONE',  ( -1.000000000000000000, -0.000000000000000000, -0.000000000000000000 ) ) ;
#275 = EDGE_LOOP ( 'NONE', ( #153, #211, #102, #4 ) ) ;
#276 = CYLINDRICAL_SURFACE ( 'NONE', #269, 12.25000000000000000 ) ;
#277 = ADVANCED_FACE ( 'NONE', ( #405 ), #142, .T. ) ;
#278 = VERTEX_POINT ( 'NONE', #402 ) ;
#279 = DIRECTION ( 'NONE',  ( -1.000000000000000000, -0.000000000000000000, -0.000000000000000000 ) ) ;
#280 = APPROVAL_PERSON_ORGANIZATION ( #346, #332, #423 ) ;
#281 = CARTESIAN_POINT ( 'NONE',  ( 1.499999999999994449, 1.304248841091931655E-15, -10.65000000000000213 ) ) ;
#282 = ADVANCED_FACE ( 'NONE', ( #217 ), #276, .T. ) ;
#283 = DIRECTION ( 'NONE',  ( 0.000000000000000000, 0.000000000000000000, 1.000000000000000000 ) ) ;
#284 = FACE_OUTER_BOUND ( 'NONE', #67, .T. ) ;
#285 = APPROVAL_DATE_TIME ( #417, #377 ) ;
#286 = ORIENTED_EDGE ( 'NONE', *, *, #11, .F. ) ;
#287 = CARTESIAN_POINT ( 'NONE',  ( -7.300000000000004263, 0.000000000000000000, 0.000000000000000000 ) ) ;
#288 = ADVANCED_FACE ( 'NONE', ( #313, #73 ), #17, .T. ) ;
#289 = EDGE_LOOP ( 'NONE', ( #140, #386 ) ) ;
#290 = CC_DESIGN_SECURITY_CLASSIFICATION ( #63, ( #312 ) ) ;
#291 = COORDINATED_UNIVERSAL_TIME_OFFSET ( 1, 0, .AHEAD. ) ;
#292 = DIRECTION ( 'NONE',  ( -1.000000000000000000, -0.000000000000000000, -0.000000000000000000 ) ) ;
#293 = CALENDAR_DATE ( 2024, 2, 9 ) ;
#294 = EDGE_CURVE ( 'NONE', #34, #335, #88, .T. ) ;
#295 = DIRECTION ( 'NONE',  ( -1.000000000000000000, -0.000000000000000000, -0.000000000000000000 ) ) ;
#296 = PRODUCT ( '3D-LR-131-SE_21.3-16_17106530', '3D-LR-131-SE_21.3-16_17106530', '', ( #157 ) ) ;
#297 = DIRECTION ( 'NONE',  ( 0.000000000000000000, 0.000000000000000000, 1.000000000000000000 ) ) ;
#298 = CARTESIAN_POINT ( 'NONE',  ( 8.500000000000000000, 0.000000000000000000, 10.65000000000000036 ) ) ;
#299 = DIRECTION ( 'NONE',  ( -1.000000000000000000, -0.000000000000000000, -0.000000000000000000 ) ) ;
#300 = PLANE ( 'NONE',  #117 ) ;
#301 = ORIENTED_EDGE ( 'NONE', *, *, #172, .F. ) ;
#302 = APPROVAL ( #223, 'UNSPECIFIED' ) ;
#303 = LINE ( 'NONE', #207, #208 ) ;
#304 = CONICAL_SURFACE ( 'NONE', #126, 14.00000000000000000, 1.396263401595467135 ) ;
#305 = ORIENTED_EDGE ( 'NONE', *, *, #107, .T. ) ;
#306 = LINE ( 'NONE', #314, #134 ) ;
#307 = EDGE_CURVE ( 'NONE', #110, #113, #306, .T. ) ;
#308 = ORIENTED_EDGE ( 'NONE', *, *, #78, .T. ) ;
#309 = DIRECTION ( 'NONE',  ( 0.000000000000000000, 0.000000000000000000, 1.000000000000000000 ) ) ;
#310 = ORIENTED_EDGE ( 'NONE', *, *, #78, .F. ) ;
#311 = CARTESIAN_POINT ( 'NONE',  ( 8.499999999999996447, 10.65000000000000036, 0.000000000000000000 ) ) ;
#312 = PRODUCT_DEFINITION_FORMATION_WITH_SPECIFIED_SOURCE ( 'ANY', '', #296, .NOT_KNOWN. ) ;
#313 = FACE_BOUND ( 'NONE', #381, .T. ) ;
#314 = CARTESIAN_POINT ( 'NONE',  ( -7.300000000000004263, 1.714505518806294638E-15, -14.00000000000000000 ) ) ;
#315 = DIRECTION ( 'NONE',  ( 1.000000000000000000, 0.000000000000000000, 0.000000000000000000 ) ) ;
#316 = AXIS2_PLACEMENT_3D ( 'NONE', #136, #272, #99 ) ;
#317 = APPLICATION_PROTOCOL_DEFINITION ( 'international standard', 'config_control_design', 1994, #137 ) ;
#318 = DIRECTION ( 'NONE',  ( 0.000000000000000000, 0.000000000000000000, 1.000000000000000000 ) ) ;
#319 = EDGE_CURVE ( 'NONE', #220, #28, #230, .T. ) ;
#320 = CYLINDRICAL_SURFACE ( 'NONE', #58, 14.00000000000000000 ) ;
#321 =( LENGTH_UNIT ( ) NAMED_UNIT ( * ) SI_UNIT ( .MILLI., .METRE. ) );
#322 = CARTESIAN_POINT ( 'NONE',  ( 8.500000000000000000, 0.000000000000000000, 0.000000000000000000 ) ) ;
#323 = EDGE_CURVE ( 'NONE', #57, #259, #245, .T. ) ;
#324 = APPROVAL_STATUS ( 'not_yet_approved' ) ;
#325 = VERTEX_POINT ( 'NONE', #118 ) ;
#326 = EDGE_LOOP ( 'NONE', ( #40, #357, #308, #333 ) ) ;
#327 = ADVANCED_BREP_SHAPE_REPRESENTATION ( '3D-LR-131-SE_21.3-16_17106530', ( #410, #222 ), #343 ) ;
#328 = DIRECTION ( 'NONE',  ( -1.000000000000000000, -0.000000000000000000, -0.000000000000000000 ) ) ;
#329 = LOCAL_TIME ( 22, 24, 13.00000000000000000, #256 ) ;
#330 = DIRECTION ( 'NONE',  ( -1.000000000000000000, -0.000000000000000000, -0.000000000000000000 ) ) ;
#331 = DIRECTION ( 'NONE',  ( 0.000000000000000000, 0.000000000000000000, 1.000000000000000000 ) ) ;
#332 = APPROVAL ( #194, 'UNSPECIFIED' ) ;
#333 = ORIENTED_EDGE ( 'NONE', *, *, #16, .F. ) ;
#334 = CARTESIAN_POINT ( 'NONE',  ( 1.499999999999994449, 0.000000000000000000, 12.25000000000000000 ) ) ;
#335 = VERTEX_POINT ( 'NONE', #48 ) ;
#336 = EDGE_CURVE ( 'NONE', #28, #364, #186, .T. ) ;
#337 = FACE_OUTER_BOUND ( 'NONE', #124, .T. ) ;
#338 = VECTOR ( 'NONE', #234, 1000.000000000000000 ) ;
#339 = CARTESIAN_POINT ( 'NONE',  ( 8.500000000000000000, 0.000000000000000000, 0.000000000000000000 ) ) ;
#340 = DIRECTION ( 'NONE',  ( -0.1736481776669269450, 1.206041662501898607E-16, -0.9848077530122087975 ) ) ;
#341 = ORIENTED_EDGE ( 'NONE', *, *, #129, .T. ) ;
#342 = LINE ( 'NONE', #46, #50 ) ;
#343 =( GEOMETRIC_REPRESENTATION_CONTEXT ( 3 ) GLOBAL_UNCERTAINTY_ASSIGNED_CONTEXT ( ( #49 ) ) GLOBAL_UNIT_ASSIGNED_CONTEXT ( ( #321, #219, #52 ) ) REPRESENTATION_CONTEXT ( 'NONE', 'WORKASPACE' ) );
#344 = DIRECTION ( 'NONE',  ( -1.000000000000000000, -0.000000000000000000, -0.000000000000000000 ) ) ;
#345 = CC_DESIGN_PERSON_AND_ORGANIZATION_ASSIGNMENT ( #27, #162, ( #312 ) ) ;
#346 = PERSON_AND_ORGANIZATION ( #235, #31 ) ;
#347 = PERSON_AND_ORGANIZATION ( #235, #31 ) ;
#348 = CYLINDRICAL_SURFACE ( 'NONE', #116, 7.999999999999996447 ) ;
#349 = CALENDAR_DATE ( 2024, 2, 9 ) ;
#350 = CARTESIAN_POINT ( 'NONE',  ( 8.500000000000000000, 0.000000000000000000, 0.000000000000000000 ) ) ;
#351 = COORDINATED_UNIVERSAL_TIME_OFFSET ( 1, 0, .AHEAD. ) ;
#352 = DIRECTION ( 'NONE',  ( 0.000000000000000000, 0.000000000000000000, 1.000000000000000000 ) ) ;
#353 = EDGE_CURVE ( 'NONE', #110, #57, #420, .T. ) ;
#354 = PERSON_AND_ORGANIZATION ( #235, #31 ) ;
#355 = ORIENTED_EDGE ( 'NONE', *, *, #122, .F. ) ;
#356 = AXIS2_PLACEMENT_3D ( 'NONE', #201, #328, #66 ) ;
#357 = ORIENTED_EDGE ( 'NONE', *, *, #86, .T. ) ;
#358 = FACE_OUTER_BOUND ( 'NONE', #401, .T. ) ;
#359 = SHAPE_DEFINITION_REPRESENTATION ( #232, #327 ) ;
#360 = ADVANCED_FACE ( 'NONE', ( #75, #337 ), #255, .T. ) ;
#361 = DIRECTION ( 'NONE',  ( 0.000000000000000000, 0.000000000000000000, 1.000000000000000000 ) ) ;
#362 = LOCAL_TIME ( 22, 24, 13.00000000000000000, #190 ) ;
#363 = CARTESIAN_POINT ( 'NONE',  ( -7.300000000000004263, 0.000000000000000000, 14.00000000000000000 ) ) ;
#364 = VERTEX_POINT ( 'NONE', #281 ) ;
#365 = CYLINDRICAL_SURFACE ( 'NONE', #19, 7.999999999999996447 ) ;
#366 = ORIENTED_EDGE ( 'NONE', *, *, #412, .F. ) ;
#367 = DIRECTION ( 'NONE',  ( 0.000000000000000000, 0.000000000000000000, 1.000000000000000000 ) ) ;
#368 = DESIGN_CONTEXT ( 'detailed design', #185, 'design' ) ;
#369 = ORIENTED_EDGE ( 'NONE', *, *, #172, .T. ) ;
#370 = CIRCLE ( 'NONE', #133, 12.25000000000000000 ) ;
#371 = CARTESIAN_POINT ( 'NONE',  ( -6.991427783760197023, 0.000000000000000000, 0.000000000000000000 ) ) ;
#372 = VECTOR ( 'NONE', #149, 1000.000000000000000 ) ;
#373 = DIRECTION ( 'NONE',  ( -1.000000000000000000, -0.000000000000000000, -0.000000000000000000 ) ) ;
#374 = ORIENTED_EDGE ( 'NONE', *, *, #94, .F. ) ;
#375 = CARTESIAN_POINT ( 'NONE',  ( -8.500000000000003553, 0.000000000000000000, 7.999999999999996447 ) ) ;
#376 = CARTESIAN_POINT ( 'NONE',  ( -36.70332301863295754, 0.000000000000000000, 7.999999999999996447 ) ) ;
#377 = APPROVAL ( #324, 'UNSPECIFIED' ) ;
#378 = DIRECTION ( 'NONE',  ( -1.000000000000000000, -0.000000000000000000, -0.000000000000000000 ) ) ;
#379 = ADVANCED_FACE ( 'NONE', ( #284 ), #177, .T. ) ;
#380 = DIRECTION ( 'NONE',  ( 0.000000000000000000, 0.000000000000000000, 1.000000000000000000 ) ) ;
#381 = EDGE_LOOP ( 'NONE', ( #228, #406 ) ) ;
#382 = AXIS2_PLACEMENT_3D ( 'NONE', #97, #274, #203 ) ;
#383 = CC_DESIGN_APPROVAL ( #332, ( #164 ) ) ;
#384 = COORDINATED_UNIVERSAL_TIME_OFFSET ( 1, 0, .AHEAD. ) ;
#385 = ORIENTED_EDGE ( 'NONE', *, *, #154, .F. ) ;
#386 = ORIENTED_EDGE ( 'NONE', *, *, #391, .F. ) ;
#387 = ORIENTED_EDGE ( 'NONE', *, *, #353, .T. ) ;
#388 = CC_DESIGN_PERSON_AND_ORGANIZATION_ASSIGNMENT ( #92, #90, ( #164 ) ) ;
#389 = AXIS2_PLACEMENT_3D ( 'NONE', #205, #138, #297 ) ;
#390 = CARTESIAN_POINT ( 'NONE',  ( -36.70332301863295754, 0.000000000000000000, 14.00000000000000000 ) ) ;
#391 = EDGE_CURVE ( 'NONE', #206, #403, #248, .T. ) ;
#392 = CARTESIAN_POINT ( 'NONE',  ( -8.500000000000003553, 9.797174393178821713E-16, -7.999999999999996447 ) ) ;
#393 = CARTESIAN_POINT ( 'NONE',  ( -8.500000000000003553, 0.000000000000000000, 0.000000000000000000 ) ) ;
#394 = EDGE_LOOP ( 'NONE', ( #24, #93 ) ) ;
#395 = CIRCLE ( 'NONE', #174, 10.65000000000000213 ) ;
#396 = AXIS2_PLACEMENT_3D ( 'NONE', #115, #10, #144 ) ;
#397 = DIRECTION ( 'NONE',  ( -1.000000000000000000, -0.000000000000000000, -0.000000000000000000 ) ) ;
#398 = EDGE_CURVE ( 'NONE', #325, #131, #216, .T. ) ;
#399 = ORIENTED_EDGE ( 'NONE', *, *, #254, .T. ) ;
#400 = CARTESIAN_POINT ( 'NONE',  ( -7.300000000000004263, 0.000000000000000000, 0.000000000000000000 ) ) ;
#401 = EDGE_LOOP ( 'NONE', ( #251, #89, #286, #310 ) ) ;
#402 = CARTESIAN_POINT ( 'NONE',  ( -8.500000000000003553, 0.000000000000000000, 14.00000000000000000 ) ) ;
#403 = VERTEX_POINT ( 'NONE', #375 ) ;
#404 = CIRCLE ( 'NONE', #37, 7.999999999999998224 ) ;
#405 = FACE_OUTER_BOUND ( 'NONE', #249, .T. ) ;
#406 = ORIENTED_EDGE ( 'NONE', *, *, #59, .T. ) ;
#407 = DIRECTION ( 'NONE',  ( -1.000000000000000000, 0.000000000000000000, -0.000000000000000000 ) ) ;
#408 = CC_DESIGN_DATE_AND_TIME_ASSIGNMENT ( #196, #160, ( #164 ) ) ;
#409 = DIRECTION ( 'NONE',  ( -0.1736481776669269450, 0.000000000000000000, 0.9848077530122087975 ) ) ;
#410 = MANIFOLD_SOLID_BREP ( 'Rotation1', #12 ) ;
#411 = DIRECTION ( 'NONE',  ( 1.000000000000000000, 0.000000000000000000, 0.000000000000000000 ) ) ;
#412 = EDGE_CURVE ( 'NONE', #131, #57, #342, .T. ) ;
#413 = PERSON_AND_ORGANIZATION_ROLE ( 'classification_officer' ) ;
#414 = FACE_OUTER_BOUND ( 'NONE', #76, .T. ) ;
#415 = PERSON_AND_ORGANIZATION_ROLE ( 'creator' ) ;
#416 = DIRECTION ( 'NONE',  ( 0.000000000000000000, 0.000000000000000000, 1.000000000000000000 ) ) ;
#417 = DATE_AND_TIME ( #187, #261 ) ;
#418 = DIRECTION ( 'NONE',  ( -1.000000000000000000, -0.000000000000000000, -0.000000000000000000 ) ) ;
#419 = CIRCLE ( 'NONE', #101, 14.00000000000000000 ) ;
#420 = CIRCLE ( 'NONE', #189, 12.25000000000000000 ) ;
#421 = CALENDAR_DATE ( 2024, 2, 9 ) ;
#422 = DIRECTION ( 'NONE',  ( 0.000000000000000000, 0.000000000000000000, 1.000000000000000000 ) ) ;
#423 = APPROVAL_ROLE ( '' ) ;
#424 = DIRECTION ( 'NONE',  ( -1.000000000000000000, -0.000000000000000000, -0.000000000000000000 ) ) ;
#425 = LINE ( 'NONE', #141, #70 ) ;
#426 = EDGE_CURVE ( 'NONE', #34, #403, #15, .T. ) ;
#427 = AXIS2_PLACEMENT_3D ( 'NONE', #43, #279, #112 ) ;
#428 = AXIS2_PLACEMENT_3D ( 'NONE', #179, #411, #147 ) ;
#429 = LINE ( 'NONE', #241, #6 ) ;
ENDSEC;
END-ISO-10303-21;
