ISO-10303-21;
HEADER;
FILE_DESCRIPTION (( 'STEP AP203' ),
    '1' );
FILE_NAME ('3D_R1620_85x2_173631150.STEP',
    '2024-08-27T11:08:09',
    ( '' ),
    ( '' ),
    'SwSTEP 2.0',
    'SolidWorks 2024',
    '' );
FILE_SCHEMA (( 'CONFIG_CONTROL_DESIGN' ));
ENDSEC;

DATA;
#1 = ORIENTED_EDGE ( 'NONE', *, *, #129, .F. ) ;
#2 = VERTEX_POINT ( 'NONE', #137 ) ;
#3 = SECURITY_CLASSIFICATION ( '', '', #193 ) ;
#4 = PERSON_AND_ORGANIZATION ( #115, #159 ) ;
#5 = CC_DESIGN_PERSON_AND_ORGANIZATION_ASSIGNMENT ( #70, #169, ( #190 ) ) ;
#6 = AXIS2_PLACEMENT_3D ( 'NONE', #82, #104, #149 ) ;
#7 = AXIS2_PLACEMENT_3D ( 'NONE', #150, #93, #105 ) ;
#8 = CARTESIAN_POINT ( 'NONE',  ( 0.000000000000000000, 0.000000000000000000, 0.000000000000000000 ) ) ;
#9 = CARTESIAN_POINT ( 'NONE',  ( -90.00000000000000000, 0.000000000000000000, -1.653273178848931758E-14 ) ) ;
#10 = FACE_BOUND ( 'NONE', #251, .T. ) ;
#11 = CARTESIAN_POINT ( 'NONE',  ( 0.000000000000000000, 0.000000000000000000, 0.000000000000000000 ) ) ;
#12 = CARTESIAN_POINT ( 'NONE',  ( 0.000000000000000000, 0.000000000000000000, 0.000000000000000000 ) ) ;
#13 = PERSON_AND_ORGANIZATION ( #115, #159 ) ;
#14 = CIRCLE ( 'NONE', #88, 42.50000000000000000 ) ;
#15 = DATE_AND_TIME ( #54, #46 ) ;
#16 =( LENGTH_UNIT ( ) NAMED_UNIT ( * ) SI_UNIT ( .MILLI., .METRE. ) );
#17 = VERTEX_POINT ( 'NONE', #84 ) ;
#18 = APPROVAL_ROLE ( '' ) ;
#19 = CIRCLE ( 'NONE', #116, 47.49999999999999289 ) ;
#20 = EDGE_LOOP ( 'NONE', ( #175, #97, #21, #152 ) ) ;
#21 = ORIENTED_EDGE ( 'NONE', *, *, #129, .T. ) ;
#22 = VERTEX_POINT ( 'NONE', #166 ) ;
#23 = AXIS2_PLACEMENT_3D ( 'NONE', #52, #27, #81 ) ;
#24 = DATE_AND_TIME ( #195, #148 ) ;
#25 = APPROVAL_ROLE ( '' ) ;
#26 = CIRCLE ( 'NONE', #62, 49.49999999999999289 ) ;
#27 = DIRECTION ( 'NONE',  ( -1.000000000000000000, 0.000000000000000000, 2.943923360032083078E-15 ) ) ;
#28 = DIRECTION ( 'NONE',  ( 0.000000000000000000, 1.000000000000000000, 0.000000000000000000 ) ) ;
#29 = DIRECTION ( 'NONE',  ( 0.000000000000000000, 1.000000000000000000, 0.000000000000000000 ) ) ;
#30 = CIRCLE ( 'NONE', #206, 40.50000000000000000 ) ;
#31 = CARTESIAN_POINT ( 'NONE',  ( -3.841819984841868607E-13, 0.000000000000000000, -130.5000000000000000 ) ) ;
#32 = CARTESIAN_POINT ( 'NONE',  ( 0.000000000000000000, 0.000000000000000000, 0.000000000000000000 ) ) ;
#33 = COORDINATED_UNIVERSAL_TIME_OFFSET ( 1, 0, .AHEAD. ) ;
#34 = APPROVAL_ROLE ( '' ) ;
#35 = TOROIDAL_SURFACE ( 'NONE', #197, 90.00000000000000000, 42.50000000000000000 ) ;
#36 = ORIENTED_EDGE ( 'NONE', *, *, #172, .T. ) ;
#37 = PERSON_AND_ORGANIZATION ( #115, #159 ) ;
#38 = CIRCLE ( 'NONE', #80, 132.5000000000000000 ) ;
#39 = APPROVAL_STATUS ( 'not_yet_approved' ) ;
#40 = EDGE_LOOP ( 'NONE', ( #36, #157 ) ) ;
#41 = EDGE_LOOP ( 'NONE', ( #160, #77 ) ) ;
#42 = DATE_TIME_ROLE ( 'classification_date' ) ;
#43 = AXIS2_PLACEMENT_3D ( 'NONE', #32, #145, #141 ) ;
#44 = EDGE_CURVE ( 'NONE', #132, #17, #60, .T. ) ;
#45 = APPROVAL ( #73, 'UNSPECIFIED' ) ;
#46 = LOCAL_TIME ( 13, 8, 9.000000000000000000, #230 ) ;
#47 = DIRECTION ( 'NONE',  ( -1.000000000000000000, 0.000000000000000000, 2.943923360032083078E-15 ) ) ;
#48 = PRODUCT_RELATED_PRODUCT_CATEGORY ( 'detail', '', ( #139 ) ) ;
#49 = DIRECTION ( 'NONE',  ( 0.000000000000000000, 0.000000000000000000, 1.000000000000000000 ) ) ;
#50 = CC_DESIGN_APPROVAL ( #118, ( #3 ) ) ;
#51 = CARTESIAN_POINT ( 'NONE',  ( -90.00000000000000000, 0.000000000000000000, -2.033401039881508751E-14 ) ) ;
#52 = CARTESIAN_POINT ( 'NONE',  ( -2.649531024028874518E-13, 0.000000000000000000, -90.00000000000000000 ) ) ;
#53 = AXIS2_PLACEMENT_3D ( 'NONE', #51, #63, #164 ) ;
#54 = CALENDAR_DATE ( 2024, 27, 8 ) ;
#55 = AXIS2_PLACEMENT_3D ( 'NONE', #12, #29, #61 ) ;
#56 = ORIENTED_EDGE ( 'NONE', *, *, #153, .T. ) ;
#57 = ADVANCED_FACE ( 'NONE', ( #103 ), #247, .F. ) ;
#58 = COORDINATED_UNIVERSAL_TIME_OFFSET ( 1, 0, .AHEAD. ) ;
#59 = EDGE_LOOP ( 'NONE', ( #56, #178, #117, #1 ) ) ;
#60 = CIRCLE ( 'NONE', #242, 130.5000000000000000 ) ;
#61 = DIRECTION ( 'NONE',  ( 0.000000000000000000, 0.000000000000000000, 1.000000000000000000 ) ) ;
#62 = AXIS2_PLACEMENT_3D ( 'NONE', #186, #94, #174 ) ;
#63 = DIRECTION ( 'NONE',  ( -2.259334488757232034E-16, 0.000000000000000000, 1.000000000000000000 ) ) ;
#64 = DIRECTION ( 'NONE',  ( -1.000000000000000000, 0.000000000000000000, 2.943923360032083078E-15 ) ) ;
#65 = CC_DESIGN_PERSON_AND_ORGANIZATION_ASSIGNMENT ( #250, #131, ( #139 ) ) ;
#66 = DIRECTION ( 'NONE',  ( 2.943923360032083078E-15, 0.000000000000000000, 1.000000000000000000 ) ) ;
#67 = TOROIDAL_SURFACE ( 'NONE', #55, 90.00000000000000000, 40.50000000000000000 ) ;
#68 = APPROVAL_PERSON_ORGANIZATION ( #4, #118, #25 ) ;
#69 = EDGE_CURVE ( 'NONE', #132, #171, #179, .T. ) ;
#70 = PERSON_AND_ORGANIZATION ( #115, #159 ) ;
#71 = APPROVAL ( #128, 'UNSPECIFIED' ) ;
#72 = ADVANCED_FACE ( 'NONE', ( #83 ), #67, .F. ) ;
#73 = APPROVAL_STATUS ( 'not_yet_approved' ) ;
#74 = VERTEX_POINT ( 'NONE', #184 ) ;
#75 = EDGE_LOOP ( 'NONE', ( #79, #218, #220, #135 ) ) ;
#76 = DATE_AND_TIME ( #188, #225 ) ;
#77 = ORIENTED_EDGE ( 'NONE', *, *, #69, .T. ) ;
#78 = PRODUCT_DEFINITION_FORMATION_WITH_SPECIFIED_SOURCE ( 'ANY', '', #139, .NOT_KNOWN. ) ;
#79 = ORIENTED_EDGE ( 'NONE', *, *, #69, .F. ) ;
#80 = AXIS2_PLACEMENT_3D ( 'NONE', #204, #203, #100 ) ;
#81 = DIRECTION ( 'NONE',  ( 2.943923360032083473E-15, 0.000000000000000000, 1.000000000000000000 ) ) ;
#82 = CARTESIAN_POINT ( 'NONE',  ( -2.687543810132132849E-13, 0.000000000000000000, -90.00000000000000000 ) ) ;
#83 = FACE_OUTER_BOUND ( 'NONE', #75, .T. ) ;
#84 = CARTESIAN_POINT ( 'NONE',  ( -130.5000000000000000, 0.000000000000000000, -2.948431507828188336E-14 ) ) ;
#85 = EDGE_CURVE ( 'NONE', #231, #17, #221, .T. ) ;
#86 = DIRECTION ( 'NONE',  ( -2.259334488757235978E-16, 0.000000000000000000, 1.000000000000000000 ) ) ;
#87 = CARTESIAN_POINT ( 'NONE',  ( -1.457242063215880682E-13, 0.000000000000000000, -49.49999999999999289 ) ) ;
#88 = AXIS2_PLACEMENT_3D ( 'NONE', #248, #168, #249 ) ;
#89 = CC_DESIGN_DATE_AND_TIME_ASSIGNMENT ( #24, #42, ( #3 ) ) ;
#90 = DIRECTION ( 'NONE',  ( -2.259334488757232034E-16, 0.000000000000000000, 1.000000000000000000 ) ) ;
#91 = MECHANICAL_CONTEXT ( 'NONE', #198, 'mechanical' ) ;
#92 = EDGE_CURVE ( 'NONE', #191, #2, #192, .T. ) ;
#93 = DIRECTION ( 'NONE',  ( 0.000000000000000000, 0.000000000000000000, 1.000000000000000000 ) ) ;
#94 = DIRECTION ( 'NONE',  ( 0.000000000000000000, 1.000000000000000000, 0.000000000000000000 ) ) ;
#95 = ORIENTED_EDGE ( 'NONE', *, *, #85, .F. ) ;
#96 = ADVANCED_FACE ( 'NONE', ( #244 ), #138, .T. ) ;
#97 = ORIENTED_EDGE ( 'NONE', *, *, #92, .T. ) ;
#98 = DIRECTION ( 'NONE',  ( 0.000000000000000000, 1.000000000000000000, 0.000000000000000000 ) ) ;
#99 = EDGE_CURVE ( 'NONE', #171, #132, #30, .T. ) ;
#100 = DIRECTION ( 'NONE',  ( 0.000000000000000000, 0.000000000000000000, 1.000000000000000000 ) ) ;
#101 = CARTESIAN_POINT ( 'NONE',  ( -90.00000000000000000, 0.000000000000000000, -2.033401039881508751E-14 ) ) ;
#102 = AXIS2_PLACEMENT_3D ( 'NONE', #200, #228, #205 ) ;
#103 = FACE_OUTER_BOUND ( 'NONE', #136, .T. ) ;
#104 = DIRECTION ( 'NONE',  ( -1.000000000000000000, 0.000000000000000000, 2.943923360032083078E-15 ) ) ;
#105 = DIRECTION ( 'NONE',  ( 1.000000000000000000, 0.000000000000000000, 0.000000000000000000 ) ) ;
#106 = CALENDAR_DATE ( 2024, 27, 8 ) ;
#107 = CC_DESIGN_APPROVAL ( #71, ( #78 ) ) ;
#108 = PERSON_AND_ORGANIZATION ( #115, #159 ) ;
#109 = ADVANCED_FACE ( 'NONE', ( #165 ), #35, .T. ) ;
#110 = ORIENTED_EDGE ( 'NONE', *, *, #99, .F. ) ;
#111 = PERSON_AND_ORGANIZATION_ROLE ( 'design_supplier' ) ;
#112 = APPROVAL_PERSON_ORGANIZATION ( #108, #71, #18 ) ;
#113 = ADVANCED_FACE ( 'NONE', ( #245, #125 ), #121, .F. ) ;
#114 = EDGE_LOOP ( 'NONE', ( #177, #194 ) ) ;
#115 = PERSON ( 'UNSPECIFIED', 'UNSPECIFIED', 'UNSPECIFIED', ('UNSPECIFIED'), ('UNSPECIFIED'), ('UNSPECIFIED') ) ;
#116 = AXIS2_PLACEMENT_3D ( 'NONE', #143, #123, #49 ) ;
#117 = ORIENTED_EDGE ( 'NONE', *, *, #172, .F. ) ;
#118 = APPROVAL ( #39, 'UNSPECIFIED' ) ;
#119 =( GEOMETRIC_REPRESENTATION_CONTEXT ( 3 ) GLOBAL_UNCERTAINTY_ASSIGNED_CONTEXT ( ( #236 ) ) GLOBAL_UNIT_ASSIGNED_CONTEXT ( ( #16, #151, #189 ) ) REPRESENTATION_CONTEXT ( 'NONE', 'WORKASPACE' ) );
#120 = DIRECTION ( 'NONE',  ( -2.259334488757232034E-16, 0.000000000000000000, 1.000000000000000000 ) ) ;
#121 = PLANE ( 'NONE',  #147 ) ;
#122 = CC_DESIGN_PERSON_AND_ORGANIZATION_ASSIGNMENT ( #126, #209, ( #3 ) ) ;
#123 = DIRECTION ( 'NONE',  ( 0.000000000000000000, 1.000000000000000000, 0.000000000000000000 ) ) ;
#124 = EDGE_CURVE ( 'NONE', #17, #231, #216, .T. ) ;
#125 = FACE_OUTER_BOUND ( 'NONE', #114, .T. ) ;
#126 = PERSON_AND_ORGANIZATION ( #115, #159 ) ;
#127 = APPROVAL_DATE_TIME ( #15, #45 ) ;
#128 = APPROVAL_STATUS ( 'not_yet_approved' ) ;
#129 = EDGE_CURVE ( 'NONE', #2, #74, #19, .T. ) ;
#130 = DATE_AND_TIME ( #106, #187 ) ;
#131 = PERSON_AND_ORGANIZATION_ROLE ( 'design_owner' ) ;
#132 = VERTEX_POINT ( 'NONE', #31 ) ;
#133 = CLOSED_SHELL ( 'NONE', ( #72, #96, #109, #144, #113, #57 ) ) ;
#134 = APPROVAL_PERSON_ORGANIZATION ( #13, #45, #34 ) ;
#135 = ORIENTED_EDGE ( 'NONE', *, *, #161, .F. ) ;
#136 = EDGE_LOOP ( 'NONE', ( #239, #110, #155, #233 ) ) ;
#137 = CARTESIAN_POINT ( 'NONE',  ( -1.436376382118497351E-13, 0.000000000000000000, -47.49999999999999289 ) ) ;
#138 = TOROIDAL_SURFACE ( 'NONE', #167, 90.00000000000000000, 42.50000000000000000 ) ;
#139 = PRODUCT ( '3D_R1620_85x2_173631150', '3D_R1620_85x2_173631150', '', ( #91 ) ) ;
#140 = EDGE_CURVE ( 'NONE', #191, #22, #38, .T. ) ;
#141 = DIRECTION ( 'NONE',  ( 0.000000000000000000, 0.000000000000000000, 1.000000000000000000 ) ) ;
#142 = AXIS2_PLACEMENT_3D ( 'NONE', #101, #120, #243 ) ;
#143 = CARTESIAN_POINT ( 'NONE',  ( 0.000000000000000000, -5.204748896376250896E-15, 0.000000000000000000 ) ) ;
#144 = ADVANCED_FACE ( 'NONE', ( #10, #146 ), #183, .T. ) ;
#145 = DIRECTION ( 'NONE',  ( 0.000000000000000000, 1.000000000000000000, 0.000000000000000000 ) ) ;
#146 = FACE_OUTER_BOUND ( 'NONE', #40, .T. ) ;
#147 = AXIS2_PLACEMENT_3D ( 'NONE', #246, #64, #66 ) ;
#148 = LOCAL_TIME ( 13, 8, 9.000000000000000000, #58 ) ;
#149 = DIRECTION ( 'NONE',  ( 2.943923360032083473E-15, 0.000000000000000000, 1.000000000000000000 ) ) ;
#150 = CARTESIAN_POINT ( 'NONE',  ( 0.000000000000000000, 0.000000000000000000, 0.000000000000000000 ) ) ;
#151 =( NAMED_UNIT ( * ) PLANE_ANGLE_UNIT ( ) SI_UNIT ( $, .RADIAN. ) );
#152 = ORIENTED_EDGE ( 'NONE', *, *, #235, .F. ) ;
#153 = EDGE_CURVE ( 'NONE', #2, #191, #173, .T. ) ;
#154 = APPLICATION_PROTOCOL_DEFINITION ( 'international standard', 'config_control_design', 1994, #198 ) ;
#155 = ORIENTED_EDGE ( 'NONE', *, *, #161, .T. ) ;
#156 = PERSON_AND_ORGANIZATION_ROLE ( 'creator' ) ;
#157 = ORIENTED_EDGE ( 'NONE', *, *, #235, .T. ) ;
#158 = CC_DESIGN_PERSON_AND_ORGANIZATION_ASSIGNMENT ( #212, #111, ( #78 ) ) ;
#159 = ORGANIZATION ( 'UNSPECIFIED', 'UNSPECIFIED', '' ) ;
#160 = ORIENTED_EDGE ( 'NONE', *, *, #99, .T. ) ;
#161 = EDGE_CURVE ( 'NONE', #171, #231, #26, .T. ) ;
#162 = DATE_AND_TIME ( #222, #238 ) ;
#163 = DIRECTION ( 'NONE',  ( 2.943923360032083473E-15, 0.000000000000000000, 1.000000000000000000 ) ) ;
#164 = DIRECTION ( 'NONE',  ( 1.000000000000000000, 0.000000000000000000, 2.259334488757232034E-16 ) ) ;
#165 = FACE_OUTER_BOUND ( 'NONE', #20, .T. ) ;
#166 = CARTESIAN_POINT ( 'NONE',  ( -132.5000000000000000, 0.000000000000000000, -2.613490336570756220E-14 ) ) ;
#167 = AXIS2_PLACEMENT_3D ( 'NONE', #241, #98, #224 ) ;
#168 = DIRECTION ( 'NONE',  ( -2.259334488757232034E-16, 0.000000000000000000, 1.000000000000000000 ) ) ;
#169 = PERSON_AND_ORGANIZATION_ROLE ( 'creator' ) ;
#170 = DIRECTION ( 'NONE',  ( 1.000000000000000000, 0.000000000000000000, 2.259334488757236471E-16 ) ) ;
#171 = VERTEX_POINT ( 'NONE', #87 ) ;
#172 = EDGE_CURVE ( 'NONE', #74, #22, #217, .T. ) ;
#173 = CIRCLE ( 'NONE', #6, 42.50000000000000000 ) ;
#174 = DIRECTION ( 'NONE',  ( 0.000000000000000000, 0.000000000000000000, 1.000000000000000000 ) ) ;
#175 = ORIENTED_EDGE ( 'NONE', *, *, #140, .F. ) ;
#176 = DATE_TIME_ROLE ( 'creation_date' ) ;
#177 = ORIENTED_EDGE ( 'NONE', *, *, #153, .F. ) ;
#178 = ORIENTED_EDGE ( 'NONE', *, *, #140, .T. ) ;
#179 = CIRCLE ( 'NONE', #23, 40.50000000000000000 ) ;
#180 = AXIS2_PLACEMENT_3D ( 'NONE', #9, #86, #207 ) ;
#181 = CC_DESIGN_APPROVAL ( #45, ( #190 ) ) ;
#182 = MANIFOLD_SOLID_BREP ( 'Wandung1', #133 ) ;
#183 = PLANE ( 'NONE',  #180 ) ;
#184 = CARTESIAN_POINT ( 'NONE',  ( -47.49999999999999289, 0.000000000000000000, -6.930560211271063486E-15 ) ) ;
#185 = DIRECTION ( 'NONE',  ( 0.000000000000000000, 0.000000000000000000, 1.000000000000000000 ) ) ;
#186 = CARTESIAN_POINT ( 'NONE',  ( 0.000000000000000000, -4.959819536546780600E-15, 0.000000000000000000 ) ) ;
#187 = LOCAL_TIME ( 13, 8, 9.000000000000000000, #33 ) ;
#188 = CALENDAR_DATE ( 2024, 27, 8 ) ;
#189 =( NAMED_UNIT ( * ) SI_UNIT ( $, .STERADIAN. ) SOLID_ANGLE_UNIT ( ) );
#190 = PRODUCT_DEFINITION ( 'UNKNOWN', '', #78, #215 ) ;
#191 = VERTEX_POINT ( 'NONE', #253 ) ;
#192 = CIRCLE ( 'NONE', #102, 42.50000000000000000 ) ;
#193 = SECURITY_CLASSIFICATION_LEVEL ( 'unclassified' ) ;
#194 = ORIENTED_EDGE ( 'NONE', *, *, #92, .F. ) ;
#195 = CALENDAR_DATE ( 2024, 27, 8 ) ;
#196 = ORIENTED_EDGE ( 'NONE', *, *, #124, .F. ) ;
#197 = AXIS2_PLACEMENT_3D ( 'NONE', #11, #28, #226 ) ;
#198 = APPLICATION_CONTEXT ( 'configuration controlled 3d designs of mechanical parts and assemblies' ) ;
#199 = APPROVAL_DATE_TIME ( #162, #118 ) ;
#200 = CARTESIAN_POINT ( 'NONE',  ( -2.687543810132132849E-13, 0.000000000000000000, -90.00000000000000000 ) ) ;
#201 = AXIS2_PLACEMENT_3D ( 'NONE', #210, #90, #170 ) ;
#202 = CC_DESIGN_DATE_AND_TIME_ASSIGNMENT ( #130, #176, ( #190 ) ) ;
#203 = DIRECTION ( 'NONE',  ( 0.000000000000000000, 1.000000000000000000, 0.000000000000000000 ) ) ;
#204 = CARTESIAN_POINT ( 'NONE',  ( 0.000000000000000000, 0.000000000000000000, 0.000000000000000000 ) ) ;
#205 = DIRECTION ( 'NONE',  ( 2.943923360032083473E-15, 0.000000000000000000, 1.000000000000000000 ) ) ;
#206 = AXIS2_PLACEMENT_3D ( 'NONE', #227, #47, #163 ) ;
#207 = DIRECTION ( 'NONE',  ( 1.000000000000000000, 0.000000000000000000, 2.259334488757235978E-16 ) ) ;
#208 = CC_DESIGN_PERSON_AND_ORGANIZATION_ASSIGNMENT ( #37, #156, ( #78 ) ) ;
#209 = PERSON_AND_ORGANIZATION_ROLE ( 'classification_officer' ) ;
#210 = CARTESIAN_POINT ( 'NONE',  ( -90.00000000000000000, 0.000000000000000000, -1.653273178848931758E-14 ) ) ;
#211 = APPLICATION_CONTEXT ( 'configuration controlled 3d designs of mechanical parts and assemblies' ) ;
#212 = PERSON_AND_ORGANIZATION ( #115, #159 ) ;
#213 = APPLICATION_PROTOCOL_DEFINITION ( 'international standard', 'config_control_design', 1994, #211 ) ;
#214 = PRODUCT_DEFINITION_SHAPE ( 'NONE', 'NONE',  #190 ) ;
#215 = DESIGN_CONTEXT ( 'detailed design', #211, 'design' ) ;
#216 = CIRCLE ( 'NONE', #142, 40.50000000000000000 ) ;
#217 = CIRCLE ( 'NONE', #201, 42.50000000000000000 ) ;
#218 = ORIENTED_EDGE ( 'NONE', *, *, #44, .T. ) ;
#219 = CC_DESIGN_SECURITY_CLASSIFICATION ( #3, ( #78 ) ) ;
#220 = ORIENTED_EDGE ( 'NONE', *, *, #124, .T. ) ;
#221 = CIRCLE ( 'NONE', #53, 40.50000000000000000 ) ;
#222 = CALENDAR_DATE ( 2024, 27, 8 ) ;
#223 = ADVANCED_BREP_SHAPE_REPRESENTATION ( '3D_R1620_85x2_173631150', ( #182, #7 ), #119 ) ;
#224 = DIRECTION ( 'NONE',  ( 0.000000000000000000, 0.000000000000000000, 1.000000000000000000 ) ) ;
#225 = LOCAL_TIME ( 13, 8, 9.000000000000000000, #252 ) ;
#226 = DIRECTION ( 'NONE',  ( 0.000000000000000000, 0.000000000000000000, 1.000000000000000000 ) ) ;
#227 = CARTESIAN_POINT ( 'NONE',  ( -2.649531024028874518E-13, 0.000000000000000000, -90.00000000000000000 ) ) ;
#228 = DIRECTION ( 'NONE',  ( -1.000000000000000000, 0.000000000000000000, 2.943923360032083078E-15 ) ) ;
#229 = DIRECTION ( 'NONE',  ( 0.000000000000000000, 1.000000000000000000, 0.000000000000000000 ) ) ;
#230 = COORDINATED_UNIVERSAL_TIME_OFFSET ( 1, 0, .AHEAD. ) ;
#231 = VERTEX_POINT ( 'NONE', #234 ) ;
#232 = APPROVAL_DATE_TIME ( #76, #71 ) ;
#233 = ORIENTED_EDGE ( 'NONE', *, *, #85, .T. ) ;
#234 = CARTESIAN_POINT ( 'NONE',  ( -49.49999999999999289, 0.000000000000000000, -1.118370571934829798E-14 ) ) ;
#235 = EDGE_CURVE ( 'NONE', #22, #74, #14, .T. ) ;
#236 = UNCERTAINTY_MEASURE_WITH_UNIT (LENGTH_MEASURE( 1.000000000000000082E-05 ), #16, 'distance_accuracy_value', 'NONE');
#237 = COORDINATED_UNIVERSAL_TIME_OFFSET ( 1, 0, .AHEAD. ) ;
#238 = LOCAL_TIME ( 13, 8, 9.000000000000000000, #237 ) ;
#239 = ORIENTED_EDGE ( 'NONE', *, *, #44, .F. ) ;
#240 = SHAPE_DEFINITION_REPRESENTATION ( #214, #223 ) ;
#241 = CARTESIAN_POINT ( 'NONE',  ( 0.000000000000000000, 0.000000000000000000, 0.000000000000000000 ) ) ;
#242 = AXIS2_PLACEMENT_3D ( 'NONE', #8, #229, #185 ) ;
#243 = DIRECTION ( 'NONE',  ( 1.000000000000000000, 0.000000000000000000, 2.259334488757232034E-16 ) ) ;
#244 = FACE_OUTER_BOUND ( 'NONE', #59, .T. ) ;
#245 = FACE_BOUND ( 'NONE', #41, .T. ) ;
#246 = CARTESIAN_POINT ( 'NONE',  ( -2.687543810132132849E-13, 0.000000000000000000, -90.00000000000000000 ) ) ;
#247 = TOROIDAL_SURFACE ( 'NONE', #43, 90.00000000000000000, 40.50000000000000000 ) ;
#248 = CARTESIAN_POINT ( 'NONE',  ( -90.00000000000000000, 0.000000000000000000, -1.653273178848931758E-14 ) ) ;
#249 = DIRECTION ( 'NONE',  ( 1.000000000000000000, 0.000000000000000000, 2.259334488757236471E-16 ) ) ;
#250 = PERSON_AND_ORGANIZATION ( #115, #159 ) ;
#251 = EDGE_LOOP ( 'NONE', ( #95, #196 ) ) ;
#252 = COORDINATED_UNIVERSAL_TIME_OFFSET ( 1, 0, .AHEAD. ) ;
#253 = CARTESIAN_POINT ( 'NONE',  ( -3.938711238145768851E-13, 0.000000000000000000, -132.5000000000000000 ) ) ;
ENDSEC;
END-ISO-10303-21;
