ISO-10303-21;
HEADER;
/* Generated by software containing ST-Developer
 * from STEP Tools, Inc. (www.steptools.com) 
 */

FILE_DESCRIPTION(
/* description */ (''),
/* implementation_level */ '2;1');

FILE_NAME(
/* name */ 
'C:\\Users\\cad\\Desktop\\Zeichnungen neu von Ralph\\3D_Kupplung_R666-
UE\\3D_R666-UE-DN10-DN20_17113215.stp',
/* time_stamp */ '2021-06-17T11:37:01+02:00',
/* author */ ('cad'),
/* organization */ (''),
/* preprocessor_version */ 'ST-DEVELOPER v18.1',
/* originating_system */ 'Autodesk Inventor 2022',
/* authorisation */ '');

FILE_SCHEMA (('AUTOMOTIVE_DESIGN { 1 0 10303 214 3 1 1 }'));
ENDSEC;

DATA;
#10=MECHANICAL_DESIGN_GEOMETRIC_PRESENTATION_REPRESENTATION('',(#13),#432);
#11=SHAPE_REPRESENTATION_RELATIONSHIP('SRR','None',#439,#12);
#12=ADVANCED_BREP_SHAPE_REPRESENTATION('',(#14),#431);
#13=STYLED_ITEM('',(#448),#14);
#14=MANIFOLD_SOLID_BREP('Volumenk\X\F6rper1',#228);
#15=CONICAL_SURFACE('',#257,5.15,0.785398163397449);
#16=CONICAL_SURFACE('',#266,11.6,0.785398163397449);
#17=CONICAL_SURFACE('',#272,11.6,0.785398163397449);
#18=CONICAL_SURFACE('',#273,5.15,0.785398163397449);
#19=CONICAL_SURFACE('',#277,7.51884645544687,0.801106126665398);
#20=CONICAL_SURFACE('',#280,8.31998386230346,0.031415926535898);
#21=LINE('',#378,#30);
#22=LINE('',#386,#31);
#23=LINE('',#393,#32);
#24=LINE('',#399,#33);
#25=LINE('',#405,#34);
#26=LINE('',#410,#35);
#27=LINE('',#414,#36);
#28=LINE('',#423,#37);
#29=LINE('',#427,#38);
#30=VECTOR('',#301,8.75);
#31=VECTOR('',#310,5.15);
#32=VECTOR('',#319,5.);
#33=VECTOR('',#326,11.6);
#34=VECTOR('',#333,11.75);
#35=VECTOR('',#340,11.6);
#36=VECTOR('',#345,5.15);
#37=VECTOR('',#356,7.51884645544687);
#38=VECTOR('',#361,8.31998386230345);
#39=CYLINDRICAL_SURFACE('',#255,8.75);
#40=CYLINDRICAL_SURFACE('',#263,5.);
#41=CYLINDRICAL_SURFACE('',#269,11.75);
#42=FACE_BOUND('',#66,.T.);
#43=FACE_BOUND('',#70,.T.);
#44=FACE_BOUND('',#77,.T.);
#45=FACE_BOUND('',#81,.T.);
#46=PLANE('',#253);
#47=PLANE('',#261);
#48=PLANE('',#275);
#49=PLANE('',#282);
#50=FACE_OUTER_BOUND('',#64,.T.);
#51=FACE_OUTER_BOUND('',#65,.T.);
#52=FACE_OUTER_BOUND('',#67,.T.);
#53=FACE_OUTER_BOUND('',#68,.T.);
#54=FACE_OUTER_BOUND('',#69,.T.);
#55=FACE_OUTER_BOUND('',#71,.T.);
#56=FACE_OUTER_BOUND('',#72,.T.);
#57=FACE_OUTER_BOUND('',#73,.T.);
#58=FACE_OUTER_BOUND('',#74,.T.);
#59=FACE_OUTER_BOUND('',#75,.T.);
#60=FACE_OUTER_BOUND('',#76,.T.);
#61=FACE_OUTER_BOUND('',#78,.T.);
#62=FACE_OUTER_BOUND('',#79,.T.);
#63=FACE_OUTER_BOUND('',#80,.T.);
#64=EDGE_LOOP('',(#153,#154,#155,#156,#157));
#65=EDGE_LOOP('',(#158));
#66=EDGE_LOOP('',(#159));
#67=EDGE_LOOP('',(#160,#161,#162,#163,#164));
#68=EDGE_LOOP('',(#165,#166,#167,#168,#169));
#69=EDGE_LOOP('',(#170));
#70=EDGE_LOOP('',(#171));
#71=EDGE_LOOP('',(#172,#173,#174,#175,#176,#177));
#72=EDGE_LOOP('',(#178,#179,#180,#181,#182));
#73=EDGE_LOOP('',(#183,#184,#185,#186,#187,#188));
#74=EDGE_LOOP('',(#189,#190,#191,#192,#193));
#75=EDGE_LOOP('',(#194,#195,#196,#197,#198));
#76=EDGE_LOOP('',(#199));
#77=EDGE_LOOP('',(#200));
#78=EDGE_LOOP('',(#201,#202,#203,#204,#205));
#79=EDGE_LOOP('',(#206,#207,#208,#209,#210));
#80=EDGE_LOOP('',(#211));
#81=EDGE_LOOP('',(#212));
#82=CIRCLE('',#249,8.75);
#83=CIRCLE('',#250,0.8);
#84=CIRCLE('',#251,9.55);
#85=CIRCLE('',#252,8.75);
#86=CIRCLE('',#254,11.45);
#87=CIRCLE('',#256,8.75);
#88=CIRCLE('',#258,5.);
#89=CIRCLE('',#259,5.);
#90=CIRCLE('',#260,5.3);
#91=CIRCLE('',#262,11.45);
#92=CIRCLE('',#264,5.);
#93=CIRCLE('',#265,5.);
#94=CIRCLE('',#267,11.75);
#95=CIRCLE('',#268,11.75);
#96=CIRCLE('',#270,11.75);
#97=CIRCLE('',#271,11.75);
#98=CIRCLE('',#274,5.3);
#99=CIRCLE('',#276,6.9);
#100=CIRCLE('',#278,8.13769291089375);
#101=CIRCLE('',#279,8.13769291089375);
#102=CIRCLE('',#281,8.53996772460691);
#103=VERTEX_POINT('',#366);
#104=VERTEX_POINT('',#367);
#105=VERTEX_POINT('',#369);
#106=VERTEX_POINT('',#374);
#107=VERTEX_POINT('',#377);
#108=VERTEX_POINT('',#381);
#109=VERTEX_POINT('',#382);
#110=VERTEX_POINT('',#385);
#111=VERTEX_POINT('',#389);
#112=VERTEX_POINT('',#392);
#113=VERTEX_POINT('',#394);
#114=VERTEX_POINT('',#398);
#115=VERTEX_POINT('',#400);
#116=VERTEX_POINT('',#404);
#117=VERTEX_POINT('',#406);
#118=VERTEX_POINT('',#412);
#119=VERTEX_POINT('',#416);
#120=VERTEX_POINT('',#419);
#121=VERTEX_POINT('',#420);
#122=VERTEX_POINT('',#425);
#123=EDGE_CURVE('',#103,#104,#82,.T.);
#124=EDGE_CURVE('',#104,#105,#83,.T.);
#125=EDGE_CURVE('',#105,#105,#84,.T.);
#126=EDGE_CURVE('',#104,#103,#85,.T.);
#127=EDGE_CURVE('',#106,#106,#86,.T.);
#128=EDGE_CURVE('',#103,#107,#21,.T.);
#129=EDGE_CURVE('',#107,#107,#87,.T.);
#130=EDGE_CURVE('',#108,#109,#88,.T.);
#131=EDGE_CURVE('',#109,#108,#89,.T.);
#132=EDGE_CURVE('',#108,#110,#22,.T.);
#133=EDGE_CURVE('',#110,#110,#90,.T.);
#134=EDGE_CURVE('',#111,#111,#91,.T.);
#135=EDGE_CURVE('',#109,#112,#23,.T.);
#136=EDGE_CURVE('',#113,#112,#92,.T.);
#137=EDGE_CURVE('',#112,#113,#93,.T.);
#138=EDGE_CURVE('',#111,#114,#24,.T.);
#139=EDGE_CURVE('',#114,#115,#94,.T.);
#140=EDGE_CURVE('',#115,#114,#95,.T.);
#141=EDGE_CURVE('',#115,#116,#25,.T.);
#142=EDGE_CURVE('',#117,#116,#96,.T.);
#143=EDGE_CURVE('',#116,#117,#97,.T.);
#144=EDGE_CURVE('',#117,#106,#26,.T.);
#145=EDGE_CURVE('',#118,#118,#98,.T.);
#146=EDGE_CURVE('',#118,#113,#27,.T.);
#147=EDGE_CURVE('',#119,#119,#99,.T.);
#148=EDGE_CURVE('',#120,#121,#100,.T.);
#149=EDGE_CURVE('',#121,#120,#101,.T.);
#150=EDGE_CURVE('',#120,#119,#28,.T.);
#151=EDGE_CURVE('',#122,#122,#102,.T.);
#152=EDGE_CURVE('',#122,#121,#29,.T.);
#153=ORIENTED_EDGE('',*,*,#123,.T.);
#154=ORIENTED_EDGE('',*,*,#124,.T.);
#155=ORIENTED_EDGE('',*,*,#125,.T.);
#156=ORIENTED_EDGE('',*,*,#124,.F.);
#157=ORIENTED_EDGE('',*,*,#126,.T.);
#158=ORIENTED_EDGE('',*,*,#127,.F.);
#159=ORIENTED_EDGE('',*,*,#125,.F.);
#160=ORIENTED_EDGE('',*,*,#123,.F.);
#161=ORIENTED_EDGE('',*,*,#128,.T.);
#162=ORIENTED_EDGE('',*,*,#129,.T.);
#163=ORIENTED_EDGE('',*,*,#128,.F.);
#164=ORIENTED_EDGE('',*,*,#126,.F.);
#165=ORIENTED_EDGE('',*,*,#130,.T.);
#166=ORIENTED_EDGE('',*,*,#131,.T.);
#167=ORIENTED_EDGE('',*,*,#132,.T.);
#168=ORIENTED_EDGE('',*,*,#133,.T.);
#169=ORIENTED_EDGE('',*,*,#132,.F.);
#170=ORIENTED_EDGE('',*,*,#134,.F.);
#171=ORIENTED_EDGE('',*,*,#133,.F.);
#172=ORIENTED_EDGE('',*,*,#130,.F.);
#173=ORIENTED_EDGE('',*,*,#131,.F.);
#174=ORIENTED_EDGE('',*,*,#135,.T.);
#175=ORIENTED_EDGE('',*,*,#136,.F.);
#176=ORIENTED_EDGE('',*,*,#137,.F.);
#177=ORIENTED_EDGE('',*,*,#135,.F.);
#178=ORIENTED_EDGE('',*,*,#134,.T.);
#179=ORIENTED_EDGE('',*,*,#138,.T.);
#180=ORIENTED_EDGE('',*,*,#139,.T.);
#181=ORIENTED_EDGE('',*,*,#140,.T.);
#182=ORIENTED_EDGE('',*,*,#138,.F.);
#183=ORIENTED_EDGE('',*,*,#139,.F.);
#184=ORIENTED_EDGE('',*,*,#140,.F.);
#185=ORIENTED_EDGE('',*,*,#141,.T.);
#186=ORIENTED_EDGE('',*,*,#142,.F.);
#187=ORIENTED_EDGE('',*,*,#143,.F.);
#188=ORIENTED_EDGE('',*,*,#141,.F.);
#189=ORIENTED_EDGE('',*,*,#142,.T.);
#190=ORIENTED_EDGE('',*,*,#143,.T.);
#191=ORIENTED_EDGE('',*,*,#144,.T.);
#192=ORIENTED_EDGE('',*,*,#127,.T.);
#193=ORIENTED_EDGE('',*,*,#144,.F.);
#194=ORIENTED_EDGE('',*,*,#145,.T.);
#195=ORIENTED_EDGE('',*,*,#146,.T.);
#196=ORIENTED_EDGE('',*,*,#136,.T.);
#197=ORIENTED_EDGE('',*,*,#137,.T.);
#198=ORIENTED_EDGE('',*,*,#146,.F.);
#199=ORIENTED_EDGE('',*,*,#147,.F.);
#200=ORIENTED_EDGE('',*,*,#145,.F.);
#201=ORIENTED_EDGE('',*,*,#148,.T.);
#202=ORIENTED_EDGE('',*,*,#149,.T.);
#203=ORIENTED_EDGE('',*,*,#150,.T.);
#204=ORIENTED_EDGE('',*,*,#147,.T.);
#205=ORIENTED_EDGE('',*,*,#150,.F.);
#206=ORIENTED_EDGE('',*,*,#151,.F.);
#207=ORIENTED_EDGE('',*,*,#152,.T.);
#208=ORIENTED_EDGE('',*,*,#148,.F.);
#209=ORIENTED_EDGE('',*,*,#149,.F.);
#210=ORIENTED_EDGE('',*,*,#152,.F.);
#211=ORIENTED_EDGE('',*,*,#129,.F.);
#212=ORIENTED_EDGE('',*,*,#151,.T.);
#213=TOROIDAL_SURFACE('',#248,9.55,0.8);
#214=ADVANCED_FACE('',(#50),#213,.F.);
#215=ADVANCED_FACE('',(#51,#42),#46,.T.);
#216=ADVANCED_FACE('',(#52),#39,.T.);
#217=ADVANCED_FACE('',(#53),#15,.F.);
#218=ADVANCED_FACE('',(#54,#43),#47,.T.);
#219=ADVANCED_FACE('',(#55),#40,.F.);
#220=ADVANCED_FACE('',(#56),#16,.T.);
#221=ADVANCED_FACE('',(#57),#41,.T.);
#222=ADVANCED_FACE('',(#58),#17,.T.);
#223=ADVANCED_FACE('',(#59),#18,.F.);
#224=ADVANCED_FACE('',(#60,#44),#48,.T.);
#225=ADVANCED_FACE('',(#61),#19,.T.);
#226=ADVANCED_FACE('',(#62),#20,.T.);
#227=ADVANCED_FACE('',(#63,#45),#49,.T.);
#228=CLOSED_SHELL('',(#214,#215,#216,#217,#218,#219,#220,#221,#222,#223,
#224,#225,#226,#227));
#229=DERIVED_UNIT_ELEMENT(#231,1.);
#230=DERIVED_UNIT_ELEMENT(#434,-3.);
#231=(
MASS_UNIT()
NAMED_UNIT(*)
SI_UNIT($,.GRAM.)
);
#232=DERIVED_UNIT((#229,#230));
#233=MEASURE_REPRESENTATION_ITEM('density measure',
POSITIVE_RATIO_MEASURE(1.),#232);
#234=PROPERTY_DEFINITION_REPRESENTATION(#239,#236);
#235=PROPERTY_DEFINITION_REPRESENTATION(#240,#237);
#236=REPRESENTATION('material name',(#238),#431);
#237=REPRESENTATION('density',(#233),#431);
#238=DESCRIPTIVE_REPRESENTATION_ITEM('Generisch','Generisch');
#239=PROPERTY_DEFINITION('material property','material name',#441);
#240=PROPERTY_DEFINITION('material property','density of part',#441);
#241=DATE_TIME_ROLE('creation_date');
#242=APPLIED_DATE_AND_TIME_ASSIGNMENT(#243,#241,(#441));
#243=DATE_AND_TIME(#244,#245);
#244=CALENDAR_DATE(2021,17,6);
#245=LOCAL_TIME(0,0,0.,#246);
#246=COORDINATED_UNIVERSAL_TIME_OFFSET(0,0,.BEHIND.);
#247=AXIS2_PLACEMENT_3D('placement',#364,#283,#284);
#248=AXIS2_PLACEMENT_3D('',#365,#285,#286);
#249=AXIS2_PLACEMENT_3D('',#368,#287,#288);
#250=AXIS2_PLACEMENT_3D('',#370,#289,#290);
#251=AXIS2_PLACEMENT_3D('',#371,#291,#292);
#252=AXIS2_PLACEMENT_3D('',#372,#293,#294);
#253=AXIS2_PLACEMENT_3D('',#373,#295,#296);
#254=AXIS2_PLACEMENT_3D('',#375,#297,#298);
#255=AXIS2_PLACEMENT_3D('',#376,#299,#300);
#256=AXIS2_PLACEMENT_3D('',#379,#302,#303);
#257=AXIS2_PLACEMENT_3D('',#380,#304,#305);
#258=AXIS2_PLACEMENT_3D('',#383,#306,#307);
#259=AXIS2_PLACEMENT_3D('',#384,#308,#309);
#260=AXIS2_PLACEMENT_3D('',#387,#311,#312);
#261=AXIS2_PLACEMENT_3D('',#388,#313,#314);
#262=AXIS2_PLACEMENT_3D('',#390,#315,#316);
#263=AXIS2_PLACEMENT_3D('',#391,#317,#318);
#264=AXIS2_PLACEMENT_3D('',#395,#320,#321);
#265=AXIS2_PLACEMENT_3D('',#396,#322,#323);
#266=AXIS2_PLACEMENT_3D('',#397,#324,#325);
#267=AXIS2_PLACEMENT_3D('',#401,#327,#328);
#268=AXIS2_PLACEMENT_3D('',#402,#329,#330);
#269=AXIS2_PLACEMENT_3D('',#403,#331,#332);
#270=AXIS2_PLACEMENT_3D('',#407,#334,#335);
#271=AXIS2_PLACEMENT_3D('',#408,#336,#337);
#272=AXIS2_PLACEMENT_3D('',#409,#338,#339);
#273=AXIS2_PLACEMENT_3D('',#411,#341,#342);
#274=AXIS2_PLACEMENT_3D('',#413,#343,#344);
#275=AXIS2_PLACEMENT_3D('',#415,#346,#347);
#276=AXIS2_PLACEMENT_3D('',#417,#348,#349);
#277=AXIS2_PLACEMENT_3D('',#418,#350,#351);
#278=AXIS2_PLACEMENT_3D('',#421,#352,#353);
#279=AXIS2_PLACEMENT_3D('',#422,#354,#355);
#280=AXIS2_PLACEMENT_3D('',#424,#357,#358);
#281=AXIS2_PLACEMENT_3D('',#426,#359,#360);
#282=AXIS2_PLACEMENT_3D('',#428,#362,#363);
#283=DIRECTION('axis',(0.,0.,1.));
#284=DIRECTION('refdir',(1.,0.,0.));
#285=DIRECTION('center_axis',(1.,0.,0.));
#286=DIRECTION('ref_axis',(0.,0.,-1.));
#287=DIRECTION('center_axis',(1.,0.,0.));
#288=DIRECTION('ref_axis',(0.,-1.,1.83697019872103E-16));
#289=DIRECTION('center_axis',(0.,-1.,-1.22464679914735E-16));
#290=DIRECTION('ref_axis',(0.,-1.22464679914735E-16,1.));
#291=DIRECTION('center_axis',(-1.,0.,0.));
#292=DIRECTION('ref_axis',(0.,-1.,1.83697019872103E-16));
#293=DIRECTION('center_axis',(1.,0.,0.));
#294=DIRECTION('ref_axis',(0.,-1.,1.83697019872103E-16));
#295=DIRECTION('center_axis',(-1.,0.,0.));
#296=DIRECTION('ref_axis',(0.,0.,1.));
#297=DIRECTION('center_axis',(1.,0.,0.));
#298=DIRECTION('ref_axis',(0.,-1.,0.));
#299=DIRECTION('center_axis',(1.,0.,0.));
#300=DIRECTION('ref_axis',(0.,1.,0.));
#301=DIRECTION('',(-1.,0.,0.));
#302=DIRECTION('center_axis',(1.,0.,0.));
#303=DIRECTION('ref_axis',(0.,0.,-1.));
#304=DIRECTION('center_axis',(1.,0.,0.));
#305=DIRECTION('ref_axis',(0.,-1.,0.));
#306=DIRECTION('center_axis',(-1.,0.,0.));
#307=DIRECTION('ref_axis',(0.,-1.,0.));
#308=DIRECTION('center_axis',(-1.,0.,0.));
#309=DIRECTION('ref_axis',(0.,-1.,0.));
#310=DIRECTION('',(0.707106781186547,0.707106781186548,-8.65956056235494E-17));
#311=DIRECTION('center_axis',(1.,0.,0.));
#312=DIRECTION('ref_axis',(0.,-1.,0.));
#313=DIRECTION('center_axis',(1.,0.,0.));
#314=DIRECTION('ref_axis',(0.,0.,-1.));
#315=DIRECTION('center_axis',(-1.,0.,0.));
#316=DIRECTION('ref_axis',(0.,-1.,0.));
#317=DIRECTION('center_axis',(1.,0.,0.));
#318=DIRECTION('ref_axis',(0.,1.,0.));
#319=DIRECTION('',(-1.,0.,0.));
#320=DIRECTION('center_axis',(1.,0.,0.));
#321=DIRECTION('ref_axis',(0.,-1.,0.));
#322=DIRECTION('center_axis',(1.,0.,0.));
#323=DIRECTION('ref_axis',(0.,-1.,0.));
#324=DIRECTION('center_axis',(-1.,0.,0.));
#325=DIRECTION('ref_axis',(0.,-1.,0.));
#326=DIRECTION('',(-0.707106781186547,0.707106781186548,8.65956056235494E-17));
#327=DIRECTION('center_axis',(1.,0.,0.));
#328=DIRECTION('ref_axis',(0.,-1.,0.));
#329=DIRECTION('center_axis',(1.,0.,0.));
#330=DIRECTION('ref_axis',(0.,-1.,0.));
#331=DIRECTION('center_axis',(1.,0.,0.));
#332=DIRECTION('ref_axis',(0.,1.,0.));
#333=DIRECTION('',(-1.,0.,0.));
#334=DIRECTION('center_axis',(-1.,0.,0.));
#335=DIRECTION('ref_axis',(0.,-1.,0.));
#336=DIRECTION('center_axis',(-1.,0.,0.));
#337=DIRECTION('ref_axis',(0.,-1.,0.));
#338=DIRECTION('center_axis',(1.,0.,0.));
#339=DIRECTION('ref_axis',(0.,-1.,0.));
#340=DIRECTION('',(-0.707106781186547,-0.707106781186548,-8.65956056235494E-17));
#341=DIRECTION('center_axis',(-1.,0.,0.));
#342=DIRECTION('ref_axis',(0.,-1.,0.));
#343=DIRECTION('center_axis',(-1.,0.,0.));
#344=DIRECTION('ref_axis',(0.,-1.,0.));
#345=DIRECTION('',(0.707106781186547,-0.707106781186548,8.65956056235494E-17));
#346=DIRECTION('center_axis',(-1.,0.,0.));
#347=DIRECTION('ref_axis',(0.,0.,1.));
#348=DIRECTION('center_axis',(1.,0.,0.));
#349=DIRECTION('ref_axis',(0.,-1.,0.));
#350=DIRECTION('center_axis',(1.,0.,-4.15446646831894E-16));
#351=DIRECTION('ref_axis',(0.,-1.,-3.31360656013617E-17));
#352=DIRECTION('center_axis',(-1.,0.,0.));
#353=DIRECTION('ref_axis',(0.,-1.,-6.12323399573677E-17));
#354=DIRECTION('center_axis',(-1.,0.,0.));
#355=DIRECTION('ref_axis',(0.,-1.,-6.12323399573677E-17));
#356=DIRECTION('',(-0.695912796592314,-0.718126297763189,1.77373650525016E-16));
#357=DIRECTION('center_axis',(1.,0.,0.));
#358=DIRECTION('ref_axis',(0.,1.,0.));
#359=DIRECTION('center_axis',(1.,0.,0.));
#360=DIRECTION('ref_axis',(0.,0.,-1.));
#361=DIRECTION('',(-0.999506560365732,0.0314107590781283,3.84670855638185E-18));
#362=DIRECTION('center_axis',(-1.,0.,0.));
#363=DIRECTION('ref_axis',(0.,0.,1.));
#364=CARTESIAN_POINT('',(0.,0.,0.));
#365=CARTESIAN_POINT('Origin',(-3.8,0.,0.));
#366=CARTESIAN_POINT('',(-3.8,-8.75,-1.07156594925393E-15));
#367=CARTESIAN_POINT('',(-3.8,-1.07156594925393E-15,8.75));
#368=CARTESIAN_POINT('Origin',(-3.8,0.,0.));
#369=CARTESIAN_POINT('',(-3.,-1.16953769318572E-15,9.55));
#370=CARTESIAN_POINT('Origin',(-3.8,-1.16953769318572E-15,9.55));
#371=CARTESIAN_POINT('Origin',(-3.,0.,0.));
#372=CARTESIAN_POINT('Origin',(-3.8,0.,0.));
#373=CARTESIAN_POINT('Origin',(-3.,11.75,0.));
#374=CARTESIAN_POINT('',(-3.,11.45,1.40222058502372E-15));
#375=CARTESIAN_POINT('Origin',(-3.,0.,0.));
#376=CARTESIAN_POINT('Origin',(-9.,0.,0.));
#377=CARTESIAN_POINT('',(-15.,-8.75,-1.07156594925393E-15));
#378=CARTESIAN_POINT('',(-9.,-8.75,-1.07156594925393E-15));
#379=CARTESIAN_POINT('Origin',(-15.,0.,0.));
#380=CARTESIAN_POINT('Origin',(-0.15,0.,0.));
#381=CARTESIAN_POINT('',(-0.3,5.,-6.12323399573676E-16));
#382=CARTESIAN_POINT('',(-0.3,-5.,-6.12323399573676E-16));
#383=CARTESIAN_POINT('Origin',(-0.3,0.,0.));
#384=CARTESIAN_POINT('Origin',(-0.3,0.,0.));
#385=CARTESIAN_POINT('',(0.,5.3,6.49062803548097E-16));
#386=CARTESIAN_POINT('',(-0.15,5.15,-6.30693101560887E-16));
#387=CARTESIAN_POINT('Origin',(0.,0.,0.));
#388=CARTESIAN_POINT('Origin',(-6.16297582203915E-32,5.,0.));
#389=CARTESIAN_POINT('',(0.,11.45,-1.40222058502372E-15));
#390=CARTESIAN_POINT('Origin',(0.,0.,0.));
#391=CARTESIAN_POINT('Origin',(-14.5,0.,0.));
#392=CARTESIAN_POINT('',(-28.7,-5.,-6.12323399573676E-16));
#393=CARTESIAN_POINT('',(-14.5,-5.,-6.12323399573676E-16));
#394=CARTESIAN_POINT('',(-28.7,5.,6.12323399573676E-16));
#395=CARTESIAN_POINT('Origin',(-28.7,0.,0.));
#396=CARTESIAN_POINT('Origin',(-28.7,0.,0.));
#397=CARTESIAN_POINT('Origin',(-0.15,0.,0.));
#398=CARTESIAN_POINT('',(-0.3,11.75,1.43895998899814E-15));
#399=CARTESIAN_POINT('',(-0.15,11.6,1.42059028701093E-15));
#400=CARTESIAN_POINT('',(-0.3,-11.75,-1.43895998899814E-15));
#401=CARTESIAN_POINT('Origin',(-0.3,0.,0.));
#402=CARTESIAN_POINT('Origin',(-0.3,0.,0.));
#403=CARTESIAN_POINT('Origin',(-1.5,0.,0.));
#404=CARTESIAN_POINT('',(-2.7,-11.75,-1.43895998899814E-15));
#405=CARTESIAN_POINT('',(-1.5,-11.75,-1.43895998899814E-15));
#406=CARTESIAN_POINT('',(-2.7,11.75,-1.43895998899814E-15));
#407=CARTESIAN_POINT('Origin',(-2.7,0.,0.));
#408=CARTESIAN_POINT('Origin',(-2.7,0.,0.));
#409=CARTESIAN_POINT('Origin',(-2.85,0.,0.));
#410=CARTESIAN_POINT('',(-2.85,11.6,1.42059028701093E-15));
#411=CARTESIAN_POINT('Origin',(-28.85,0.,0.));
#412=CARTESIAN_POINT('',(-29.,5.3,-6.49062803548097E-16));
#413=CARTESIAN_POINT('Origin',(-29.,0.,0.));
#414=CARTESIAN_POINT('',(-28.85,5.15,-6.30693101560887E-16));
#415=CARTESIAN_POINT('Origin',(-29.,8.1,0.));
#416=CARTESIAN_POINT('',(-29.,6.9,8.45006291411673E-16));
#417=CARTESIAN_POINT('Origin',(-29.,0.,0.));
#418=CARTESIAN_POINT('Origin',(-28.4002960637806,0.,-2.49144989394254E-16));
#419=CARTESIAN_POINT('',(-27.8005921275611,8.13769291089375,-9.96579957577014E-16));
#420=CARTESIAN_POINT('',(-27.8005921275611,-8.13769291089375,-9.96579957577014E-16));
#421=CARTESIAN_POINT('Origin',(-27.8005921275611,0.,-4.98289978788507E-16));
#422=CARTESIAN_POINT('Origin',(-27.8005921275611,0.,-4.98289978788507E-16));
#423=CARTESIAN_POINT('',(-28.4002960637806,7.51884645544687,9.20793124494343E-16));
#424=CARTESIAN_POINT('Origin',(-22.,0.,0.));
#425=CARTESIAN_POINT('',(-15.,-8.53996772460691,-1.04584441387616E-15));
#426=CARTESIAN_POINT('Origin',(-15.,0.,0.));
#427=CARTESIAN_POINT('',(-22.,-8.31998386230346,-1.01890416059276E-15));
#428=CARTESIAN_POINT('Origin',(-15.,8.75,0.));
#429=UNCERTAINTY_MEASURE_WITH_UNIT(LENGTH_MEASURE(0.01),#433,
'DISTANCE_ACCURACY_VALUE',
'Maximum model space distance between geometric entities at asserted c
onnectivities');
#430=UNCERTAINTY_MEASURE_WITH_UNIT(LENGTH_MEASURE(0.01),#433,
'DISTANCE_ACCURACY_VALUE',
'Maximum model space distance between geometric entities at asserted c
onnectivities');
#431=(
GEOMETRIC_REPRESENTATION_CONTEXT(3)
GLOBAL_UNCERTAINTY_ASSIGNED_CONTEXT((#429))
GLOBAL_UNIT_ASSIGNED_CONTEXT((#433,#435,#436))
REPRESENTATION_CONTEXT('','3D')
);
#432=(
GEOMETRIC_REPRESENTATION_CONTEXT(3)
GLOBAL_UNCERTAINTY_ASSIGNED_CONTEXT((#430))
GLOBAL_UNIT_ASSIGNED_CONTEXT((#433,#435,#436))
REPRESENTATION_CONTEXT('','3D')
);
#433=(
LENGTH_UNIT()
NAMED_UNIT(*)
SI_UNIT(.MILLI.,.METRE.)
);
#434=(
LENGTH_UNIT()
NAMED_UNIT(*)
SI_UNIT(.CENTI.,.METRE.)
);
#435=(
NAMED_UNIT(*)
PLANE_ANGLE_UNIT()
SI_UNIT($,.RADIAN.)
);
#436=(
NAMED_UNIT(*)
SI_UNIT($,.STERADIAN.)
SOLID_ANGLE_UNIT()
);
#437=SHAPE_DEFINITION_REPRESENTATION(#438,#439);
#438=PRODUCT_DEFINITION_SHAPE('',$,#441);
#439=SHAPE_REPRESENTATION('',(#247),#431);
#440=PRODUCT_DEFINITION_CONTEXT('part definition',#445,'design');
#441=PRODUCT_DEFINITION('3D_R666-UE-DN10-DN20_17113215',
'3D_R666-UE-DN10-DN20_17113215',#442,#440);
#442=PRODUCT_DEFINITION_FORMATION('',$,#447);
#443=PRODUCT_RELATED_PRODUCT_CATEGORY('3D_R666-UE-DN10-DN20_17113215',
'3D_R666-UE-DN10-DN20_17113215',(#447));
#444=APPLICATION_PROTOCOL_DEFINITION('international standard',
'automotive_design',2009,#445);
#445=APPLICATION_CONTEXT(
'Core Data for Automotive Mechanical Design Process');
#446=PRODUCT_CONTEXT('part definition',#445,'mechanical');
#447=PRODUCT('3D_R666-UE-DN10-DN20_17113215',
'3D_R666-UE-DN10-DN20_17113215',$,(#446));
#448=PRESENTATION_STYLE_ASSIGNMENT((#449));
#449=SURFACE_STYLE_USAGE(.BOTH.,#452);
#450=SURFACE_STYLE_RENDERING_WITH_PROPERTIES($,#456,(#451));
#451=SURFACE_STYLE_TRANSPARENT(0.);
#452=SURFACE_SIDE_STYLE('',(#453,#450));
#453=SURFACE_STYLE_FILL_AREA(#454);
#454=FILL_AREA_STYLE('',(#455));
#455=FILL_AREA_STYLE_COLOUR('',#456);
#456=COLOUR_RGB('',0.749019607843137,0.749019607843137,0.749019607843137);
ENDSEC;
END-ISO-10303-21;
