ISO-10303-21;
HEADER;
FILE_DESCRIPTION (( 'STEP AP203' ),
    '1' );
FILE_NAME ('6017979_OSTP.step',
    '2024-03-20T08:45:20',
    ( '' ),
    ( '' ),
    'SwSTEP 2.0',
    'SolidWorks 2014',
    '' );
FILE_SCHEMA (( 'CONFIG_CONTROL_DESIGN' ));
ENDSEC;

DATA;
#1 = APPROVAL_ROLE ( '' ) ;
#2 = ORIENTED_EDGE ( 'NONE', *, *, #353, .T. ) ;
#3 = AXIS2_PLACEMENT_3D ( 'NONE', #203, #8, #48 ) ;
#4 = ORIENTED_EDGE ( 'NONE', *, *, #254, .F. ) ;
#5 = LOCAL_TIME ( 9, 45, 20.00000000000000000, #355 ) ;
#6 = TOROIDAL_SURFACE ( 'NONE', #310, 108.0000000000000100, 4.000000000000000000 ) ;
#7 = DIRECTION ( 'NONE',  ( 1.000000000000000000, -2.007781800899081900E-016, 0.0000000000000000000 ) ) ;
#8 = DIRECTION ( 'NONE',  ( 1.982489495665708100E-016, 1.000000000000000000, -0.0000000000000000000 ) ) ;
#9 = ORIENTED_EDGE ( 'NONE', *, *, #134, .F. ) ;
#10 = AXIS2_PLACEMENT_3D ( 'NONE', #47, #102, #164 ) ;
#11 = PRODUCT ( '6017979_OSTP', '6017979_OSTP', '', ( #253 ) ) ;
#12 = DIRECTION ( 'NONE',  ( -1.000000000000000000, 1.982489495665708100E-016, 0.0000000000000000000 ) ) ;
#13 = APPROVAL ( #317, 'UNSPECIFIED' ) ;
#14 = AXIS2_PLACEMENT_3D ( 'NONE', #183, #221, #153 ) ;
#15 = CARTESIAN_POINT ( 'NONE',  ( 1.617781153285278100E-029, 8.326672684688674100E-014, 0.0000000000000000000 ) ) ;
#16 = DIRECTION ( 'NONE',  ( 1.000000000000000000, -1.996308762036801700E-016, 0.0000000000000000000 ) ) ;
#17 = ORIENTED_EDGE ( 'NONE', *, *, #158, .T. ) ;
#18 = CARTESIAN_POINT ( 'NONE',  ( -104.0000000000000100, 27.99999999999999300, 0.0000000000000000000 ) ) ;
#19 = COORDINATED_UNIVERSAL_TIME_OFFSET ( 1, 0, .AHEAD. ) ;
#20 = AXIS2_PLACEMENT_3D ( 'NONE', #399, #179, #345 ) ;
#21 = TOROIDAL_SURFACE ( 'NONE', #258, 126.0000000000000000, 4.000000000000000000 ) ;
#22 = TOROIDAL_SURFACE ( 'NONE', #322, 100.0000000000000000, 4.000000000000000000 ) ;
#23 = ADVANCED_FACE ( 'NONE', ( #33 ), #22, .T. ) ;
#24 = PERSON ( 'UNSPECIFIED', 'UNSPECIFIED', 'UNSPECIFIED', ('UNSPECIFIED'), ('UNSPECIFIED'), ('UNSPECIFIED') ) ;
#25 = ORIENTED_EDGE ( 'NONE', *, *, #80, .T. ) ;
#26 =( NAMED_UNIT ( * ) SI_UNIT ( $, .STERADIAN. ) SOLID_ANGLE_UNIT ( ) );
#27 = ORIENTED_EDGE ( 'NONE', *, *, #254, .T. ) ;
#28 = EDGE_CURVE ( 'NONE', #105, #185, #272, .T. ) ;
#29 = TOROIDAL_SURFACE ( 'NONE', #182, 108.0000000000000100, 4.000000000000000000 ) ;
#30 = PERSON_AND_ORGANIZATION ( #24, #381 ) ;
#31 = FACE_OUTER_BOUND ( 'NONE', #39, .T. ) ;
#32 = APPROVAL_ROLE ( '' ) ;
#33 = FACE_OUTER_BOUND ( 'NONE', #279, .T. ) ;
#34 =( GEOMETRIC_REPRESENTATION_CONTEXT ( 3 ) GLOBAL_UNCERTAINTY_ASSIGNED_CONTEXT ( ( #382 ) ) GLOBAL_UNIT_ASSIGNED_CONTEXT ( ( #83, #220, #26 ) ) REPRESENTATION_CONTEXT ( 'NONE', 'WORKASPACE' ) );
#35 = ORIENTED_EDGE ( 'NONE', *, *, #160, .T. ) ;
#36 = AXIS2_PLACEMENT_3D ( 'NONE', #247, #155, #378 ) ;
#37 = ORIENTED_EDGE ( 'NONE', *, *, #165, .T. ) ;
#38 = CARTESIAN_POINT ( 'NONE',  ( 3.851859888774471700E-030, 2.081668171172168500E-014, 0.0000000000000000000 ) ) ;
#39 = EDGE_LOOP ( 'NONE', ( #320, #35 ) ) ;
#40 = APPLICATION_PROTOCOL_DEFINITION ( 'international standard', 'config_control_design', 1994, #303 ) ;
#41 = CIRCLE ( 'NONE', #403, 4.000000000000003600 ) ;
#42 = APPROVAL_DATE_TIME ( #244, #276 ) ;
#43 = CYLINDRICAL_SURFACE ( 'NONE', #340, 100.0000000000000900 ) ;
#44 = CARTESIAN_POINT ( 'NONE',  ( 1.585991596532570200E-015, 8.000000000000021300, 0.0000000000000000000 ) ) ;
#45 = EDGE_CURVE ( 'NONE', #94, #145, #191, .T. ) ;
#46 = FACE_OUTER_BOUND ( 'NONE', #120, .T. ) ;
#47 = CARTESIAN_POINT ( 'NONE',  ( 4.757974789597700100E-015, 24.00000000000000400, 0.0000000000000000000 ) ) ;
#48 = DIRECTION ( 'NONE',  ( -1.000000000000000000, 1.982489495665708100E-016, 0.0000000000000000000 ) ) ;
#49 = EDGE_LOOP ( 'NONE', ( #193, #159, #312, #376 ) ) ;
#50 = CARTESIAN_POINT ( 'NONE',  ( -100.0000000000000700, 28.00000000000001400, 0.0000000000000000000 ) ) ;
#51 = ORIENTED_EDGE ( 'NONE', *, *, #180, .F. ) ;
#52 = DIRECTION ( 'NONE',  ( -1.982489495665708100E-016, -1.000000000000000000, 0.0000000000000000000 ) ) ;
#53 = DIRECTION ( 'NONE',  ( 1.000000000000000000, -2.001604010742469500E-016, 0.0000000000000000000 ) ) ;
#54 = FACE_OUTER_BOUND ( 'NONE', #366, .T. ) ;
#55 = APPROVAL_DATE_TIME ( #133, #13 ) ;
#56 = ADVANCED_FACE ( 'NONE', ( #351, #117 ), #301, .F. ) ;
#57 = EDGE_LOOP ( 'NONE', ( #9, #265, #400, #385 ) ) ;
#58 = DIRECTION ( 'NONE',  ( 1.982489495665708100E-016, 1.000000000000000000, -0.0000000000000000000 ) ) ;
#59 = DIRECTION ( 'NONE',  ( 0.0000000000000000000, -0.0000000000000000000, -1.000000000000000000 ) ) ;
#60 = ORIENTED_EDGE ( 'NONE', *, *, #28, .T. ) ;
#61 = CIRCLE ( 'NONE', #319, 104.0000000000000100 ) ;
#62 = APPROVAL_PERSON_ORGANIZATION ( #157, #276, #225 ) ;
#63 = EDGE_CURVE ( 'NONE', #384, #145, #201, .T. ) ;
#64 = PERSON_AND_ORGANIZATION_ROLE ( 'creator' ) ;
#65 = PERSON_AND_ORGANIZATION_ROLE ( 'creator' ) ;
#66 = ORIENTED_EDGE ( 'NONE', *, *, #205, .F. ) ;
#67 = EDGE_CURVE ( 'NONE', #192, #230, #262, .T. ) ;
#68 = CARTESIAN_POINT ( 'NONE',  ( 126.0000000000000000, 3.999999999999996400, 0.0000000000000000000 ) ) ;
#69 = CC_DESIGN_APPROVAL ( #276, ( #315 ) ) ;
#70 = APPROVAL ( #318, 'UNSPECIFIED' ) ;
#71 = AXIS2_PLACEMENT_3D ( 'NONE', #123, #218, #344 ) ;
#72 = DIRECTION ( 'NONE',  ( 1.982489495665708100E-016, 1.000000000000000000, -0.0000000000000000000 ) ) ;
#73 = CARTESIAN_POINT ( 'NONE',  ( 1.585991596532570200E-015, 8.000000000000021300, 0.0000000000000000000 ) ) ;
#74 = DIRECTION ( 'NONE',  ( 1.982489495665708100E-016, 1.000000000000000000, -0.0000000000000000000 ) ) ;
#75 = CARTESIAN_POINT ( 'NONE',  ( -126.0000000000000000, 4.579604935710960300E-014, 1.543054966925665100E-014 ) ) ;
#76 = DIRECTION ( 'NONE',  ( 1.000000000000000000, -2.001604010742469500E-016, 0.0000000000000000000 ) ) ;
#77 = EDGE_LOOP ( 'NONE', ( #66, #248, #111, #128 ) ) ;
#78 = DIRECTION ( 'NONE',  ( -1.000000000000000000, 2.001604010742469500E-016, 0.0000000000000000000 ) ) ;
#79 = ADVANCED_FACE ( 'NONE', ( #46 ), #147, .T. ) ;
#80 = EDGE_CURVE ( 'NONE', #383, #185, #41, .T. ) ;
#81 = CALENDAR_DATE ( 2024, 20, 3 ) ;
#82 = ORIENTED_EDGE ( 'NONE', *, *, #63, .F. ) ;
#83 =( LENGTH_UNIT ( ) NAMED_UNIT ( * ) SI_UNIT ( .MILLI., .METRE. ) );
#84 = ADVANCED_BREP_SHAPE_REPRESENTATION ( '6017979_OSTP', ( #293, #291 ), #34 ) ;
#85 = AXIS2_PLACEMENT_3D ( 'NONE', #121, #343, #181 ) ;
#86 = AXIS2_PLACEMENT_3D ( 'NONE', #106, #263, #76 ) ;
#87 = CLOSED_SHELL ( 'NONE', ( #23, #151, #311, #211, #174, #274, #216, #56, #374, #79, #214, #149 ) ) ;
#88 = LOCAL_TIME ( 9, 45, 20.00000000000000000, #176 ) ;
#89 = CIRCLE ( 'NONE', #99, 108.0000000000000100 ) ;
#90 = VERTEX_POINT ( 'NONE', #364 ) ;
#91 = DATE_AND_TIME ( #81, #88 ) ;
#92 = EDGE_CURVE ( 'NONE', #192, #228, #124, .T. ) ;
#93 = CARTESIAN_POINT ( 'NONE',  ( 5.550970587863977100E-015, 27.99999999999997200, 0.0000000000000000000 ) ) ;
#94 = VERTEX_POINT ( 'NONE', #146 ) ;
#95 = CARTESIAN_POINT ( 'NONE',  ( 7.929957982662870900E-016, 4.000000000000022200, 0.0000000000000000000 ) ) ;
#96 = DATE_AND_TIME ( #186, #5 ) ;
#97 = FACE_OUTER_BOUND ( 'NONE', #373, .T. ) ;
#98 = DIRECTION ( 'NONE',  ( 1.000000000000000000, -1.982489495665708100E-016, 0.0000000000000000000 ) ) ;
#99 = AXIS2_PLACEMENT_3D ( 'NONE', #95, #290, #255 ) ;
#100 = CIRCLE ( 'NONE', #20, 4.000000000000003600 ) ;
#101 = CARTESIAN_POINT ( 'NONE',  ( -100.0000000000000900, 1.030916218035438400E-013, 0.0000000000000000000 ) ) ;
#102 = DIRECTION ( 'NONE',  ( -1.982489495665708100E-016, -1.000000000000000000, 0.0000000000000000000 ) ) ;
#103 = DIRECTION ( 'NONE',  ( -1.000000000000000000, 2.081668171172166800E-016, 0.0000000000000000000 ) ) ;
#104 = DIRECTION ( 'NONE',  ( 1.224646799147353200E-016, -2.427849415210259900E-032, 1.000000000000000000 ) ) ;
#105 = VERTEX_POINT ( 'NONE', #143 ) ;
#106 = CARTESIAN_POINT ( 'NONE',  ( 4.757974789597700100E-015, 24.00000000000000400, 0.0000000000000000000 ) ) ;
#107 = DIRECTION ( 'NONE',  ( 1.982489495665708100E-016, 1.000000000000000000, -0.0000000000000000000 ) ) ;
#108 = CARTESIAN_POINT ( 'NONE',  ( 3.851859888774471700E-030, 2.081668171172168500E-014, 0.0000000000000000000 ) ) ;
#109 = ORIENTED_EDGE ( 'NONE', *, *, #397, .T. ) ;
#110 = DIRECTION ( 'NONE',  ( -1.000000000000000000, 1.982489495665708900E-016, 0.0000000000000000000 ) ) ;
#111 = ORIENTED_EDGE ( 'NONE', *, *, #314, .T. ) ;
#112 = DIRECTION ( 'NONE',  ( -1.982489495665708100E-016, -1.000000000000000000, 0.0000000000000000000 ) ) ;
#113 = EDGE_CURVE ( 'NONE', #228, #383, #369, .T. ) ;
#114 = CIRCLE ( 'NONE', #119, 104.0000000000000100 ) ;
#115 = CIRCLE ( 'NONE', #3, 100.0000000000000900 ) ;
#116 = CIRCLE ( 'NONE', #36, 4.000000000000003600 ) ;
#117 = FACE_BOUND ( 'NONE', #245, .T. ) ;
#118 = SHAPE_DEFINITION_REPRESENTATION ( #243, #84 ) ;
#119 = AXIS2_PLACEMENT_3D ( 'NONE', #44, #323, #295 ) ;
#120 = EDGE_LOOP ( 'NONE', ( #361, #204, #109, #341 ) ) ;
#121 = CARTESIAN_POINT ( 'NONE',  ( 5.550970587863980300E-015, 27.99999999999999300, 0.0000000000000000000 ) ) ;
#122 = ORIENTED_EDGE ( 'NONE', *, *, #397, .F. ) ;
#123 = CARTESIAN_POINT ( 'NONE',  ( 7.929957982662872900E-016, 4.000000000000022200, 0.0000000000000000000 ) ) ;
#124 = CIRCLE ( 'NONE', #229, 100.0000000000000900 ) ;
#125 = LOCAL_TIME ( 9, 45, 20.00000000000000000, #370 ) ;
#126 = AXIS2_PLACEMENT_3D ( 'NONE', #170, #107, #264 ) ;
#127 = APPLICATION_PROTOCOL_DEFINITION ( 'international standard', 'config_control_design', 1994, #189 ) ;
#128 = ORIENTED_EDGE ( 'NONE', *, *, #67, .F. ) ;
#129 = DATE_TIME_ROLE ( 'creation_date' ) ;
#130 = ORIENTED_EDGE ( 'NONE', *, *, #45, .T. ) ;
#131 = DIRECTION ( 'NONE',  ( 1.224646799147353200E-016, -2.427849415210259900E-032, 1.000000000000000000 ) ) ;
#132 = VECTOR ( 'NONE', #241, 1000.000000000000000 ) ;
#133 = DATE_AND_TIME ( #223, #148 ) ;
#134 = EDGE_CURVE ( 'NONE', #194, #219, #196, .T. ) ;
#135 = CARTESIAN_POINT ( 'NONE',  ( -130.0000000000000000, 1.298557720022626200E-013, 1.592040838891559500E-014 ) ) ;
#136 = CARTESIAN_POINT ( 'NONE',  ( 5.550970587863977100E-015, 27.99999999999997200, 0.0000000000000000000 ) ) ;
#137 = DIRECTION ( 'NONE',  ( -1.000000000000000000, 1.982489495665708100E-016, 0.0000000000000000000 ) ) ;
#138 = DIRECTION ( 'NONE',  ( -1.982489495665708100E-016, -1.000000000000000000, 0.0000000000000000000 ) ) ;
#139 = CARTESIAN_POINT ( 'NONE',  ( 4.757974789597700100E-015, 24.00000000000000400, 0.0000000000000000000 ) ) ;
#140 = DIRECTION ( 'NONE',  ( 1.000000000000000000, -1.982489495665708100E-016, 0.0000000000000000000 ) ) ;
#141 = ORIENTED_EDGE ( 'NONE', *, *, #314, .F. ) ;
#142 = DIRECTION ( 'NONE',  ( 1.982489495665708100E-016, 1.000000000000000000, -0.0000000000000000000 ) ) ;
#143 = CARTESIAN_POINT ( 'NONE',  ( -104.0000000000000100, 24.00000000000002500, 0.0000000000000000000 ) ) ;
#144 = EDGE_CURVE ( 'NONE', #90, #289, #114, .T. ) ;
#145 = VERTEX_POINT ( 'NONE', #135 ) ;
#146 = CARTESIAN_POINT ( 'NONE',  ( -126.0000000000000000, 4.000000000000047100, 1.567547902908612400E-014 ) ) ;
#147 = TOROIDAL_SURFACE ( 'NONE', #190, 126.0000000000000000, 4.000000000000000000 ) ;
#148 = LOCAL_TIME ( 9, 45, 20.00000000000000000, #19 ) ;
#149 = ADVANCED_FACE ( 'NONE', ( #386 ), #306, .T. ) ;
#150 = AXIS2_PLACEMENT_3D ( 'NONE', #260, #72, #110 ) ;
#151 = ADVANCED_FACE ( 'NONE', ( #212 ), #29, .F. ) ;
#152 = DIRECTION ( 'NONE',  ( 0.0000000000000000000, 0.0000000000000000000, 1.000000000000000000 ) ) ;
#153 = DIRECTION ( 'NONE',  ( -1.000000000000000000, 2.081668171172166800E-016, 0.0000000000000000000 ) ) ;
#154 = EDGE_LOOP ( 'NONE', ( #51, #37, #17, #60 ) ) ;
#155 = DIRECTION ( 'NONE',  ( 0.0000000000000000000, -0.0000000000000000000, -1.000000000000000000 ) ) ;
#156 = AXIS2_PLACEMENT_3D ( 'NONE', #75, #104, #300 ) ;
#157 = PERSON_AND_ORGANIZATION ( #24, #381 ) ;
#158 = EDGE_CURVE ( 'NONE', #90, #105, #222, .T. ) ;
#159 = ORIENTED_EDGE ( 'NONE', *, *, #92, .F. ) ;
#160 = EDGE_CURVE ( 'NONE', #94, #275, #280, .T. ) ;
#161 = CC_DESIGN_APPROVAL ( #13, ( #226 ) ) ;
#162 = DIRECTION ( 'NONE',  ( -1.000000000000000000, 2.001604010742469500E-016, 0.0000000000000000000 ) ) ;
#163 = APPROVAL_PERSON_ORGANIZATION ( #259, #70, #1 ) ;
#164 = DIRECTION ( 'NONE',  ( 1.000000000000000000, -1.982489495665708100E-016, 0.0000000000000000000 ) ) ;
#165 = EDGE_CURVE ( 'NONE', #289, #90, #61, .T. ) ;
#166 = CARTESIAN_POINT ( 'NONE',  ( 104.0000000000000100, 23.99999999999998200, 1.273632671113247400E-014 ) ) ;
#167 = CC_DESIGN_SECURITY_CLASSIFICATION ( #249, ( #226 ) ) ;
#168 = DIRECTION ( 'NONE',  ( -1.982489495665708100E-016, -1.000000000000000000, 0.0000000000000000000 ) ) ;
#169 = CARTESIAN_POINT ( 'NONE',  ( 108.0000000000000100, 4.000000000000000000, 0.0000000000000000000 ) ) ;
#170 = CARTESIAN_POINT ( 'NONE',  ( 2.002967142162725300E-029, 1.040834085586084300E-013, 0.0000000000000000000 ) ) ;
#171 = DIRECTION ( 'NONE',  ( -1.000000000000000000, 0.0000000000000000000, 0.0000000000000000000 ) ) ;
#172 = CARTESIAN_POINT ( 'NONE',  ( 7.929957982662872900E-016, 4.000000000000022200, 0.0000000000000000000 ) ) ;
#173 = ORIENTED_EDGE ( 'NONE', *, *, #205, .T. ) ;
#174 = ADVANCED_FACE ( 'NONE', ( #54 ), #199, .T. ) ;
#175 = CC_DESIGN_PERSON_AND_ORGANIZATION_ASSIGNMENT ( #325, #64, ( #315 ) ) ;
#176 = COORDINATED_UNIVERSAL_TIME_OFFSET ( 1, 0, .AHEAD. ) ;
#177 = CIRCLE ( 'NONE', #266, 4.000000000000003600 ) ;
#178 = ORIENTED_EDGE ( 'NONE', *, *, #160, .F. ) ;
#179 = DIRECTION ( 'NONE',  ( 1.224646799147353200E-016, -2.427849415210259900E-032, 1.000000000000000000 ) ) ;
#180 = EDGE_CURVE ( 'NONE', #289, #185, #339, .T. ) ;
#181 = DIRECTION ( 'NONE',  ( -1.000000000000000000, 2.081668171172167000E-016, 0.0000000000000000000 ) ) ;
#182 = AXIS2_PLACEMENT_3D ( 'NONE', #73, #52, #98 ) ;
#183 = CARTESIAN_POINT ( 'NONE',  ( 5.550970587863977100E-015, 27.99999999999997200, 0.0000000000000000000 ) ) ;
#184 = CC_DESIGN_DATE_AND_TIME_ASSIGNMENT ( #96, #227, ( #249 ) ) ;
#185 = VERTEX_POINT ( 'NONE', #166 ) ;
#186 = CALENDAR_DATE ( 2024, 20, 3 ) ;
#187 = FACE_OUTER_BOUND ( 'NONE', #154, .T. ) ;
#188 = CYLINDRICAL_SURFACE ( 'NONE', #14, 100.0000000000000900 ) ;
#189 = APPLICATION_CONTEXT ( 'configuration controlled 3d designs of mechanical parts and assemblies' ) ;
#190 = AXIS2_PLACEMENT_3D ( 'NONE', #108, #333, #392 ) ;
#191 = CIRCLE ( 'NONE', #156, 4.000000000000003600 ) ;
#192 = VERTEX_POINT ( 'NONE', #101 ) ;
#193 = ORIENTED_EDGE ( 'NONE', *, *, #113, .F. ) ;
#194 = VERTEX_POINT ( 'NONE', #390 ) ;
#195 = DIRECTION ( 'NONE',  ( -1.982489495665708100E-016, -1.000000000000000000, 0.0000000000000000000 ) ) ;
#196 = CIRCLE ( 'NONE', #215, 108.0000000000000100 ) ;
#197 = AXIS2_PLACEMENT_3D ( 'NONE', #139, #296, #326 ) ;
#198 = PERSON_AND_ORGANIZATION ( #24, #381 ) ;
#199 = CYLINDRICAL_SURFACE ( 'NONE', #297, 104.0000000000000100 ) ;
#200 = CIRCLE ( 'NONE', #85, 100.0000000000000700 ) ;
#201 = CIRCLE ( 'NONE', #150, 130.0000000000000000 ) ;
#202 = CARTESIAN_POINT ( 'NONE',  ( 7.929957982662870900E-016, 4.000000000000022200, 0.0000000000000000000 ) ) ;
#203 = CARTESIAN_POINT ( 'NONE',  ( 1.617781153285278100E-029, 8.326672684688674100E-014, 0.0000000000000000000 ) ) ;
#204 = ORIENTED_EDGE ( 'NONE', *, *, #379, .F. ) ;
#205 = EDGE_CURVE ( 'NONE', #228, #192, #115, .T. ) ;
#206 = CARTESIAN_POINT ( 'NONE',  ( 5.550970587863980300E-015, 27.99999999999999300, 0.0000000000000000000 ) ) ;
#207 = EDGE_LOOP ( 'NONE', ( #352, #4, #2, #372 ) ) ;
#208 = DIRECTION ( 'NONE',  ( 1.000000000000000000, -1.982489495665708100E-016, 0.0000000000000000000 ) ) ;
#209 = CARTESIAN_POINT ( 'NONE',  ( 100.0000000000000000, 23.99999999999998200, 0.0000000000000000000 ) ) ;
#210 = EDGE_CURVE ( 'NONE', #185, #105, #356, .T. ) ;
#211 = ADVANCED_FACE ( 'NONE', ( #371 ), #43, .F. ) ;
#212 = FACE_OUTER_BOUND ( 'NONE', #57, .T. ) ;
#213 = CALENDAR_DATE ( 2024, 20, 3 ) ;
#214 = ADVANCED_FACE ( 'NONE', ( #349 ), #6, .F. ) ;
#215 = AXIS2_PLACEMENT_3D ( 'NONE', #202, #138, #7 ) ;
#216 = ADVANCED_FACE ( 'NONE', ( #31, #270 ), #331, .F. ) ;
#217 = EDGE_LOOP ( 'NONE', ( #27, #299 ) ) ;
#218 = DIRECTION ( 'NONE',  ( 1.982489495665708100E-016, 1.000000000000000000, -0.0000000000000000000 ) ) ;
#219 = VERTEX_POINT ( 'NONE', #169 ) ;
#220 =( NAMED_UNIT ( * ) PLANE_ANGLE_UNIT ( ) SI_UNIT ( $, .RADIAN. ) );
#221 = DIRECTION ( 'NONE',  ( 1.982489495665708100E-016, 1.000000000000000000, -0.0000000000000000000 ) ) ;
#222 = LINE ( 'NONE', #18, #132 ) ;
#223 = CALENDAR_DATE ( 2024, 20, 3 ) ;
#224 = AXIS2_PLACEMENT_3D ( 'NONE', #330, #142, #137 ) ;
#225 = APPROVAL_ROLE ( '' ) ;
#226 = PRODUCT_DEFINITION_FORMATION_WITH_SPECIFIED_SOURCE ( 'ANY', '', #11, .NOT_KNOWN. ) ;
#227 = DATE_TIME_ROLE ( 'classification_date' ) ;
#228 = VERTEX_POINT ( 'NONE', #360 ) ;
#229 = AXIS2_PLACEMENT_3D ( 'NONE', #15, #237, #12 ) ;
#230 = VERTEX_POINT ( 'NONE', #50 ) ;
#231 = CARTESIAN_POINT ( 'NONE',  ( 0.0000000000000000000, 0.0000000000000000000, 0.0000000000000000000 ) ) ;
#232 = CARTESIAN_POINT ( 'NONE',  ( 104.0000000000000100, 8.000000000000000000, 1.273632671113247400E-014 ) ) ;
#233 = EDGE_CURVE ( 'NONE', #145, #384, #261, .T. ) ;
#234 = DIRECTION ( 'NONE',  ( 1.982489495665708100E-016, 1.000000000000000000, -0.0000000000000000000 ) ) ;
#235 = PRODUCT_RELATED_PRODUCT_CATEGORY ( 'detail', '', ( #11 ) ) ;
#236 = DIRECTION ( 'NONE',  ( -1.982489495665708100E-016, -1.000000000000000000, 0.0000000000000000000 ) ) ;
#237 = DIRECTION ( 'NONE',  ( 1.982489495665708100E-016, 1.000000000000000000, -0.0000000000000000000 ) ) ;
#238 = ORIENTED_EDGE ( 'NONE', *, *, #210, .F. ) ;
#239 = CARTESIAN_POINT ( 'NONE',  ( 1.585991596532570200E-015, 8.000000000000021300, 0.0000000000000000000 ) ) ;
#240 = CC_DESIGN_DATE_AND_TIME_ASSIGNMENT ( #387, #129, ( #315 ) ) ;
#241 = DIRECTION ( 'NONE',  ( 1.982489495665708100E-016, 1.000000000000000000, -0.0000000000000000000 ) ) ;
#242 = EDGE_CURVE ( 'NONE', #230, #105, #177, .T. ) ;
#243 = PRODUCT_DEFINITION_SHAPE ( 'NONE', 'NONE',  #315 ) ;
#244 = DATE_AND_TIME ( #281, #125 ) ;
#245 = EDGE_LOOP ( 'NONE', ( #305, #173 ) ) ;
#246 = CARTESIAN_POINT ( 'NONE',  ( 108.0000000000000100, 8.000000000000000000, 0.0000000000000000000 ) ) ;
#247 = CARTESIAN_POINT ( 'NONE',  ( 126.0000000000000000, -4.162685933666237100E-015, 0.0000000000000000000 ) ) ;
#248 = ORIENTED_EDGE ( 'NONE', *, *, #113, .T. ) ;
#249 = SECURITY_CLASSIFICATION ( '', '', #287 ) ;
#250 = AXIS2_PLACEMENT_3D ( 'NONE', #363, #236, #391 ) ;
#251 = APPROVAL_STATUS ( 'not_yet_approved' ) ;
#252 = PERSON_AND_ORGANIZATION ( #24, #381 ) ;
#253 = MECHANICAL_CONTEXT ( 'NONE', #303, 'mechanical' ) ;
#254 = EDGE_CURVE ( 'NONE', #219, #194, #89, .T. ) ;
#255 = DIRECTION ( 'NONE',  ( 1.000000000000000000, -2.007781800899081900E-016, 0.0000000000000000000 ) ) ;
#256 = DIRECTION ( 'NONE',  ( 1.000000000000000000, -1.982489495665708100E-016, 0.0000000000000000000 ) ) ;
#257 = ORIENTED_EDGE ( 'NONE', *, *, #158, .F. ) ;
#258 = AXIS2_PLACEMENT_3D ( 'NONE', #38, #195, #256 ) ;
#259 = PERSON_AND_ORGANIZATION ( #24, #381 ) ;
#260 = CARTESIAN_POINT ( 'NONE',  ( 2.002967142162725300E-029, 1.040834085586084300E-013, 0.0000000000000000000 ) ) ;
#261 = CIRCLE ( 'NONE', #126, 130.0000000000000000 ) ;
#262 = LINE ( 'NONE', #394, #285 ) ;
#263 = DIRECTION ( 'NONE',  ( -1.982489495665708100E-016, -1.000000000000000000, 0.0000000000000000000 ) ) ;
#264 = DIRECTION ( 'NONE',  ( -1.000000000000000000, 1.982489495665708900E-016, 0.0000000000000000000 ) ) ;
#265 = ORIENTED_EDGE ( 'NONE', *, *, #335, .T. ) ;
#266 = AXIS2_PLACEMENT_3D ( 'NONE', #267, #131, #292 ) ;
#267 = CARTESIAN_POINT ( 'NONE',  ( -100.0000000000000000, 24.00000000000002500, 1.224646799147353200E-014 ) ) ;
#268 = ORIENTED_EDGE ( 'NONE', *, *, #28, .F. ) ;
#269 = PERSON_AND_ORGANIZATION ( #24, #381 ) ;
#270 = FACE_BOUND ( 'NONE', #217, .T. ) ;
#271 = FACE_OUTER_BOUND ( 'NONE', #49, .T. ) ;
#272 = CIRCLE ( 'NONE', #86, 104.0000000000000100 ) ;
#273 = AXIS2_PLACEMENT_3D ( 'NONE', #172, #368, #16 ) ;
#274 = ADVANCED_FACE ( 'NONE', ( #187 ), #328, .T. ) ;
#275 = VERTEX_POINT ( 'NONE', #68 ) ;
#276 = APPROVAL ( #251, 'UNSPECIFIED' ) ;
#277 = DIRECTION ( 'NONE',  ( -1.000000000000000000, 2.081668171172167000E-016, 0.0000000000000000000 ) ) ;
#278 = ORIENTED_EDGE ( 'NONE', *, *, #233, .F. ) ;
#279 = EDGE_LOOP ( 'NONE', ( #367, #302, #238, #358 ) ) ;
#280 = CIRCLE ( 'NONE', #273, 126.0000000000000000 ) ;
#281 = CALENDAR_DATE ( 2024, 20, 3 ) ;
#282 = VECTOR ( 'NONE', #234, 1000.000000000000000 ) ;
#283 = AXIS2_PLACEMENT_3D ( 'NONE', #206, #58, #277 ) ;
#284 = CIRCLE ( 'NONE', #283, 100.0000000000000700 ) ;
#285 = VECTOR ( 'NONE', #334, 1000.000000000000000 ) ;
#286 = PERSON_AND_ORGANIZATION_ROLE ( 'design_supplier' ) ;
#287 = SECURITY_CLASSIFICATION_LEVEL ( 'unclassified' ) ;
#288 = ORIENTED_EDGE ( 'NONE', *, *, #233, .T. ) ;
#289 = VERTEX_POINT ( 'NONE', #232 ) ;
#290 = DIRECTION ( 'NONE',  ( -1.982489495665708100E-016, -1.000000000000000000, 0.0000000000000000000 ) ) ;
#291 = AXIS2_PLACEMENT_3D ( 'NONE', #231, #152, #375 ) ;
#292 = DIRECTION ( 'NONE',  ( 1.000000000000000000, 0.0000000000000000000, -1.224646799147353500E-016 ) ) ;
#293 = MANIFOLD_SOLID_BREP ( 'Cosmetic_Fillet', #87 ) ;
#294 = DESIGN_CONTEXT ( 'detailed design', #189, 'design' ) ;
#295 = DIRECTION ( 'NONE',  ( 1.000000000000000000, -2.001604010742469500E-016, 0.0000000000000000000 ) ) ;
#296 = DIRECTION ( 'NONE',  ( -1.982489495665708100E-016, -1.000000000000000000, 0.0000000000000000000 ) ) ;
#297 = AXIS2_PLACEMENT_3D ( 'NONE', #396, #309, #78 ) ;
#298 = CARTESIAN_POINT ( 'NONE',  ( 104.0000000000000100, 27.99999999999995000, 1.273632671113247400E-014 ) ) ;
#299 = ORIENTED_EDGE ( 'NONE', *, *, #134, .T. ) ;
#300 = DIRECTION ( 'NONE',  ( 1.000000000000000000, 0.0000000000000000000, -1.224646799147349500E-016 ) ) ;
#301 = PLANE ( 'NONE',  #224 ) ;
#302 = ORIENTED_EDGE ( 'NONE', *, *, #242, .T. ) ;
#303 = APPLICATION_CONTEXT ( 'configuration controlled 3d designs of mechanical parts and assemblies' ) ;
#304 = DIRECTION ( 'NONE',  ( 0.0000000000000000000, -0.0000000000000000000, -1.000000000000000000 ) ) ;
#305 = ORIENTED_EDGE ( 'NONE', *, *, #92, .T. ) ;
#306 = TOROIDAL_SURFACE ( 'NONE', #10, 100.0000000000000000, 4.000000000000000000 ) ;
#307 = APPROVAL_PERSON_ORGANIZATION ( #269, #13, #32 ) ;
#308 = CARTESIAN_POINT ( 'NONE',  ( 1.585991596532570200E-015, 8.000000000000021300, 0.0000000000000000000 ) ) ;
#309 = DIRECTION ( 'NONE',  ( 1.982489495665708100E-016, 1.000000000000000000, -0.0000000000000000000 ) ) ;
#310 = AXIS2_PLACEMENT_3D ( 'NONE', #308, #112, #208 ) ;
#311 = ADVANCED_FACE ( 'NONE', ( #97 ), #21, .T. ) ;
#312 = ORIENTED_EDGE ( 'NONE', *, *, #67, .T. ) ;
#313 = DIRECTION ( 'NONE',  ( -1.000000000000000000, 0.0000000000000000000, 0.0000000000000000000 ) ) ;
#314 = EDGE_CURVE ( 'NONE', #383, #230, #284, .T. ) ;
#315 = PRODUCT_DEFINITION ( 'UNKNOWN', '', #226, #294 ) ;
#316 = CC_DESIGN_PERSON_AND_ORGANIZATION_ASSIGNMENT ( #404, #405, ( #249 ) ) ;
#317 = APPROVAL_STATUS ( 'not_yet_approved' ) ;
#318 = APPROVAL_STATUS ( 'not_yet_approved' ) ;
#319 = AXIS2_PLACEMENT_3D ( 'NONE', #239, #336, #53 ) ;
#320 = ORIENTED_EDGE ( 'NONE', *, *, #379, .T. ) ;
#321 = DIRECTION ( 'NONE',  ( 1.982489495665708100E-016, 1.000000000000000000, -0.0000000000000000000 ) ) ;
#322 = AXIS2_PLACEMENT_3D ( 'NONE', #362, #168, #140 ) ;
#323 = DIRECTION ( 'NONE',  ( 1.982489495665708100E-016, 1.000000000000000000, -0.0000000000000000000 ) ) ;
#324 = CC_DESIGN_PERSON_AND_ORGANIZATION_ASSIGNMENT ( #30, #286, ( #226 ) ) ;
#325 = PERSON_AND_ORGANIZATION ( #24, #381 ) ;
#326 = DIRECTION ( 'NONE',  ( 1.000000000000000000, -2.001604010742469500E-016, 0.0000000000000000000 ) ) ;
#327 = CARTESIAN_POINT ( 'NONE',  ( 100.0000000000000900, 27.99999999999995000, 1.224646799147354300E-014 ) ) ;
#328 = CYLINDRICAL_SURFACE ( 'NONE', #347, 104.0000000000000100 ) ;
#329 = APPROVAL_DATE_TIME ( #91, #70 ) ;
#330 = CARTESIAN_POINT ( 'NONE',  ( 130.0000000000000000, 6.710739481365764900E-014, 0.0000000000000000000 ) ) ;
#331 = PLANE ( 'NONE',  #250 ) ;
#332 = ORIENTED_EDGE ( 'NONE', *, *, #144, .T. ) ;
#333 = DIRECTION ( 'NONE',  ( -1.982489495665708100E-016, -1.000000000000000000, 0.0000000000000000000 ) ) ;
#334 = DIRECTION ( 'NONE',  ( 1.982489495665708100E-016, 1.000000000000000000, -0.0000000000000000000 ) ) ;
#335 = EDGE_CURVE ( 'NONE', #194, #90, #100, .T. ) ;
#336 = DIRECTION ( 'NONE',  ( 1.982489495665708100E-016, 1.000000000000000000, -0.0000000000000000000 ) ) ;
#337 = EDGE_LOOP ( 'NONE', ( #82, #278 ) ) ;
#338 = LOCAL_TIME ( 9, 45, 20.00000000000000000, #348 ) ;
#339 = LINE ( 'NONE', #298, #282 ) ;
#340 = AXIS2_PLACEMENT_3D ( 'NONE', #136, #74, #103 ) ;
#341 = ORIENTED_EDGE ( 'NONE', *, *, #63, .T. ) ;
#342 = CC_DESIGN_APPROVAL ( #70, ( #249 ) ) ;
#343 = DIRECTION ( 'NONE',  ( 1.982489495665708100E-016, 1.000000000000000000, -0.0000000000000000000 ) ) ;
#344 = DIRECTION ( 'NONE',  ( 1.000000000000000000, -1.996308762036801700E-016, 0.0000000000000000000 ) ) ;
#345 = DIRECTION ( 'NONE',  ( 1.000000000000000000, 0.0000000000000000000, -1.224646799147353500E-016 ) ) ;
#346 = ORIENTED_EDGE ( 'NONE', *, *, #180, .T. ) ;
#347 = AXIS2_PLACEMENT_3D ( 'NONE', #93, #321, #162 ) ;
#348 = COORDINATED_UNIVERSAL_TIME_OFFSET ( 1, 0, .AHEAD. ) ;
#349 = FACE_OUTER_BOUND ( 'NONE', #207, .T. ) ;
#350 = CIRCLE ( 'NONE', #359, 4.000000000000003600 ) ;
#351 = FACE_OUTER_BOUND ( 'NONE', #337, .T. ) ;
#352 = ORIENTED_EDGE ( 'NONE', *, *, #335, .F. ) ;
#353 = EDGE_CURVE ( 'NONE', #219, #289, #350, .T. ) ;
#354 = EDGE_LOOP ( 'NONE', ( #393, #141, #25, #268 ) ) ;
#355 = COORDINATED_UNIVERSAL_TIME_OFFSET ( 1, 0, .AHEAD. ) ;
#356 = CIRCLE ( 'NONE', #197, 104.0000000000000100 ) ;
#357 = CIRCLE ( 'NONE', #71, 126.0000000000000000 ) ;
#358 = ORIENTED_EDGE ( 'NONE', *, *, #80, .F. ) ;
#359 = AXIS2_PLACEMENT_3D ( 'NONE', #246, #59, #313 ) ;
#360 = CARTESIAN_POINT ( 'NONE',  ( 100.0000000000000900, 6.344183189022964300E-014, 1.224646799147354300E-014 ) ) ;
#361 = ORIENTED_EDGE ( 'NONE', *, *, #45, .F. ) ;
#362 = CARTESIAN_POINT ( 'NONE',  ( 4.757974789597700100E-015, 24.00000000000000400, 0.0000000000000000000 ) ) ;
#363 = CARTESIAN_POINT ( 'NONE',  ( 104.0000000000000100, 4.000000000000000900, 0.0000000000000000000 ) ) ;
#364 = CARTESIAN_POINT ( 'NONE',  ( -104.0000000000000100, 8.000000000000042600, 0.0000000000000000000 ) ) ;
#365 = CC_DESIGN_PERSON_AND_ORGANIZATION_ASSIGNMENT ( #252, #402, ( #11 ) ) ;
#366 = EDGE_LOOP ( 'NONE', ( #332, #346, #398, #257 ) ) ;
#367 = ORIENTED_EDGE ( 'NONE', *, *, #395, .F. ) ;
#368 = DIRECTION ( 'NONE',  ( 1.982489495665708100E-016, 1.000000000000000000, -0.0000000000000000000 ) ) ;
#369 = LINE ( 'NONE', #327, #380 ) ;
#370 = COORDINATED_UNIVERSAL_TIME_OFFSET ( 1, 0, .AHEAD. ) ;
#371 = FACE_OUTER_BOUND ( 'NONE', #77, .T. ) ;
#372 = ORIENTED_EDGE ( 'NONE', *, *, #144, .F. ) ;
#373 = EDGE_LOOP ( 'NONE', ( #178, #130, #288, #122 ) ) ;
#374 = ADVANCED_FACE ( 'NONE', ( #271 ), #188, .F. ) ;
#375 = DIRECTION ( 'NONE',  ( 1.000000000000000000, 0.0000000000000000000, 0.0000000000000000000 ) ) ;
#376 = ORIENTED_EDGE ( 'NONE', *, *, #395, .T. ) ;
#377 = CARTESIAN_POINT ( 'NONE',  ( 130.0000000000000000, 7.831104511495422900E-014, 0.0000000000000000000 ) ) ;
#378 = DIRECTION ( 'NONE',  ( -1.000000000000000000, 0.0000000000000000000, 0.0000000000000000000 ) ) ;
#379 = EDGE_CURVE ( 'NONE', #275, #94, #357, .T. ) ;
#380 = VECTOR ( 'NONE', #388, 1000.000000000000000 ) ;
#381 = ORGANIZATION ( 'UNSPECIFIED', 'UNSPECIFIED', '' ) ;
#382 = UNCERTAINTY_MEASURE_WITH_UNIT (LENGTH_MEASURE( 1.000000000000000100E-005 ), #83, 'distance_accuracy_value', 'NONE');
#383 = VERTEX_POINT ( 'NONE', #401 ) ;
#384 = VERTEX_POINT ( 'NONE', #377 ) ;
#385 = ORIENTED_EDGE ( 'NONE', *, *, #353, .F. ) ;
#386 = FACE_OUTER_BOUND ( 'NONE', #354, .T. ) ;
#387 = DATE_AND_TIME ( #213, #338 ) ;
#388 = DIRECTION ( 'NONE',  ( 1.982489495665708100E-016, 1.000000000000000000, -0.0000000000000000000 ) ) ;
#389 = CC_DESIGN_PERSON_AND_ORGANIZATION_ASSIGNMENT ( #198, #65, ( #226 ) ) ;
#390 = CARTESIAN_POINT ( 'NONE',  ( -108.0000000000000100, 4.000000000000042600, 1.322618543079141700E-014 ) ) ;
#391 = DIRECTION ( 'NONE',  ( 1.000000000000000000, -1.982489495665708100E-016, 0.0000000000000000000 ) ) ;
#392 = DIRECTION ( 'NONE',  ( 1.000000000000000000, -1.982489495665708100E-016, 0.0000000000000000000 ) ) ;
#393 = ORIENTED_EDGE ( 'NONE', *, *, #242, .F. ) ;
#394 = CARTESIAN_POINT ( 'NONE',  ( -100.0000000000000900, 27.99999999999999300, 0.0000000000000000000 ) ) ;
#395 = EDGE_CURVE ( 'NONE', #230, #383, #200, .T. ) ;
#396 = CARTESIAN_POINT ( 'NONE',  ( 5.550970587863977100E-015, 27.99999999999997200, 0.0000000000000000000 ) ) ;
#397 = EDGE_CURVE ( 'NONE', #275, #384, #116, .T. ) ;
#398 = ORIENTED_EDGE ( 'NONE', *, *, #210, .T. ) ;
#399 = CARTESIAN_POINT ( 'NONE',  ( -108.0000000000000100, 8.000000000000042600, 1.322618543079141700E-014 ) ) ;
#400 = ORIENTED_EDGE ( 'NONE', *, *, #165, .F. ) ;
#401 = CARTESIAN_POINT ( 'NONE',  ( 100.0000000000000700, 27.99999999999997200, 1.224646799147354200E-014 ) ) ;
#402 = PERSON_AND_ORGANIZATION_ROLE ( 'design_owner' ) ;
#403 = AXIS2_PLACEMENT_3D ( 'NONE', #209, #304, #171 ) ;
#404 = PERSON_AND_ORGANIZATION ( #24, #381 ) ;
#405 = PERSON_AND_ORGANIZATION_ROLE ( 'classification_officer' ) ;
ENDSEC;
END-ISO-10303-21;
