ISO-10303-21;
HEADER;
FILE_DESCRIPTION (( 'STEP AP203' ),
    '1' );
FILE_NAME ('3D_R243_60.3x3_17386060.STEP',
    '2024-08-06T08:43:29',
    ( '' ),
    ( '' ),
    'SwSTEP 2.0',
    'SolidWorks 2024',
    '' );
FILE_SCHEMA (( 'CONFIG_CONTROL_DESIGN' ));
ENDSEC;

DATA;
#1 = DIRECTION ( 'NONE',  ( -0.000000000000000000, -1.000000000000000000, -0.000000000000000000 ) ) ;
#2 = CARTESIAN_POINT ( 'NONE',  ( 0.000000000000000000, 0.000000000000000000, 0.000000000000000000 ) ) ;
#3 = CIRCLE ( 'NONE', #244, 60.14999999999999858 ) ;
#4 = CARTESIAN_POINT ( 'NONE',  ( 0.000000000000000000, 0.000000000000000000, -60.14999999999999858 ) ) ;
#5 = EDGE_CURVE ( 'NONE', #48, #120, #239, .T. ) ;
#6 = CALENDAR_DATE ( 2024, 6, 8 ) ;
#7 = PERSON_AND_ORGANIZATION_ROLE ( 'design_owner' ) ;
#8 = CC_DESIGN_APPROVAL ( #122, ( #113 ) ) ;
#9 =( LENGTH_UNIT ( ) NAMED_UNIT ( * ) SI_UNIT ( .MILLI., .METRE. ) );
#10 = ORIENTED_EDGE ( 'NONE', *, *, #190, .T. ) ;
#11 = APPROVAL_ROLE ( '' ) ;
#12 = APPROVAL_PERSON_ORGANIZATION ( #200, #159, #105 ) ;
#13 = ORIENTED_EDGE ( 'NONE', *, *, #92, .T. ) ;
#14 = CC_DESIGN_PERSON_AND_ORGANIZATION_ASSIGNMENT ( #168, #240, ( #113 ) ) ;
#15 = ORIENTED_EDGE ( 'NONE', *, *, #246, .T. ) ;
#16 = DIRECTION ( 'NONE',  ( 0.000000000000000000, 1.000000000000000000, 0.000000000000000000 ) ) ;
#17 = DIRECTION ( 'NONE',  ( 0.000000000000000000, 0.000000000000000000, 1.000000000000000000 ) ) ;
#18 = LINE ( 'NONE', #226, #248 ) ;
#19 = CARTESIAN_POINT ( 'NONE',  ( 7.366250496871329574E-15, 0.000000000000000000, 60.14999999999999858 ) ) ;
#20 = CARTESIAN_POINT ( 'NONE',  ( 0.000000000000000000, 0.000000000000000000, -30.14999999999999858 ) ) ;
#21 = CC_DESIGN_PERSON_AND_ORGANIZATION_ASSIGNMENT ( #65, #87, ( #111 ) ) ;
#22 = DIRECTION ( 'NONE',  ( 0.000000000000000000, 0.000000000000000000, 1.000000000000000000 ) ) ;
#23 = CALENDAR_DATE ( 2024, 6, 8 ) ;
#24 = AXIS2_PLACEMENT_3D ( 'NONE', #214, #67, #46 ) ;
#25 = APPLICATION_CONTEXT ( 'configuration controlled 3d designs of mechanical parts and assemblies' ) ;
#26 = CARTESIAN_POINT ( 'NONE',  ( 0.000000000000000000, 0.000000000000000000, 0.000000000000000000 ) ) ;
#27 = ORIENTED_EDGE ( 'NONE', *, *, #136, .F. ) ;
#28 = VERTEX_POINT ( 'NONE', #152 ) ;
#29 = AXIS2_PLACEMENT_3D ( 'NONE', #26, #230, #59 ) ;
#30 = EDGE_CURVE ( 'NONE', #50, #28, #228, .T. ) ;
#31 = ORIENTED_EDGE ( 'NONE', *, *, #246, .F. ) ;
#32 = SHAPE_DEFINITION_REPRESENTATION ( #207, #198 ) ;
#33 = CIRCLE ( 'NONE', #24, 30.14999999999999858 ) ;
#34 = LOCAL_TIME ( 10, 43, 29.00000000000000000, #234 ) ;
#35 = ORIENTED_EDGE ( 'NONE', *, *, #41, .T. ) ;
#36 = CARTESIAN_POINT ( 'NONE',  ( 0.000000000000000000, 0.000000000000000000, 0.000000000000000000 ) ) ;
#37 = CIRCLE ( 'NONE', #47, 30.14999999999999858 ) ;
#38 = CARTESIAN_POINT ( 'NONE',  ( 0.000000000000000000, 3.000000000000000000, 0.000000000000000000 ) ) ;
#39 = CYLINDRICAL_SURFACE ( 'NONE', #77, 60.14999999999999858 ) ;
#40 = DIRECTION ( 'NONE',  ( -0.000000000000000000, -1.000000000000000000, -0.000000000000000000 ) ) ;
#41 = EDGE_CURVE ( 'NONE', #125, #220, #103, .T. ) ;
#42 = DIRECTION ( 'NONE',  ( 0.000000000000000000, -0.000000000000000000, 1.000000000000000000 ) ) ;
#43 = CC_DESIGN_APPROVAL ( #159, ( #111 ) ) ;
#44 = MANIFOLD_SOLID_BREP ( 'Aufsatz-Linear austragen1', #201 ) ;
#45 = APPLICATION_PROTOCOL_DEFINITION ( 'international standard', 'config_control_design', 1994, #25 ) ;
#46 = DIRECTION ( 'NONE',  ( 0.000000000000000000, 0.000000000000000000, 1.000000000000000000 ) ) ;
#47 = AXIS2_PLACEMENT_3D ( 'NONE', #36, #227, #17 ) ;
#48 = VERTEX_POINT ( 'NONE', #135 ) ;
#49 = DATE_AND_TIME ( #112, #185 ) ;
#50 = VERTEX_POINT ( 'NONE', #20 ) ;
#51 = DIRECTION ( 'NONE',  ( 0.000000000000000000, 0.000000000000000000, 1.000000000000000000 ) ) ;
#52 = ORIENTED_EDGE ( 'NONE', *, *, #181, .F. ) ;
#53 = CALENDAR_DATE ( 2024, 6, 8 ) ;
#54 = CC_DESIGN_DATE_AND_TIME_ASSIGNMENT ( #164, #236, ( #133 ) ) ;
#55 = AXIS2_PLACEMENT_3D ( 'NONE', #150, #51, #145 ) ;
#56 = EDGE_LOOP ( 'NONE', ( #52, #237, #183, #242 ) ) ;
#57 = CYLINDRICAL_SURFACE ( 'NONE', #169, 30.14999999999999858 ) ;
#58 = EDGE_CURVE ( 'NONE', #72, #125, #18, .T. ) ;
#59 = DIRECTION ( 'NONE',  ( 0.000000000000000000, 0.000000000000000000, 1.000000000000000000 ) ) ;
#60 = CIRCLE ( 'NONE', #205, 60.14999999999999858 ) ;
#61 = FACE_BOUND ( 'NONE', #217, .T. ) ;
#62 = CC_DESIGN_APPROVAL ( #233, ( #133 ) ) ;
#63 = DIRECTION ( 'NONE',  ( -0.000000000000000000, -1.000000000000000000, -0.000000000000000000 ) ) ;
#64 = FACE_OUTER_BOUND ( 'NONE', #170, .T. ) ;
#65 = PERSON_AND_ORGANIZATION ( #144, #223 ) ;
#66 = AXIS2_PLACEMENT_3D ( 'NONE', #74, #16, #91 ) ;
#67 = DIRECTION ( 'NONE',  ( 0.000000000000000000, 1.000000000000000000, 0.000000000000000000 ) ) ;
#68 = LOCAL_TIME ( 10, 43, 29.00000000000000000, #199 ) ;
#69 = ADVANCED_FACE ( 'NONE', ( #195 ), #174, .F. ) ;
#70 = PERSON_AND_ORGANIZATION ( #144, #223 ) ;
#71 = ORIENTED_EDGE ( 'NONE', *, *, #5, .T. ) ;
#72 = VERTEX_POINT ( 'NONE', #158 ) ;
#73 = APPROVAL_STATUS ( 'not_yet_approved' ) ;
#74 = CARTESIAN_POINT ( 'NONE',  ( 0.000000000000000000, 3.000000000000000000, 0.000000000000000000 ) ) ;
#75 = PERSON_AND_ORGANIZATION ( #144, #223 ) ;
#76 = EDGE_CURVE ( 'NONE', #72, #191, #142, .T. ) ;
#77 = AXIS2_PLACEMENT_3D ( 'NONE', #139, #40, #141 ) ;
#78 = LOCAL_TIME ( 10, 43, 29.00000000000000000, #123 ) ;
#79 = FACE_OUTER_BOUND ( 'NONE', #56, .T. ) ;
#80 = CARTESIAN_POINT ( 'NONE',  ( 3.692310099429270397E-15, 3.000000000000000000, 30.14999999999999858 ) ) ;
#81 = CARTESIAN_POINT ( 'NONE',  ( 3.692310099429270397E-15, 3.000000000000000000, 30.14999999999999858 ) ) ;
#82 = AXIS2_PLACEMENT_3D ( 'NONE', #175, #160, #210 ) ;
#83 = LINE ( 'NONE', #118, #179 ) ;
#84 = CC_DESIGN_SECURITY_CLASSIFICATION ( #133, ( #113 ) ) ;
#85 = DIRECTION ( 'NONE',  ( 0.000000000000000000, 0.000000000000000000, -1.000000000000000000 ) ) ;
#86 = PERSON_AND_ORGANIZATION ( #144, #223 ) ;
#87 = PERSON_AND_ORGANIZATION_ROLE ( 'creator' ) ;
#88 = COORDINATED_UNIVERSAL_TIME_OFFSET ( 1, 0, .AHEAD. ) ;
#89 = APPROVAL_PERSON_ORGANIZATION ( #219, #122, #11 ) ;
#90 = PERSON_AND_ORGANIZATION ( #144, #223 ) ;
#91 = DIRECTION ( 'NONE',  ( 0.000000000000000000, 0.000000000000000000, 1.000000000000000000 ) ) ;
#92 = EDGE_CURVE ( 'NONE', #28, #50, #37, .T. ) ;
#93 = APPROVAL_DATE_TIME ( #143, #122 ) ;
#94 = ORIENTED_EDGE ( 'NONE', *, *, #76, .T. ) ;
#95 = APPROVAL_ROLE ( '' ) ;
#96 = ADVANCED_FACE ( 'NONE', ( #177, #212 ), #117, .F. ) ;
#97 = AXIS2_PLACEMENT_3D ( 'NONE', #148, #167, #238 ) ;
#98 = CARTESIAN_POINT ( 'NONE',  ( 0.000000000000000000, 3.000000000000000000, -30.14999999999999858 ) ) ;
#99 = LINE ( 'NONE', #98, #115 ) ;
#100 = DIRECTION ( 'NONE',  ( -0.000000000000000000, -1.000000000000000000, -0.000000000000000000 ) ) ;
#101 = DIRECTION ( 'NONE',  ( 0.000000000000000000, 0.000000000000000000, -1.000000000000000000 ) ) ;
#102 = CC_DESIGN_PERSON_AND_ORGANIZATION_ASSIGNMENT ( #86, #215, ( #133 ) ) ;
#103 = CIRCLE ( 'NONE', #29, 60.14999999999999858 ) ;
#104 = DIRECTION ( 'NONE',  ( -0.000000000000000000, -1.000000000000000000, -0.000000000000000000 ) ) ;
#105 = APPROVAL_ROLE ( '' ) ;
#106 = APPROVAL_STATUS ( 'not_yet_approved' ) ;
#107 =( NAMED_UNIT ( * ) SI_UNIT ( $, .STERADIAN. ) SOLID_ANGLE_UNIT ( ) );
#108 = AXIS2_PLACEMENT_3D ( 'NONE', #38, #104, #101 ) ;
#109 = LOCAL_TIME ( 10, 43, 29.00000000000000000, #132 ) ;
#110 = EDGE_LOOP ( 'NONE', ( #71, #140, #206, #186 ) ) ;
#111 = PRODUCT_DEFINITION ( 'UNKNOWN', '', #113, #173 ) ;
#112 = CALENDAR_DATE ( 2024, 6, 8 ) ;
#113 = PRODUCT_DEFINITION_FORMATION_WITH_SPECIFIED_SOURCE ( 'ANY', '', #245, .NOT_KNOWN. ) ;
#114 = EDGE_LOOP ( 'NONE', ( #129, #31, #10, #154 ) ) ;
#115 = VECTOR ( 'NONE', #1, 1000.000000000000000 ) ;
#116 = ADVANCED_FACE ( 'NONE', ( #172 ), #225, .T. ) ;
#117 = PLANE ( 'NONE',  #189 ) ;
#118 = CARTESIAN_POINT ( 'NONE',  ( 0.000000000000000000, 3.000000000000000000, -60.14999999999999858 ) ) ;
#119 = DIRECTION ( 'NONE',  ( 0.000000000000000000, 0.000000000000000000, -1.000000000000000000 ) ) ;
#120 = VERTEX_POINT ( 'NONE', #81 ) ;
#121 = LINE ( 'NONE', #80, #151 ) ;
#122 = APPROVAL ( #106, 'UNSPECIFIED' ) ;
#123 = COORDINATED_UNIVERSAL_TIME_OFFSET ( 1, 0, .AHEAD. ) ;
#124 =( GEOMETRIC_REPRESENTATION_CONTEXT ( 3 ) GLOBAL_UNCERTAINTY_ASSIGNED_CONTEXT ( ( #137 ) ) GLOBAL_UNIT_ASSIGNED_CONTEXT ( ( #9, #218, #107 ) ) REPRESENTATION_CONTEXT ( 'NONE', 'WORKASPACE' ) );
#125 = VERTEX_POINT ( 'NONE', #19 ) ;
#126 = ORIENTED_EDGE ( 'NONE', *, *, #30, .T. ) ;
#127 = APPROVAL_DATE_TIME ( #49, #159 ) ;
#128 = EDGE_CURVE ( 'NONE', #48, #50, #99, .T. ) ;
#129 = ORIENTED_EDGE ( 'NONE', *, *, #58, .F. ) ;
#130 = DIRECTION ( 'NONE',  ( 0.000000000000000000, 1.000000000000000000, 0.000000000000000000 ) ) ;
#131 = ORIENTED_EDGE ( 'NONE', *, *, #76, .F. ) ;
#132 = COORDINATED_UNIVERSAL_TIME_OFFSET ( 1, 0, .AHEAD. ) ;
#133 = SECURITY_CLASSIFICATION ( '', '', #178 ) ;
#134 = CARTESIAN_POINT ( 'NONE',  ( 0.000000000000000000, 3.000000000000000000, 0.000000000000000000 ) ) ;
#135 = CARTESIAN_POINT ( 'NONE',  ( 0.000000000000000000, 3.000000000000000000, -30.14999999999999858 ) ) ;
#136 = EDGE_CURVE ( 'NONE', #220, #125, #3, .T. ) ;
#137 = UNCERTAINTY_MEASURE_WITH_UNIT (LENGTH_MEASURE( 1.000000000000000082E-05 ), #9, 'distance_accuracy_value', 'NONE');
#138 = FACE_OUTER_BOUND ( 'NONE', #114, .T. ) ;
#139 = CARTESIAN_POINT ( 'NONE',  ( 0.000000000000000000, 3.000000000000000000, 0.000000000000000000 ) ) ;
#140 = ORIENTED_EDGE ( 'NONE', *, *, #181, .T. ) ;
#141 = DIRECTION ( 'NONE',  ( 0.000000000000000000, 0.000000000000000000, -1.000000000000000000 ) ) ;
#142 = CIRCLE ( 'NONE', #176, 60.14999999999999858 ) ;
#143 = DATE_AND_TIME ( #6, #34 ) ;
#144 = PERSON ( 'UNSPECIFIED', 'UNSPECIFIED', 'UNSPECIFIED', ('UNSPECIFIED'), ('UNSPECIFIED'), ('UNSPECIFIED') ) ;
#145 = DIRECTION ( 'NONE',  ( 1.000000000000000000, 0.000000000000000000, 0.000000000000000000 ) ) ;
#146 = PERSON_AND_ORGANIZATION_ROLE ( 'design_supplier' ) ;
#147 = ORIENTED_EDGE ( 'NONE', *, *, #41, .F. ) ;
#148 = CARTESIAN_POINT ( 'NONE',  ( 0.000000000000000000, 0.000000000000000000, 0.000000000000000000 ) ) ;
#149 = CC_DESIGN_PERSON_AND_ORGANIZATION_ASSIGNMENT ( #75, #146, ( #113 ) ) ;
#150 = CARTESIAN_POINT ( 'NONE',  ( 0.000000000000000000, 0.000000000000000000, 0.000000000000000000 ) ) ;
#151 = VECTOR ( 'NONE', #171, 1000.000000000000000 ) ;
#152 = CARTESIAN_POINT ( 'NONE',  ( 3.692310099429270397E-15, 0.000000000000000000, 30.14999999999999858 ) ) ;
#153 = ORIENTED_EDGE ( 'NONE', *, *, #5, .F. ) ;
#154 = ORIENTED_EDGE ( 'NONE', *, *, #136, .T. ) ;
#155 = DATE_AND_TIME ( #53, #109 ) ;
#156 = EDGE_LOOP ( 'NONE', ( #126, #13 ) ) ;
#157 = DIRECTION ( 'NONE',  ( 0.000000000000000000, 1.000000000000000000, 0.000000000000000000 ) ) ;
#158 = CARTESIAN_POINT ( 'NONE',  ( 7.366250496871329574E-15, 3.000000000000000000, 60.14999999999999858 ) ) ;
#159 = APPROVAL ( #73, 'UNSPECIFIED' ) ;
#160 = DIRECTION ( 'NONE',  ( 0.000000000000000000, 1.000000000000000000, 0.000000000000000000 ) ) ;
#161 = DIRECTION ( 'NONE',  ( -0.000000000000000000, -1.000000000000000000, -0.000000000000000000 ) ) ;
#162 = ADVANCED_FACE ( 'NONE', ( #64, #61 ), #247, .T. ) ;
#163 = DIRECTION ( 'NONE',  ( 0.000000000000000000, 0.000000000000000000, 1.000000000000000000 ) ) ;
#164 = DATE_AND_TIME ( #23, #68 ) ;
#165 = DATE_AND_TIME ( #203, #78 ) ;
#166 = ORIENTED_EDGE ( 'NONE', *, *, #58, .T. ) ;
#167 = DIRECTION ( 'NONE',  ( 0.000000000000000000, 1.000000000000000000, 0.000000000000000000 ) ) ;
#168 = PERSON_AND_ORGANIZATION ( #144, #223 ) ;
#169 = AXIS2_PLACEMENT_3D ( 'NONE', #134, #100, #119 ) ;
#170 = EDGE_LOOP ( 'NONE', ( #15, #94 ) ) ;
#171 = DIRECTION ( 'NONE',  ( -0.000000000000000000, -1.000000000000000000, -0.000000000000000000 ) ) ;
#172 = FACE_OUTER_BOUND ( 'NONE', #241, .T. ) ;
#173 = DESIGN_CONTEXT ( 'detailed design', #235, 'design' ) ;
#174 = CYLINDRICAL_SURFACE ( 'NONE', #108, 30.14999999999999858 ) ;
#175 = CARTESIAN_POINT ( 'NONE',  ( 0.000000000000000000, 3.000000000000000000, 0.000000000000000000 ) ) ;
#176 = AXIS2_PLACEMENT_3D ( 'NONE', #231, #157, #211 ) ;
#177 = FACE_OUTER_BOUND ( 'NONE', #222, .T. ) ;
#178 = SECURITY_CLASSIFICATION_LEVEL ( 'unclassified' ) ;
#179 = VECTOR ( 'NONE', #161, 1000.000000000000000 ) ;
#180 = MECHANICAL_CONTEXT ( 'NONE', #25, 'mechanical' ) ;
#181 = EDGE_CURVE ( 'NONE', #120, #28, #121, .T. ) ;
#182 = CARTESIAN_POINT ( 'NONE',  ( 0.000000000000000000, 3.000000000000000000, 0.000000000000000000 ) ) ;
#183 = ORIENTED_EDGE ( 'NONE', *, *, #128, .T. ) ;
#184 = DATE_TIME_ROLE ( 'creation_date' ) ;
#185 = LOCAL_TIME ( 10, 43, 29.00000000000000000, #88 ) ;
#186 = ORIENTED_EDGE ( 'NONE', *, *, #128, .F. ) ;
#187 = ORIENTED_EDGE ( 'NONE', *, *, #229, .F. ) ;
#188 = APPROVAL_DATE_TIME ( #155, #233 ) ;
#189 = AXIS2_PLACEMENT_3D ( 'NONE', #2, #209, #42 ) ;
#190 = EDGE_CURVE ( 'NONE', #191, #220, #83, .T. ) ;
#191 = VERTEX_POINT ( 'NONE', #193 ) ;
#192 = CARTESIAN_POINT ( 'NONE',  ( 0.000000000000000000, 3.000000000000000000, 0.000000000000000000 ) ) ;
#193 = CARTESIAN_POINT ( 'NONE',  ( 0.000000000000000000, 3.000000000000000000, -60.14999999999999858 ) ) ;
#194 = CARTESIAN_POINT ( 'NONE',  ( 0.000000000000000000, 0.000000000000000000, 0.000000000000000000 ) ) ;
#195 = FACE_OUTER_BOUND ( 'NONE', #110, .T. ) ;
#196 = AXIS2_PLACEMENT_3D ( 'NONE', #192, #197, #85 ) ;
#197 = DIRECTION ( 'NONE',  ( -0.000000000000000000, -1.000000000000000000, -0.000000000000000000 ) ) ;
#198 = ADVANCED_BREP_SHAPE_REPRESENTATION ( '3D_R243_60.3x3_17386060', ( #44, #55 ), #124 ) ;
#199 = COORDINATED_UNIVERSAL_TIME_OFFSET ( 1, 0, .AHEAD. ) ;
#200 = PERSON_AND_ORGANIZATION ( #144, #223 ) ;
#201 = CLOSED_SHELL ( 'NONE', ( #69, #116, #162, #96, #208, #213 ) ) ;
#202 = ORIENTED_EDGE ( 'NONE', *, *, #190, .F. ) ;
#203 = CALENDAR_DATE ( 2024, 6, 8 ) ;
#204 = PRODUCT_RELATED_PRODUCT_CATEGORY ( 'detail', '', ( #245 ) ) ;
#205 = AXIS2_PLACEMENT_3D ( 'NONE', #182, #130, #22 ) ;
#206 = ORIENTED_EDGE ( 'NONE', *, *, #30, .F. ) ;
#207 = PRODUCT_DEFINITION_SHAPE ( 'NONE', 'NONE',  #111 ) ;
#208 = ADVANCED_FACE ( 'NONE', ( #138 ), #39, .T. ) ;
#209 = DIRECTION ( 'NONE',  ( 0.000000000000000000, 1.000000000000000000, 0.000000000000000000 ) ) ;
#210 = DIRECTION ( 'NONE',  ( 0.000000000000000000, -0.000000000000000000, 1.000000000000000000 ) ) ;
#211 = DIRECTION ( 'NONE',  ( 0.000000000000000000, 0.000000000000000000, 1.000000000000000000 ) ) ;
#212 = FACE_BOUND ( 'NONE', #156, .T. ) ;
#213 = ADVANCED_FACE ( 'NONE', ( #79 ), #57, .F. ) ;
#214 = CARTESIAN_POINT ( 'NONE',  ( 0.000000000000000000, 3.000000000000000000, 0.000000000000000000 ) ) ;
#215 = PERSON_AND_ORGANIZATION_ROLE ( 'classification_officer' ) ;
#216 = APPROVAL_STATUS ( 'not_yet_approved' ) ;
#217 = EDGE_LOOP ( 'NONE', ( #153, #187 ) ) ;
#218 =( NAMED_UNIT ( * ) PLANE_ANGLE_UNIT ( ) SI_UNIT ( $, .RADIAN. ) );
#219 = PERSON_AND_ORGANIZATION ( #144, #223 ) ;
#220 = VERTEX_POINT ( 'NONE', #4 ) ;
#221 = APPROVAL_PERSON_ORGANIZATION ( #70, #233, #95 ) ;
#222 = EDGE_LOOP ( 'NONE', ( #27, #147 ) ) ;
#223 = ORGANIZATION ( 'UNSPECIFIED', 'UNSPECIFIED', '' ) ;
#224 = CC_DESIGN_DATE_AND_TIME_ASSIGNMENT ( #165, #184, ( #111 ) ) ;
#225 = CYLINDRICAL_SURFACE ( 'NONE', #196, 60.14999999999999858 ) ;
#226 = CARTESIAN_POINT ( 'NONE',  ( 7.366250496871329574E-15, 3.000000000000000000, 60.14999999999999858 ) ) ;
#227 = DIRECTION ( 'NONE',  ( 0.000000000000000000, 1.000000000000000000, 0.000000000000000000 ) ) ;
#228 = CIRCLE ( 'NONE', #97, 30.14999999999999858 ) ;
#229 = EDGE_CURVE ( 'NONE', #120, #48, #33, .T. ) ;
#230 = DIRECTION ( 'NONE',  ( 0.000000000000000000, 1.000000000000000000, 0.000000000000000000 ) ) ;
#231 = CARTESIAN_POINT ( 'NONE',  ( 0.000000000000000000, 3.000000000000000000, 0.000000000000000000 ) ) ;
#232 = APPLICATION_PROTOCOL_DEFINITION ( 'international standard', 'config_control_design', 1994, #235 ) ;
#233 = APPROVAL ( #216, 'UNSPECIFIED' ) ;
#234 = COORDINATED_UNIVERSAL_TIME_OFFSET ( 1, 0, .AHEAD. ) ;
#235 = APPLICATION_CONTEXT ( 'configuration controlled 3d designs of mechanical parts and assemblies' ) ;
#236 = DATE_TIME_ROLE ( 'classification_date' ) ;
#237 = ORIENTED_EDGE ( 'NONE', *, *, #229, .T. ) ;
#238 = DIRECTION ( 'NONE',  ( 0.000000000000000000, 0.000000000000000000, 1.000000000000000000 ) ) ;
#239 = CIRCLE ( 'NONE', #66, 30.14999999999999858 ) ;
#240 = PERSON_AND_ORGANIZATION_ROLE ( 'creator' ) ;
#241 = EDGE_LOOP ( 'NONE', ( #131, #166, #35, #202 ) ) ;
#242 = ORIENTED_EDGE ( 'NONE', *, *, #92, .F. ) ;
#243 = CC_DESIGN_PERSON_AND_ORGANIZATION_ASSIGNMENT ( #90, #7, ( #245 ) ) ;
#244 = AXIS2_PLACEMENT_3D ( 'NONE', #194, #249, #163 ) ;
#245 = PRODUCT ( '3D_R243_60.3x3_17386060', '3D_R243_60.3x3_17386060', '', ( #180 ) ) ;
#246 = EDGE_CURVE ( 'NONE', #191, #72, #60, .T. ) ;
#247 = PLANE ( 'NONE',  #82 ) ;
#248 = VECTOR ( 'NONE', #63, 1000.000000000000000 ) ;
#249 = DIRECTION ( 'NONE',  ( 0.000000000000000000, 1.000000000000000000, 0.000000000000000000 ) ) ;
ENDSEC;
END-ISO-10303-21;
