ISO-10303-21;
HEADER;
FILE_DESCRIPTION (( 'STEP AP203' ),
    '1' );
FILE_NAME ('19-0402-51_outokumpu.step',
    '2015-08-11T09:23:35',
    ( '' ),
    ( '' ),
    'SwSTEP 2.0',
    'SolidWorks 2008',
    '' );
FILE_SCHEMA (( 'CONFIG_CONTROL_DESIGN' ));
ENDSEC;

DATA;
#1 = EDGE_LOOP ( 'NONE', ( #25, #2 ) ) ;
#2 = ORIENTED_EDGE ( 'NONE', *, *, #6, .T. ) ;
#3 = ORIENTED_EDGE ( 'NONE', *, *, #23, .T. ) ;
#4 = EDGE_LOOP ( 'NONE', ( #3, #11 ) ) ;
#5 = ADVANCED_FACE ( 'NONE', ( #58, #57 ), #152, .F. ) ;
#6 = EDGE_CURVE ( 'NONE', #108, #111, #116, .T. ) ;
#7 = EDGE_LOOP ( 'NONE', ( #33, #88 ) ) ;
#8 = EDGE_LOOP ( 'NONE', ( #55, #91, #115, #22 ) ) ;
#9 = ORIENTED_EDGE ( 'NONE', *, *, #10, .F. ) ;
#10 = EDGE_CURVE ( 'NONE', #75, #13, #167, .T. ) ;
#11 = ORIENTED_EDGE ( 'NONE', *, *, #12, .T. ) ;
#12 = EDGE_CURVE ( 'NONE', #112, #24, #149, .T. ) ;
#13 = VERTEX_POINT ( 'NONE', #135 ) ;
#14 = ORIENTED_EDGE ( 'NONE', *, *, #15, .F. ) ;
#15 = EDGE_CURVE ( 'NONE', #13, #17, #134, .T. ) ;
#16 = EDGE_CURVE ( 'NONE', #76, #17, #130, .T. ) ;
#17 = VERTEX_POINT ( 'NONE', #159 ) ;
#18 = ORIENTED_EDGE ( 'NONE', *, *, #16, .T. ) ;
#19 = EDGE_CURVE ( 'NONE', #74, #76, #158, .T. ) ;
#20 = EDGE_CURVE ( 'NONE', #70, #24, #154, .T. ) ;
#21 = ORIENTED_EDGE ( 'NONE', *, *, #19, .T. ) ;
#22 = ORIENTED_EDGE ( 'NONE', *, *, #20, .F. ) ;
#23 = EDGE_CURVE ( 'NONE', #24, #112, #141, .T. ) ;
#24 = VERTEX_POINT ( 'NONE', #136 ) ;
#25 = ORIENTED_EDGE ( 'NONE', *, *, #110, .T. ) ;
#26 = EDGE_CURVE ( 'NONE', #71, #70, #128, .T. ) ;
#27 = ORIENTED_EDGE ( 'NONE', *, *, #26, .F. ) ;
#28 = ORIENTED_EDGE ( 'NONE', *, *, #103, .F. ) ;
#29 = EDGE_LOOP ( 'NONE', ( #31, #27 ) ) ;
#30 = ADVANCED_FACE ( 'NONE', ( #123, #122 ), #121, .F. ) ;
#31 = ORIENTED_EDGE ( 'NONE', *, *, #90, .F. ) ;
#32 = ORIENTED_EDGE ( 'NONE', *, *, #20, .T. ) ;
#33 = ORIENTED_EDGE ( 'NONE', *, *, #87, .F. ) ;
#34 = ORIENTED_EDGE ( 'NONE', *, *, #68, .T. ) ;
#35 = ORIENTED_EDGE ( 'NONE', *, *, #97, .T. ) ;
#36 = ORIENTED_EDGE ( 'NONE', *, *, #113, .F. ) ;
#37 = ORIENTED_EDGE ( 'NONE', *, *, #65, .F. ) ;
#38 = ORIENTED_EDGE ( 'NONE', *, *, #47, .T. ) ;
#39 = ORIENTED_EDGE ( 'NONE', *, *, #6, .F. ) ;
#40 = CLOSED_SHELL ( 'NONE', ( #114, #69, #54, #41, #52, #30, #5, #61, #79, #84 ) ) ;
#41 = ADVANCED_FACE ( 'NONE', ( #212 ), #211, .F. ) ;
#42 = EDGE_LOOP ( 'NONE', ( #43, #92, #93, #95, #96, #99 ) ) ;
#43 = ORIENTED_EDGE ( 'NONE', *, *, #44, .T. ) ;
#44 = EDGE_CURVE ( 'NONE', #45, #74, #175, .T. ) ;
#45 = VERTEX_POINT ( 'NONE', #210 ) ;
#46 = ORIENTED_EDGE ( 'NONE', *, *, #47, .F. ) ;
#47 = EDGE_CURVE ( 'NONE', #48, #111, #195, .T. ) ;
#48 = VERTEX_POINT ( 'NONE', #191 ) ;
#49 = ORIENTED_EDGE ( 'NONE', *, *, #50, .T. ) ;
#50 = EDGE_CURVE ( 'NONE', #48, #104, #203, .T. ) ;
#51 = EDGE_LOOP ( 'NONE', ( #72, #21, #18, #14, #9 ) ) ;
#52 = ADVANCED_FACE ( 'NONE', ( #204 ), #197, .F. ) ;
#53 = ORIENTED_EDGE ( 'NONE', *, *, #94, .F. ) ;
#54 = ADVANCED_FACE ( 'NONE', ( #222 ), #216, .T. ) ;
#55 = ORIENTED_EDGE ( 'NONE', *, *, #90, .T. ) ;
#56 = DIRECTION ( 'NONE',  ( 1.000000000000000000, 0.0000000000000000000, 0.0000000000000000000 ) ) ;
#57 = FACE_BOUND ( 'NONE', #7, .T. ) ;
#58 = FACE_OUTER_BOUND ( 'NONE', #4, .T. ) ;
#59 = ORIENTED_EDGE ( 'NONE', *, *, #19, .F. ) ;
#60 = ORIENTED_EDGE ( 'NONE', *, *, #44, .F. ) ;
#61 = ADVANCED_FACE ( 'NONE', ( #218 ), #217, .T. ) ;
#62 = ORIENTED_EDGE ( 'NONE', *, *, #12, .F. ) ;
#63 = ORIENTED_EDGE ( 'NONE', *, *, #10, .T. ) ;
#64 = ORIENTED_EDGE ( 'NONE', *, *, #65, .T. ) ;
#65 = EDGE_CURVE ( 'NONE', #13, #45, #186, .T. ) ;
#66 = ORIENTED_EDGE ( 'NONE', *, *, #100, .T. ) ;
#67 = ORIENTED_EDGE ( 'NONE', *, *, #68, .F. ) ;
#68 = EDGE_CURVE ( 'NONE', #105, #98, #181, .T. ) ;
#69 = ADVANCED_FACE ( 'NONE', ( #176 ), #223, .F. ) ;
#70 = VERTEX_POINT ( 'NONE', #224 ) ;
#71 = VERTEX_POINT ( 'NONE', #374 ) ;
#72 = ORIENTED_EDGE ( 'NONE', *, *, #73, .F. ) ;
#73 = EDGE_CURVE ( 'NONE', #74, #75, #235, .T. ) ;
#74 = VERTEX_POINT ( 'NONE', #230 ) ;
#75 = VERTEX_POINT ( 'NONE', #229 ) ;
#76 = VERTEX_POINT ( 'NONE', #228 ) ;
#77 = EDGE_LOOP ( 'NONE', ( #102, #106, #109, #46, #49 ) ) ;
#78 = MANIFOLD_SOLID_BREP ( 'NONE', #40 ) ;
#79 = ADVANCED_FACE ( 'NONE', ( #227 ), #266, .F. ) ;
#80 = EDGE_LOOP ( 'NONE', ( #59, #60, #37, #82, #83 ) ) ;
#81 = EDGE_LOOP ( 'NONE', ( #36, #89, #32, #62 ) ) ;
#82 = ORIENTED_EDGE ( 'NONE', *, *, #15, .T. ) ;
#83 = ORIENTED_EDGE ( 'NONE', *, *, #87, .T. ) ;
#84 = ADVANCED_FACE ( 'NONE', ( #265 ), #258, .F. ) ;
#85 = EDGE_LOOP ( 'NONE', ( #86, #34, #35, #38, #39 ) ) ;
#86 = ORIENTED_EDGE ( 'NONE', *, *, #107, .F. ) ;
#87 = EDGE_CURVE ( 'NONE', #17, #76, #259, .T. ) ;
#88 = ORIENTED_EDGE ( 'NONE', *, *, #16, .F. ) ;
#89 = ORIENTED_EDGE ( 'NONE', *, *, #26, .T. ) ;
#90 = EDGE_CURVE ( 'NONE', #70, #71, #250, .T. ) ;
#91 = ORIENTED_EDGE ( 'NONE', *, *, #113, .T. ) ;
#92 = ORIENTED_EDGE ( 'NONE', *, *, #73, .T. ) ;
#93 = ORIENTED_EDGE ( 'NONE', *, *, #94, .T. ) ;
#94 = EDGE_CURVE ( 'NONE', #75, #104, #245, .T. ) ;
#95 = ORIENTED_EDGE ( 'NONE', *, *, #50, .F. ) ;
#96 = ORIENTED_EDGE ( 'NONE', *, *, #97, .F. ) ;
#97 = EDGE_CURVE ( 'NONE', #98, #48, #241, .T. ) ;
#98 = VERTEX_POINT ( 'NONE', #236 ) ;
#99 = ORIENTED_EDGE ( 'NONE', *, *, #100, .F. ) ;
#100 = EDGE_CURVE ( 'NONE', #45, #98, #368, .T. ) ;
#101 = EDGE_LOOP ( 'NONE', ( #53, #63, #64, #66, #67, #28 ) ) ;
#102 = ORIENTED_EDGE ( 'NONE', *, *, #103, .T. ) ;
#103 = EDGE_CURVE ( 'NONE', #104, #105, #364, .T. ) ;
#104 = VERTEX_POINT ( 'NONE', #359 ) ;
#105 = VERTEX_POINT ( 'NONE', #358 ) ;
#106 = ORIENTED_EDGE ( 'NONE', *, *, #107, .T. ) ;
#107 = EDGE_CURVE ( 'NONE', #105, #108, #357, .T. ) ;
#108 = VERTEX_POINT ( 'NONE', #353 ) ;
#109 = ORIENTED_EDGE ( 'NONE', *, *, #110, .F. ) ;
#110 = EDGE_CURVE ( 'NONE', #111, #108, #352, .T. ) ;
#111 = VERTEX_POINT ( 'NONE', #347 ) ;
#112 = VERTEX_POINT ( 'NONE', #346 ) ;
#113 = EDGE_CURVE ( 'NONE', #71, #112, #345, .T. ) ;
#114 = ADVANCED_FACE ( 'NONE', ( #341 ), #340, .F. ) ;
#115 = ORIENTED_EDGE ( 'NONE', *, *, #23, .F. ) ;
#116 = CIRCLE ( 'NONE', #171, 5.033854622807866400 ) ;
#117 = CARTESIAN_POINT ( 'NONE',  ( 0.0000000000000000000, 0.0000000000000000000, -60.00000000000000000 ) ) ;
#118 = DIRECTION ( 'NONE',  ( 0.0000000000000000000, -0.0000000000000000000, 1.000000000000000000 ) ) ;
#119 = AXIS2_PLACEMENT_3D ( 'NONE', #120, #118, #56 ) ;
#120 = CARTESIAN_POINT ( 'NONE',  ( 0.0000000000000000000, 7.000000000000000000, -60.00000000000000000 ) ) ;
#121 = PLANE ( 'NONE',  #119 ) ;
#122 = FACE_BOUND ( 'NONE', #1, .T. ) ;
#123 = FACE_OUTER_BOUND ( 'NONE', #29, .T. ) ;
#124 = DIRECTION ( 'NONE',  ( 1.000000000000000000, 0.0000000000000000000, 0.0000000000000000000 ) ) ;
#125 = DIRECTION ( 'NONE',  ( -0.0000000000000000000, -0.0000000000000000000, 1.000000000000000000 ) ) ;
#126 = CARTESIAN_POINT ( 'NONE',  ( 0.0000000000000000000, 0.0000000000000000000, -60.00000000000000000 ) ) ;
#127 = AXIS2_PLACEMENT_3D ( 'NONE', #126, #125, #124 ) ;
#128 = CIRCLE ( 'NONE', #127, 7.000000000000000000 ) ;
#129 = DIRECTION ( 'NONE',  ( -1.000000000000000000, 0.0000000000000000000, -0.0000000000000000000 ) ) ;
#130 = CIRCLE ( 'NONE', #163, 5.033854622807828200 ) ;
#131 = DIRECTION ( 'NONE',  ( 0.7071067811865505700, 0.0000000000000000000, 0.7071067811865444600 ) ) ;
#132 = VECTOR ( 'NONE', #131, 1000.000000000000000 ) ;
#133 = CARTESIAN_POINT ( 'NONE',  ( 4.863999999999999900, 0.0000000000000000000, -0.1698546228078260900 ) ) ;
#134 = LINE ( 'NONE', #133, #132 ) ;
#135 = CARTESIAN_POINT ( 'NONE',  ( 4.863999999999999900, 0.0000000000000000000, -0.1698546228078260900 ) ) ;
#136 = CARTESIAN_POINT ( 'NONE',  ( 7.000000000000000000, 0.0000000000000000000, 0.0000000000000000000 ) ) ;
#137 = DIRECTION ( 'NONE',  ( 1.000000000000000000, 0.0000000000000000000, 0.0000000000000000000 ) ) ;
#138 = DIRECTION ( 'NONE',  ( -0.0000000000000000000, -0.0000000000000000000, 1.000000000000000000 ) ) ;
#139 = CARTESIAN_POINT ( 'NONE',  ( 0.0000000000000000000, 0.0000000000000000000, 0.0000000000000000000 ) ) ;
#140 = AXIS2_PLACEMENT_3D ( 'NONE', #139, #138, #137 ) ;
#141 = CIRCLE ( 'NONE', #140, 7.000000000000000000 ) ;
#142 = DIRECTION ( 'NONE',  ( -0.0000000000000000000, -0.0000000000000000000, 1.000000000000000000 ) ) ;
#143 = VECTOR ( 'NONE', #142, 1000.000000000000000 ) ;
#144 = CARTESIAN_POINT ( 'NONE',  ( 7.000000000000000000, 0.0000000000000000000, -4.336808689942017700E-016 ) ) ;
#145 = DIRECTION ( 'NONE',  ( 0.0000000000000000000, 0.0000000000000000000, -1.000000000000000000 ) ) ;
#146 = DIRECTION ( 'NONE',  ( 1.000000000000000000, 0.0000000000000000000, 0.0000000000000000000 ) ) ;
#147 = DIRECTION ( 'NONE',  ( -0.0000000000000000000, -0.0000000000000000000, 1.000000000000000000 ) ) ;
#148 = AXIS2_PLACEMENT_3D ( 'NONE', #168, #147, #146 ) ;
#149 = CIRCLE ( 'NONE', #148, 7.000000000000000000 ) ;
#150 = DIRECTION ( 'NONE',  ( 1.000000000000000000, 0.0000000000000000000, 0.0000000000000000000 ) ) ;
#151 = CARTESIAN_POINT ( 'NONE',  ( 0.0000000000000000000, 7.000000000000000000, -2.168404344971008900E-016 ) ) ;
#152 = PLANE ( 'NONE',  #153 ) ;
#153 = AXIS2_PLACEMENT_3D ( 'NONE', #151, #145, #129 ) ;
#154 = LINE ( 'NONE', #144, #143 ) ;
#155 = DIRECTION ( 'NONE',  ( -0.7071067811865505700, 8.659274570719392400E-017, 0.7071067811865444600 ) ) ;
#156 = VECTOR ( 'NONE', #155, 1000.000000000000000 ) ;
#157 = CARTESIAN_POINT ( 'NONE',  ( -4.863999999999999900, 5.956485304992042900E-016, -0.1698546228078260900 ) ) ;
#158 = LINE ( 'NONE', #157, #156 ) ;
#159 = CARTESIAN_POINT ( 'NONE',  ( 5.033854622807828200, 0.0000000000000000000, 0.0000000000000000000 ) ) ;
#160 = DIRECTION ( 'NONE',  ( 1.000000000000000000, 0.0000000000000000000, 0.0000000000000000000 ) ) ;
#161 = DIRECTION ( 'NONE',  ( -0.0000000000000000000, -0.0000000000000000000, 1.000000000000000000 ) ) ;
#162 = CARTESIAN_POINT ( 'NONE',  ( 0.0000000000000000000, 0.0000000000000000000, 0.0000000000000000000 ) ) ;
#163 = AXIS2_PLACEMENT_3D ( 'NONE', #162, #161, #160 ) ;
#164 = DIRECTION ( 'NONE',  ( -0.0000000000000000000, -0.0000000000000000000, 1.000000000000000000 ) ) ;
#165 = CARTESIAN_POINT ( 'NONE',  ( 0.0000000000000000000, 0.0000000000000000000, -0.1698546228078260900 ) ) ;
#166 = AXIS2_PLACEMENT_3D ( 'NONE', #165, #164, #150 ) ;
#167 = CIRCLE ( 'NONE', #166, 4.863999999999999900 ) ;
#168 = CARTESIAN_POINT ( 'NONE',  ( 0.0000000000000000000, 0.0000000000000000000, 0.0000000000000000000 ) ) ;
#169 = DIRECTION ( 'NONE',  ( 1.000000000000000000, 0.0000000000000000000, 0.0000000000000000000 ) ) ;
#170 = DIRECTION ( 'NONE',  ( -0.0000000000000000000, -0.0000000000000000000, 1.000000000000000000 ) ) ;
#171 = AXIS2_PLACEMENT_3D ( 'NONE', #117, #170, #169 ) ;
#172 = DIRECTION ( 'NONE',  ( -0.0000000000000000000, 1.108921438289454200E-016, -1.000000000000000000 ) ) ;
#173 = CARTESIAN_POINT ( 'NONE',  ( 0.0000000000000000000, 3.184081677783111500E-015, -60.00000000000001400 ) ) ;
#174 = DIRECTION ( 'NONE',  ( 0.0000000000000000000, 1.000000000000000000, 0.0000000000000000000 ) ) ;
#175 = CIRCLE ( 'NONE', #209, 4.863999999999999900 ) ;
#176 = FACE_OUTER_BOUND ( 'NONE', #51, .T. ) ;
#177 = DIRECTION ( 'NONE',  ( 1.000000000000000000, 0.0000000000000000000, 0.0000000000000000000 ) ) ;
#178 = DIRECTION ( 'NONE',  ( -0.0000000000000000000, -0.0000000000000000000, 1.000000000000000000 ) ) ;
#179 = CARTESIAN_POINT ( 'NONE',  ( 0.0000000000000000000, 0.0000000000000000000, -59.83014537719213200 ) ) ;
#180 = AXIS2_PLACEMENT_3D ( 'NONE', #179, #178, #177 ) ;
#181 = CIRCLE ( 'NONE', #180, 4.863999999999999900 ) ;
#182 = DIRECTION ( 'NONE',  ( 1.000000000000000000, 0.0000000000000000000, 0.0000000000000000000 ) ) ;
#183 = DIRECTION ( 'NONE',  ( -0.0000000000000000000, -0.0000000000000000000, 1.000000000000000000 ) ) ;
#184 = CARTESIAN_POINT ( 'NONE',  ( 0.0000000000000000000, 0.0000000000000000000, -0.1698546228078260900 ) ) ;
#185 = AXIS2_PLACEMENT_3D ( 'NONE', #184, #183, #182 ) ;
#186 = CIRCLE ( 'NONE', #185, 4.863999999999999900 ) ;
#187 = DIRECTION ( 'NONE',  ( 1.000000000000000000, 0.0000000000000000000, 0.0000000000000000000 ) ) ;
#188 = DIRECTION ( 'NONE',  ( -0.0000000000000000000, -0.0000000000000000000, 1.000000000000000000 ) ) ;
#189 = CARTESIAN_POINT ( 'NONE',  ( 0.0000000000000000000, 0.0000000000000000000, -4.336808689942017700E-016 ) ) ;
#190 = AXIS2_PLACEMENT_3D ( 'NONE', #189, #188, #187 ) ;
#191 = CARTESIAN_POINT ( 'NONE',  ( -4.863999999999999900, 0.0000000000000000000, -59.83014537719213200 ) ) ;
#192 = DIRECTION ( 'NONE',  ( -0.7071067811865511300, 0.0000000000000000000, -0.7071067811865440200 ) ) ;
#193 = VECTOR ( 'NONE', #192, 999.9999999999998900 ) ;
#194 = CARTESIAN_POINT ( 'NONE',  ( -5.033854622807866400, 0.0000000000000000000, -60.00000000000000000 ) ) ;
#195 = LINE ( 'NONE', #194, #193 ) ;
#196 = AXIS2_PLACEMENT_3D ( 'NONE', #198, #220, #219 ) ;
#197 = CYLINDRICAL_SURFACE ( 'NONE', #196, 4.864000000000005200 ) ;
#198 = CARTESIAN_POINT ( 'NONE',  ( 0.0000000000000000000, 3.184081677783111500E-015, -60.00000000000001400 ) ) ;
#199 = DIRECTION ( 'NONE',  ( 1.000000000000000000, 0.0000000000000000000, 0.0000000000000000000 ) ) ;
#200 = DIRECTION ( 'NONE',  ( -0.0000000000000000000, -0.0000000000000000000, 1.000000000000000000 ) ) ;
#201 = CARTESIAN_POINT ( 'NONE',  ( 0.0000000000000000000, 0.0000000000000000000, -59.83014537719213200 ) ) ;
#202 = AXIS2_PLACEMENT_3D ( 'NONE', #201, #200, #199 ) ;
#203 = CIRCLE ( 'NONE', #202, 4.863999999999999900 ) ;
#204 = FACE_OUTER_BOUND ( 'NONE', #101, .T. ) ;
#205 = AXIS2_PLACEMENT_3D ( 'NONE', #173, #172, #174 ) ;
#206 = DIRECTION ( 'NONE',  ( 1.000000000000000000, 0.0000000000000000000, 0.0000000000000000000 ) ) ;
#207 = DIRECTION ( 'NONE',  ( -0.0000000000000000000, -0.0000000000000000000, 1.000000000000000000 ) ) ;
#208 = CARTESIAN_POINT ( 'NONE',  ( 0.0000000000000000000, 0.0000000000000000000, -0.1698546228078260900 ) ) ;
#209 = AXIS2_PLACEMENT_3D ( 'NONE', #208, #207, #206 ) ;
#210 = CARTESIAN_POINT ( 'NONE',  ( 0.0000000000000000000, 4.863999999999999900, -0.1698546228078260900 ) ) ;
#211 = CYLINDRICAL_SURFACE ( 'NONE', #205, 4.864000000000005200 ) ;
#212 = FACE_OUTER_BOUND ( 'NONE', #42, .T. ) ;
#213 = DIRECTION ( 'NONE',  ( 1.000000000000000000, 0.0000000000000000000, 0.0000000000000000000 ) ) ;
#214 = DIRECTION ( 'NONE',  ( -0.0000000000000000000, -0.0000000000000000000, 1.000000000000000000 ) ) ;
#215 = AXIS2_PLACEMENT_3D ( 'NONE', #221, #214, #213 ) ;
#216 = CYLINDRICAL_SURFACE ( 'NONE', #215, 7.000000000000000000 ) ;
#217 = CYLINDRICAL_SURFACE ( 'NONE', #190, 7.000000000000000000 ) ;
#218 = FACE_OUTER_BOUND ( 'NONE', #81, .T. ) ;
#219 = DIRECTION ( 'NONE',  ( 0.0000000000000000000, 1.000000000000000000, 0.0000000000000000000 ) ) ;
#220 = DIRECTION ( 'NONE',  ( -0.0000000000000000000, 1.108921438289454200E-016, -1.000000000000000000 ) ) ;
#221 = CARTESIAN_POINT ( 'NONE',  ( 0.0000000000000000000, 0.0000000000000000000, -4.336808689942017700E-016 ) ) ;
#222 = FACE_OUTER_BOUND ( 'NONE', #8, .T. ) ;
#223 = CONICAL_SURFACE ( 'NONE', #226, 4.863999999999999900, 0.7853981633974526100 ) ;
#224 = CARTESIAN_POINT ( 'NONE',  ( 7.000000000000000000, 0.0000000000000000000, -60.00000000000000000 ) ) ;
#225 = CARTESIAN_POINT ( 'NONE',  ( 0.0000000000000000000, 0.0000000000000000000, -0.1698546228078260900 ) ) ;
#226 = AXIS2_PLACEMENT_3D ( 'NONE', #225, #376, #375 ) ;
#227 = FACE_OUTER_BOUND ( 'NONE', #80, .T. ) ;
#228 = CARTESIAN_POINT ( 'NONE',  ( -5.033854622807828200, 6.164490355308612500E-016, 0.0000000000000000000 ) ) ;
#229 = CARTESIAN_POINT ( 'NONE',  ( 5.956485304992048800E-016, -4.863999999999999900, -0.1698546228078260900 ) ) ;
#230 = CARTESIAN_POINT ( 'NONE',  ( -4.863999999999999900, 6.060487830150327700E-016, -0.1698546228078260900 ) ) ;
#231 = DIRECTION ( 'NONE',  ( 1.000000000000000000, 0.0000000000000000000, 0.0000000000000000000 ) ) ;
#232 = DIRECTION ( 'NONE',  ( -0.0000000000000000000, -0.0000000000000000000, 1.000000000000000000 ) ) ;
#233 = CARTESIAN_POINT ( 'NONE',  ( 0.0000000000000000000, 0.0000000000000000000, -0.1698546228078260900 ) ) ;
#234 = AXIS2_PLACEMENT_3D ( 'NONE', #233, #232, #231 ) ;
#235 = CIRCLE ( 'NONE', #234, 4.863999999999999900 ) ;
#236 = CARTESIAN_POINT ( 'NONE',  ( 0.0000000000000000000, 4.863999999999999900, -59.83014537719213200 ) ) ;
#237 = DIRECTION ( 'NONE',  ( 1.000000000000000000, 0.0000000000000000000, 0.0000000000000000000 ) ) ;
#238 = DIRECTION ( 'NONE',  ( -0.0000000000000000000, -0.0000000000000000000, 1.000000000000000000 ) ) ;
#239 = CARTESIAN_POINT ( 'NONE',  ( 0.0000000000000000000, 0.0000000000000000000, -59.83014537719213200 ) ) ;
#240 = AXIS2_PLACEMENT_3D ( 'NONE', #239, #238, #237 ) ;
#241 = CIRCLE ( 'NONE', #240, 4.863999999999999900 ) ;
#242 = DIRECTION ( 'NONE',  ( -0.0000000000000000000, 1.108921438289454200E-016, -1.000000000000000000 ) ) ;
#243 = VECTOR ( 'NONE', #242, 1000.000000000000000 ) ;
#244 = CARTESIAN_POINT ( 'NONE',  ( 5.956485304992049800E-016, -4.864000000000001700, -60.00000000000001400 ) ) ;
#245 = LINE ( 'NONE', #244, #243 ) ;
#246 = DIRECTION ( 'NONE',  ( 1.000000000000000000, 0.0000000000000000000, 0.0000000000000000000 ) ) ;
#247 = DIRECTION ( 'NONE',  ( -0.0000000000000000000, -0.0000000000000000000, 1.000000000000000000 ) ) ;
#248 = CARTESIAN_POINT ( 'NONE',  ( 0.0000000000000000000, 0.0000000000000000000, -60.00000000000000000 ) ) ;
#249 = AXIS2_PLACEMENT_3D ( 'NONE', #248, #247, #246 ) ;
#250 = CIRCLE ( 'NONE', #249, 7.000000000000000000 ) ;
#251 = DIRECTION ( 'NONE',  ( 1.000000000000000000, 0.0000000000000000000, 0.0000000000000000000 ) ) ;
#252 = DIRECTION ( 'NONE',  ( -0.0000000000000000000, -0.0000000000000000000, 1.000000000000000000 ) ) ;
#253 = CARTESIAN_POINT ( 'NONE',  ( 0.0000000000000000000, 0.0000000000000000000, 0.0000000000000000000 ) ) ;
#254 = AXIS2_PLACEMENT_3D ( 'NONE', #253, #252, #251 ) ;
#255 = DIRECTION ( 'NONE',  ( -1.000000000000000000, 0.0000000000000000000, 0.0000000000000000000 ) ) ;
#256 = DIRECTION ( 'NONE',  ( 0.0000000000000000000, 0.0000000000000000000, -1.000000000000000000 ) ) ;
#257 = AXIS2_PLACEMENT_3D ( 'NONE', #264, #256, #255 ) ;
#258 = CONICAL_SURFACE ( 'NONE', #257, 5.033854622807866400, 0.7853981633974533900 ) ;
#259 = CIRCLE ( 'NONE', #254, 5.033854622807828200 ) ;
#260 = DIRECTION ( 'NONE',  ( 1.000000000000000000, 0.0000000000000000000, 0.0000000000000000000 ) ) ;
#261 = DIRECTION ( 'NONE',  ( -0.0000000000000000000, -0.0000000000000000000, 1.000000000000000000 ) ) ;
#262 = CARTESIAN_POINT ( 'NONE',  ( 0.0000000000000000000, 0.0000000000000000000, -0.1698546228078260900 ) ) ;
#263 = AXIS2_PLACEMENT_3D ( 'NONE', #262, #261, #260 ) ;
#264 = CARTESIAN_POINT ( 'NONE',  ( 0.0000000000000000000, 0.0000000000000000000, -60.00000000000000000 ) ) ;
#265 = FACE_OUTER_BOUND ( 'NONE', #85, .T. ) ;
#266 = CONICAL_SURFACE ( 'NONE', #263, 4.863999999999999900, 0.7853981633974526100 ) ;
#267 = LOCAL_TIME ( 11, 23, 35.00000000000000000, #268 ) ;
#268 = COORDINATED_UNIVERSAL_TIME_OFFSET ( 1, 0, .AHEAD. ) ;
#269 = APPROVAL_PERSON_ORGANIZATION ( #273, #271, #270 ) ;
#270 = APPROVAL_ROLE ( '' ) ;
#271 = APPROVAL ( #272, 'UNSPECIFIED' ) ;
#272 = APPROVAL_STATUS ( 'not_yet_approved' ) ;
#273 = PERSON_AND_ORGANIZATION ( #369, #302 ) ;
#274 = PRODUCT_DEFINITION_FORMATION_WITH_SPECIFIED_SOURCE ( 'ANY', '', #370, .NOT_KNOWN. ) ;
#275 = CC_DESIGN_DATE_AND_TIME_ASSIGNMENT ( #277, #276, ( #295 ) ) ;
#276 = DATE_TIME_ROLE ( 'creation_date' ) ;
#277 = DATE_AND_TIME ( #278, #279 ) ;
#278 = CALENDAR_DATE ( 2015, 11, 8 ) ;
#279 = LOCAL_TIME ( 11, 23, 35.00000000000000000, #280 ) ;
#280 = COORDINATED_UNIVERSAL_TIME_OFFSET ( 1, 0, .AHEAD. ) ;
#281 = CC_DESIGN_PERSON_AND_ORGANIZATION_ASSIGNMENT ( #283, #282, ( #295 ) ) ;
#282 = PERSON_AND_ORGANIZATION_ROLE ( 'creator' ) ;
#283 = PERSON_AND_ORGANIZATION ( #369, #302 ) ;
#284 = CC_DESIGN_APPROVAL ( #292, ( #295 ) ) ;
#285 = APPROVAL_DATE_TIME ( #286, #292 ) ;
#286 = DATE_AND_TIME ( #287, #288 ) ;
#287 = CALENDAR_DATE ( 2015, 11, 8 ) ;
#288 = LOCAL_TIME ( 11, 23, 35.00000000000000000, #289 ) ;
#289 = COORDINATED_UNIVERSAL_TIME_OFFSET ( 1, 0, .AHEAD. ) ;
#290 = APPROVAL_PERSON_ORGANIZATION ( #294, #292, #291 ) ;
#291 = APPROVAL_ROLE ( '' ) ;
#292 = APPROVAL ( #293, 'UNSPECIFIED' ) ;
#293 = APPROVAL_STATUS ( 'not_yet_approved' ) ;
#294 = PERSON_AND_ORGANIZATION ( #369, #302 ) ;
#295 = PRODUCT_DEFINITION ( 'UNKNOWN', '', #274, #296 ) ;
#296 = DESIGN_CONTEXT ( 'detailed design', #298, 'design' ) ;
#297 = APPLICATION_PROTOCOL_DEFINITION ( 'international standard', 'config_control_design', 1994, #298 ) ;
#298 = APPLICATION_CONTEXT ( 'configuration controlled 3d designs of mechanical parts and assemblies' ) ;
#299 = CC_DESIGN_PERSON_AND_ORGANIZATION_ASSIGNMENT ( #301, #300, ( #370 ) ) ;
#300 = PERSON_AND_ORGANIZATION_ROLE ( 'design_owner' ) ;
#301 = PERSON_AND_ORGANIZATION ( #369, #302 ) ;
#302 = ORGANIZATION ( 'UNSPECIFIED', 'UNSPECIFIED', '' ) ;
#303 = PRODUCT_DEFINITION_SHAPE ( 'NONE', 'NONE',  #295 ) ;
#304 = PRODUCT_RELATED_PRODUCT_CATEGORY ( 'detail', '', ( #370 ) ) ;
#305 = CC_DESIGN_SECURITY_CLASSIFICATION ( #326, ( #274 ) ) ;
#306 = CC_DESIGN_APPROVAL ( #314, ( #326 ) ) ;
#307 = APPROVAL_DATE_TIME ( #308, #314 ) ;
#308 = DATE_AND_TIME ( #309, #310 ) ;
#309 = CALENDAR_DATE ( 2015, 11, 8 ) ;
#310 = LOCAL_TIME ( 11, 23, 35.00000000000000000, #311 ) ;
#311 = COORDINATED_UNIVERSAL_TIME_OFFSET ( 1, 0, .AHEAD. ) ;
#312 = APPROVAL_PERSON_ORGANIZATION ( #316, #314, #313 ) ;
#313 = APPROVAL_ROLE ( '' ) ;
#314 = APPROVAL ( #315, 'UNSPECIFIED' ) ;
#315 = APPROVAL_STATUS ( 'not_yet_approved' ) ;
#316 = PERSON_AND_ORGANIZATION ( #369, #302 ) ;
#317 = CC_DESIGN_DATE_AND_TIME_ASSIGNMENT ( #319, #318, ( #326 ) ) ;
#318 = DATE_TIME_ROLE ( 'classification_date' ) ;
#319 = DATE_AND_TIME ( #320, #321 ) ;
#320 = CALENDAR_DATE ( 2015, 11, 8 ) ;
#321 = LOCAL_TIME ( 11, 23, 35.00000000000000000, #322 ) ;
#322 = COORDINATED_UNIVERSAL_TIME_OFFSET ( 1, 0, .AHEAD. ) ;
#323 = CC_DESIGN_PERSON_AND_ORGANIZATION_ASSIGNMENT ( #325, #324, ( #326 ) ) ;
#324 = PERSON_AND_ORGANIZATION_ROLE ( 'classification_officer' ) ;
#325 = PERSON_AND_ORGANIZATION ( #369, #302 ) ;
#326 = SECURITY_CLASSIFICATION ( '', '', #327 ) ;
#327 = SECURITY_CLASSIFICATION_LEVEL ( 'unclassified' ) ;
#328 = CC_DESIGN_PERSON_AND_ORGANIZATION_ASSIGNMENT ( #330, #329, ( #274 ) ) ;
#329 = PERSON_AND_ORGANIZATION_ROLE ( 'design_supplier' ) ;
#330 = PERSON_AND_ORGANIZATION ( #369, #302 ) ;
#331 = CC_DESIGN_PERSON_AND_ORGANIZATION_ASSIGNMENT ( #333, #332, ( #274 ) ) ;
#332 = PERSON_AND_ORGANIZATION_ROLE ( 'creator' ) ;
#333 = PERSON_AND_ORGANIZATION ( #369, #302 ) ;
#334 = CC_DESIGN_APPROVAL ( #271, ( #274 ) ) ;
#335 = APPROVAL_DATE_TIME ( #336, #271 ) ;
#336 = DATE_AND_TIME ( #337, #267 ) ;
#337 = CALENDAR_DATE ( 2015, 11, 8 ) ;
#338 = CARTESIAN_POINT ( 'NONE',  ( 0.0000000000000000000, 0.0000000000000000000, -60.00000000000000000 ) ) ;
#339 = AXIS2_PLACEMENT_3D ( 'NONE', #338, #388, #387 ) ;
#340 = CONICAL_SURFACE ( 'NONE', #339, 5.033854622807866400, 0.7853981633974533900 ) ;
#341 = FACE_OUTER_BOUND ( 'NONE', #77, .T. ) ;
#342 = DIRECTION ( 'NONE',  ( -0.0000000000000000000, -0.0000000000000000000, 1.000000000000000000 ) ) ;
#343 = VECTOR ( 'NONE', #342, 1000.000000000000000 ) ;
#344 = CARTESIAN_POINT ( 'NONE',  ( -7.000000000000000000, 8.572244476756640800E-016, -4.336808689942017700E-016 ) ) ;
#345 = LINE ( 'NONE', #344, #343 ) ;
#346 = CARTESIAN_POINT ( 'NONE',  ( -7.000000000000000000, 8.572244476756640800E-016, 0.0000000000000000000 ) ) ;
#347 = CARTESIAN_POINT ( 'NONE',  ( -5.033854622807866400, 0.0000000000000000000, -60.00000000000000000 ) ) ;
#348 = DIRECTION ( 'NONE',  ( 1.000000000000000000, 0.0000000000000000000, 0.0000000000000000000 ) ) ;
#349 = DIRECTION ( 'NONE',  ( -0.0000000000000000000, -0.0000000000000000000, 1.000000000000000000 ) ) ;
#350 = CARTESIAN_POINT ( 'NONE',  ( 0.0000000000000000000, 0.0000000000000000000, -60.00000000000000000 ) ) ;
#351 = AXIS2_PLACEMENT_3D ( 'NONE', #350, #349, #348 ) ;
#352 = CIRCLE ( 'NONE', #351, 5.033854622807866400 ) ;
#353 = CARTESIAN_POINT ( 'NONE',  ( 5.033854622807866400, 6.164490355308659800E-016, -60.00000000000000000 ) ) ;
#354 = DIRECTION ( 'NONE',  ( 0.7071067811865511300, 8.659274570719401000E-017, -0.7071067811865440200 ) ) ;
#355 = VECTOR ( 'NONE', #354, 999.9999999999998900 ) ;
#356 = CARTESIAN_POINT ( 'NONE',  ( 5.033854622807866400, 6.164490355308659800E-016, -60.00000000000000000 ) ) ;
#357 = LINE ( 'NONE', #356, #355 ) ;
#358 = CARTESIAN_POINT ( 'NONE',  ( 4.863999999999999900, 6.060487830150351400E-016, -59.83014537719213200 ) ) ;
#359 = CARTESIAN_POINT ( 'NONE',  ( 5.956485304992048800E-016, -4.863999999999999900, -59.83014537719213200 ) ) ;
#360 = DIRECTION ( 'NONE',  ( 1.000000000000000000, 0.0000000000000000000, 0.0000000000000000000 ) ) ;
#361 = DIRECTION ( 'NONE',  ( -0.0000000000000000000, -0.0000000000000000000, 1.000000000000000000 ) ) ;
#362 = CARTESIAN_POINT ( 'NONE',  ( 0.0000000000000000000, 0.0000000000000000000, -59.83014537719213200 ) ) ;
#363 = AXIS2_PLACEMENT_3D ( 'NONE', #362, #361, #360 ) ;
#364 = CIRCLE ( 'NONE', #363, 4.863999999999999900 ) ;
#365 = DIRECTION ( 'NONE',  ( -0.0000000000000000000, 1.108921438289454200E-016, -1.000000000000000000 ) ) ;
#366 = VECTOR ( 'NONE', #365, 1000.000000000000000 ) ;
#367 = CARTESIAN_POINT ( 'NONE',  ( 0.0000000000000000000, 4.864000000000008800, -60.00000000000001400 ) ) ;
#368 = LINE ( 'NONE', #367, #366 ) ;
#369 = PERSON ( 'UNSPECIFIED', 'UNSPECIFIED', 'UNSPECIFIED', ('UNSPECIFIED'), ('UNSPECIFIED'), ('UNSPECIFIED') ) ;
#370 = PRODUCT ( '19-0402-51_outokumpu', '19-0402-51_outokumpu', '', ( #371 ) ) ;
#371 = MECHANICAL_CONTEXT ( 'NONE', #379, 'mechanical' ) ;
#372 = APPLICATION_PROTOCOL_DEFINITION ( 'international standard', 'config_control_design', 1994, #379 ) ;
#373 = DIRECTION ( 'NONE',  ( 1.000000000000000000, 0.0000000000000000000, 0.0000000000000000000 ) ) ;
#374 = CARTESIAN_POINT ( 'NONE',  ( -7.000000000000000000, 8.572244476756640800E-016, -60.00000000000000000 ) ) ;
#375 = DIRECTION ( 'NONE',  ( 1.000000000000000000, 0.0000000000000000000, 0.0000000000000000000 ) ) ;
#376 = DIRECTION ( 'NONE',  ( -0.0000000000000000000, -0.0000000000000000000, 1.000000000000000000 ) ) ;
#377 = CARTESIAN_POINT ( 'NONE',  ( 0.0000000000000000000, 0.0000000000000000000, 0.0000000000000000000 ) ) ;
#378 = DIRECTION ( 'NONE',  ( 0.0000000000000000000, 0.0000000000000000000, 1.000000000000000000 ) ) ;
#379 = APPLICATION_CONTEXT ( 'configuration controlled 3d designs of mechanical parts and assemblies' ) ;
#380 = SHAPE_DEFINITION_REPRESENTATION ( #303, #381 ) ;
#381 = ADVANCED_BREP_SHAPE_REPRESENTATION ( '19-0402-51_outokumpu', ( #78, #389 ), #382 ) ;
#382 =( GEOMETRIC_REPRESENTATION_CONTEXT ( 3 ) GLOBAL_UNCERTAINTY_ASSIGNED_CONTEXT ( ( #383 ) ) GLOBAL_UNIT_ASSIGNED_CONTEXT ( ( #386, #385, #384 ) ) REPRESENTATION_CONTEXT ( 'NONE', 'WORKASPACE' ) );
#383 = UNCERTAINTY_MEASURE_WITH_UNIT (LENGTH_MEASURE( 1.000000000000000100E-005 ), #386, 'distance_accuracy_value', 'NONE');
#384 =( NAMED_UNIT ( * ) SI_UNIT ( $, .STERADIAN. ) SOLID_ANGLE_UNIT ( ) );
#385 =( NAMED_UNIT ( * ) PLANE_ANGLE_UNIT ( ) SI_UNIT ( $, .RADIAN. ) );
#386 =( LENGTH_UNIT ( ) NAMED_UNIT ( * ) SI_UNIT ( .MILLI., .METRE. ) );
#387 = DIRECTION ( 'NONE',  ( -1.000000000000000000, 0.0000000000000000000, 0.0000000000000000000 ) ) ;
#388 = DIRECTION ( 'NONE',  ( 0.0000000000000000000, 0.0000000000000000000, -1.000000000000000000 ) ) ;
#389 = AXIS2_PLACEMENT_3D ( 'NONE', #377, #378, #373 ) ;
ENDSEC;
END-ISO-10303-21;
