ISO-10303-21;
HEADER;
FILE_DESCRIPTION (( 'STEP AP203' ),
    '1' );
FILE_NAME ('3D_GR1174_DN42.2x2_18380660.STEP',
    '2024-09-23T06:18:37',
    ( '' ),
    ( '' ),
    'SwSTEP 2.0',
    'SolidWorks 2024',
    '' );
FILE_SCHEMA (( 'CONFIG_CONTROL_DESIGN' ));
ENDSEC;

DATA;
#1 = LINE ( 'NONE', #168, #280 ) ;
#2 = VERTEX_POINT ( 'NONE', #343 ) ;
#3 = CC_DESIGN_PERSON_AND_ORGANIZATION_ASSIGNMENT ( #10, #226, ( #117 ) ) ;
#4 = AXIS2_PLACEMENT_3D ( 'NONE', #271, #303, #188 ) ;
#5 = AXIS2_PLACEMENT_3D ( 'NONE', #243, #246, #28 ) ;
#6 = DIRECTION ( 'NONE',  ( 0.000000000000000000, 0.000000000000000000, -1.000000000000000000 ) ) ;
#7 = LINE ( 'NONE', #78, #38 ) ;
#8 = CARTESIAN_POINT ( 'NONE',  ( -1.000000000000000888, 0.000000000000000000, 0.000000000000000000 ) ) ;
#9 = EDGE_CURVE ( 'NONE', #147, #225, #189, .T. ) ;
#10 = PERSON_AND_ORGANIZATION ( #13, #352 ) ;
#11 = ORIENTED_EDGE ( 'NONE', *, *, #239, .T. ) ;
#12 = EDGE_LOOP ( 'NONE', ( #200, #284, #172, #65 ) ) ;
#13 = PERSON ( 'UNSPECIFIED', 'UNSPECIFIED', 'UNSPECIFIED', ('UNSPECIFIED'), ('UNSPECIFIED'), ('UNSPECIFIED') ) ;
#14 = DATE_TIME_ROLE ( 'classification_date' ) ;
#15 = ORIENTED_EDGE ( 'NONE', *, *, #164, .F. ) ;
#16 = EDGE_CURVE ( 'NONE', #252, #308, #86, .T. ) ;
#17 = APPLICATION_CONTEXT ( 'configuration controlled 3d designs of mechanical parts and assemblies' ) ;
#18 = ORIENTED_EDGE ( 'NONE', *, *, #9, .T. ) ;
#19 = CYLINDRICAL_SURFACE ( 'NONE', #272, 21.20000000000001705 ) ;
#20 = DIRECTION ( 'NONE',  ( -0.000000000000000000, 0.000000000000000000, 1.000000000000000000 ) ) ;
#21 = AXIS2_PLACEMENT_3D ( 'NONE', #269, #29, #106 ) ;
#22 = CARTESIAN_POINT ( 'NONE',  ( 0.000000000000000000, 0.000000000000000000, 0.000000000000000000 ) ) ;
#23 = DIRECTION ( 'NONE',  ( -1.000000000000000000, -0.000000000000000000, -0.000000000000000000 ) ) ;
#24 = CARTESIAN_POINT ( 'NONE',  ( -3.000000000000002665, 0.000000000000000000, 0.000000000000000000 ) ) ;
#25 = AXIS2_PLACEMENT_3D ( 'NONE', #24, #183, #238 ) ;
#26 = FACE_OUTER_BOUND ( 'NONE', #178, .T. ) ;
#27 = APPROVAL ( #251, 'UNSPECIFIED' ) ;
#28 = DIRECTION ( 'NONE',  ( 0.000000000000000000, 0.000000000000000000, 1.000000000000000000 ) ) ;
#29 = DIRECTION ( 'NONE',  ( -1.000000000000000000, -0.000000000000000000, -0.000000000000000000 ) ) ;
#30 = LOCAL_TIME ( 8, 18, 37.00000000000000000, #202 ) ;
#31 = CARTESIAN_POINT ( 'NONE',  ( 8.000000000000561329, 2.290089514405553266E-15, -18.20000000000002061 ) ) ;
#32 = APPROVAL_ROLE ( '' ) ;
#33 = PERSON_AND_ORGANIZATION_ROLE ( 'creator' ) ;
#34 = AXIS2_PLACEMENT_3D ( 'NONE', #184, #127, #214 ) ;
#35 = ORIENTED_EDGE ( 'NONE', *, *, #164, .T. ) ;
#36 = CC_DESIGN_APPROVAL ( #27, ( #326 ) ) ;
#37 = DIRECTION ( 'NONE',  ( 1.000000000000000000, 0.000000000000000000, 0.000000000000000000 ) ) ;
#38 = VECTOR ( 'NONE', #52, 1000.000000000000000 ) ;
#39 = EDGE_LOOP ( 'NONE', ( #258, #121 ) ) ;
#40 = PERSON_AND_ORGANIZATION ( #13, #352 ) ;
#41 = EDGE_CURVE ( 'NONE', #196, #61, #257, .T. ) ;
#42 = ORIENTED_EDGE ( 'NONE', *, *, #140, .T. ) ;
#43 = DIRECTION ( 'NONE',  ( -1.000000000000000000, -0.000000000000000000, -0.000000000000000000 ) ) ;
#44 = ORIENTED_EDGE ( 'NONE', *, *, #179, .T. ) ;
#45 = DIRECTION ( 'NONE',  ( 1.000000000000000000, 0.000000000000000000, 0.000000000000000000 ) ) ;
#46 = CARTESIAN_POINT ( 'NONE',  ( -3.000000000000000888, 19.20000000000001705, 0.000000000000000000 ) ) ;
#47 = AXIS2_PLACEMENT_3D ( 'NONE', #259, #353, #69 ) ;
#48 = DIRECTION ( 'NONE',  ( 0.000000000000000000, 0.000000000000000000, 1.000000000000000000 ) ) ;
#49 = DIRECTION ( 'NONE',  ( 0.000000000000000000, 0.000000000000000000, 1.000000000000000000 ) ) ;
#50 = EDGE_CURVE ( 'NONE', #89, #176, #80, .T. ) ;
#51 = DIRECTION ( 'NONE',  ( -1.000000000000000000, -0.000000000000000000, -0.000000000000000000 ) ) ;
#52 = DIRECTION ( 'NONE',  ( -1.000000000000000000, -0.000000000000000000, -0.000000000000000000 ) ) ;
#53 = CARTESIAN_POINT ( 'NONE',  ( -154.8395502972293230, 2.596251214192391136E-15, -21.20000000000001705 ) ) ;
#54 = DIRECTION ( 'NONE',  ( 0.000000000000000000, 0.000000000000000000, 1.000000000000000000 ) ) ;
#55 = DIRECTION ( 'NONE',  ( -1.000000000000000000, -0.000000000000000000, -0.000000000000000000 ) ) ;
#56 = MECHANICAL_CONTEXT ( 'NONE', #17, 'mechanical' ) ;
#57 = EDGE_CURVE ( 'NONE', #176, #89, #287, .T. ) ;
#58 = DATE_AND_TIME ( #115, #30 ) ;
#59 = ORIENTED_EDGE ( 'NONE', *, *, #179, .F. ) ;
#60 = TOROIDAL_SURFACE ( 'NONE', #355, 19.20000000000001705, 2.000000000000000888 ) ;
#61 = VERTEX_POINT ( 'NONE', #297 ) ;
#62 = VECTOR ( 'NONE', #87, 1000.000000000000000 ) ;
#63 = EDGE_CURVE ( 'NONE', #98, #315, #322, .T. ) ;
#64 = APPLICATION_PROTOCOL_DEFINITION ( 'international standard', 'config_control_design', 1994, #17 ) ;
#65 = ORIENTED_EDGE ( 'NONE', *, *, #63, .F. ) ;
#66 = ORIENTED_EDGE ( 'NONE', *, *, #140, .F. ) ;
#67 = ORIENTED_EDGE ( 'NONE', *, *, #124, .T. ) ;
#68 = AXIS2_PLACEMENT_3D ( 'NONE', #296, #157, #240 ) ;
#69 = DIRECTION ( 'NONE',  ( 0.000000000000000000, 0.000000000000000000, 1.000000000000000000 ) ) ;
#70 = ADVANCED_FACE ( 'NONE', ( #321 ), #60, .T. ) ;
#71 = LOCAL_TIME ( 8, 18, 37.00000000000000000, #248 ) ;
#72 = CARTESIAN_POINT ( 'NONE',  ( -3.000000000000002665, 0.000000000000000000, 0.000000000000000000 ) ) ;
#73 = LOCAL_TIME ( 8, 18, 37.00000000000000000, #281 ) ;
#74 = CARTESIAN_POINT ( 'NONE',  ( -154.8395502972293230, 0.000000000000000000, 0.000000000000000000 ) ) ;
#75 = EDGE_CURVE ( 'NONE', #61, #196, #334, .T. ) ;
#76 = PLANE ( 'NONE',  #155 ) ;
#77 = LINE ( 'NONE', #265, #222 ) ;
#78 = CARTESIAN_POINT ( 'NONE',  ( -154.8395502972293230, 0.000000000000000000, 19.20000000000002416 ) ) ;
#79 = ORIENTED_EDGE ( 'NONE', *, *, #50, .F. ) ;
#80 = CIRCLE ( 'NONE', #279, 21.20000000000001705 ) ;
#81 = CIRCLE ( 'NONE', #47, 19.20000000000002416 ) ;
#82 = CARTESIAN_POINT ( 'NONE',  ( -1.000000000000000888, 2.596251214192391136E-15, -21.20000000000001705 ) ) ;
#83 = ORIENTED_EDGE ( 'NONE', *, *, #63, .T. ) ;
#84 =( LENGTH_UNIT ( ) NAMED_UNIT ( * ) SI_UNIT ( .MILLI., .METRE. ) );
#85 = CARTESIAN_POINT ( 'NONE',  ( -1.000000000000001776, 0.000000000000000000, 0.000000000000000000 ) ) ;
#86 = CIRCLE ( 'NONE', #173, 21.20000000000001705 ) ;
#87 = DIRECTION ( 'NONE',  ( -1.000000000000000000, -0.000000000000000000, -0.000000000000000000 ) ) ;
#88 = PERSON_AND_ORGANIZATION ( #13, #352 ) ;
#89 = VERTEX_POINT ( 'NONE', #216 ) ;
#90 = ORIENTED_EDGE ( 'NONE', *, *, #57, .T. ) ;
#91 = PERSON_AND_ORGANIZATION_ROLE ( 'design_supplier' ) ;
#92 = ORIENTED_EDGE ( 'NONE', *, *, #247, .T. ) ;
#93 = ADVANCED_BREP_SHAPE_REPRESENTATION ( '3D_GR1174_DN42.2x2_18380660', ( #201, #345 ), #207 ) ;
#94 = AXIS2_PLACEMENT_3D ( 'NONE', #46, #45, #153 ) ;
#95 = DATE_AND_TIME ( #120, #73 ) ;
#96 = CARTESIAN_POINT ( 'NONE',  ( 8.000000000000561329, 0.000000000000000000, 0.000000000000000000 ) ) ;
#97 = CARTESIAN_POINT ( 'NONE',  ( 0.000000000000000000, 0.000000000000000000, 0.000000000000000000 ) ) ;
#98 = VERTEX_POINT ( 'NONE', #129 ) ;
#99 = ADVANCED_FACE ( 'NONE', ( #212 ), #324, .F. ) ;
#100 = FACE_BOUND ( 'NONE', #149, .T. ) ;
#101 = VECTOR ( 'NONE', #109, 1000.000000000000000 ) ;
#102 = DIRECTION ( 'NONE',  ( 0.000000000000000000, 0.000000000000000000, 1.000000000000000000 ) ) ;
#103 = CYLINDRICAL_SURFACE ( 'NONE', #190, 19.20000000000002416 ) ;
#104 = DIRECTION ( 'NONE',  ( -0.000000000000000000, 1.000000000000000000, 1.224646799147353207E-16 ) ) ;
#105 = LINE ( 'NONE', #53, #62 ) ;
#106 = DIRECTION ( 'NONE',  ( 0.000000000000000000, 0.000000000000000000, 1.000000000000000000 ) ) ;
#107 = PRODUCT_DEFINITION_SHAPE ( 'NONE', 'NONE',  #326 ) ;
#108 = AXIS2_PLACEMENT_3D ( 'NONE', #139, #302, #195 ) ;
#109 = DIRECTION ( 'NONE',  ( -1.000000000000000000, -0.000000000000000000, -0.000000000000000000 ) ) ;
#110 = DIRECTION ( 'NONE',  ( 0.000000000000000000, 0.000000000000000000, 1.000000000000000000 ) ) ;
#111 = UNCERTAINTY_MEASURE_WITH_UNIT (LENGTH_MEASURE( 1.000000000000000082E-05 ), #84, 'distance_accuracy_value', 'NONE');
#112 = ADVANCED_FACE ( 'NONE', ( #152 ), #19, .T. ) ;
#113 = CARTESIAN_POINT ( 'NONE',  ( -3.000000000000002665, 0.000000000000000000, 19.20000000000001705 ) ) ;
#114 = DIRECTION ( 'NONE',  ( -1.000000000000000000, -0.000000000000000000, -0.000000000000000000 ) ) ;
#115 = CALENDAR_DATE ( 2024, 23, 9 ) ;
#116 = ORIENTED_EDGE ( 'NONE', *, *, #290, .T. ) ;
#117 = SECURITY_CLASSIFICATION ( '', '', #309 ) ;
#118 = PERSON_AND_ORGANIZATION ( #13, #352 ) ;
#119 = ORIENTED_EDGE ( 'NONE', *, *, #41, .T. ) ;
#120 = CALENDAR_DATE ( 2024, 23, 9 ) ;
#121 = ORIENTED_EDGE ( 'NONE', *, *, #124, .F. ) ;
#122 = SHAPE_DEFINITION_REPRESENTATION ( #107, #93 ) ;
#123 = ORIENTED_EDGE ( 'NONE', *, *, #230, .T. ) ;
#124 = EDGE_CURVE ( 'NONE', #225, #147, #349, .T. ) ;
#125 = APPROVAL_PERSON_ORGANIZATION ( #338, #161, #32 ) ;
#126 = DIRECTION ( 'NONE',  ( -1.000000000000000000, 0.000000000000000000, -0.000000000000000000 ) ) ;
#127 = DIRECTION ( 'NONE',  ( -1.000000000000000000, -0.000000000000000000, -0.000000000000000000 ) ) ;
#128 = CIRCLE ( 'NONE', #244, 19.20000000000002416 ) ;
#129 = CARTESIAN_POINT ( 'NONE',  ( 0.000000000000000000, 2.351321854362920840E-15, -19.20000000000002416 ) ) ;
#130 = CC_DESIGN_PERSON_AND_ORGANIZATION_ASSIGNMENT ( #143, #91, ( #335 ) ) ;
#131 = VECTOR ( 'NONE', #219, 1000.000000000000114 ) ;
#132 = DIRECTION ( 'NONE',  ( -1.000000000000000000, -0.000000000000000000, -0.000000000000000000 ) ) ;
#133 = CARTESIAN_POINT ( 'NONE',  ( 8.000000000000561329, 0.000000000000000000, 18.20000000000002061 ) ) ;
#134 = CLOSED_SHELL ( 'NONE', ( #199, #304, #215, #314, #99, #264, #193, #136, #112, #70, #187 ) ) ;
#135 =( NAMED_UNIT ( * ) PLANE_ANGLE_UNIT ( ) SI_UNIT ( $, .RADIAN. ) );
#136 = ADVANCED_FACE ( 'NONE', ( #186, #100 ), #76, .F. ) ;
#137 =( NAMED_UNIT ( * ) SI_UNIT ( $, .STERADIAN. ) SOLID_ANGLE_UNIT ( ) );
#138 = DIRECTION ( 'NONE',  ( -1.000000000000000000, -0.000000000000000000, -0.000000000000000000 ) ) ;
#139 = CARTESIAN_POINT ( 'NONE',  ( 8.000000000000561329, 0.000000000000000000, 0.000000000000000000 ) ) ;
#140 = EDGE_CURVE ( 'NONE', #147, #181, #77, .T. ) ;
#141 = CARTESIAN_POINT ( 'NONE',  ( -154.8395502972293230, 0.000000000000000000, 0.000000000000000000 ) ) ;
#142 = AXIS2_PLACEMENT_3D ( 'NONE', #154, #126, #20 ) ;
#143 = PERSON_AND_ORGANIZATION ( #13, #352 ) ;
#144 = AXIS2_PLACEMENT_3D ( 'NONE', #191, #220, #6 ) ;
#145 = ORIENTED_EDGE ( 'NONE', *, *, #239, .F. ) ;
#146 = PERSON_AND_ORGANIZATION ( #13, #352 ) ;
#147 = VERTEX_POINT ( 'NONE', #133 ) ;
#148 = PERSON_AND_ORGANIZATION ( #13, #352 ) ;
#149 = EDGE_LOOP ( 'NONE', ( #35, #83 ) ) ;
#150 = DIRECTION ( 'NONE',  ( 0.000000000000000000, 0.000000000000000000, 1.000000000000000000 ) ) ;
#151 = CC_DESIGN_PERSON_AND_ORGANIZATION_ASSIGNMENT ( #118, #231, ( #268 ) ) ;
#152 = FACE_OUTER_BOUND ( 'NONE', #227, .T. ) ;
#153 = DIRECTION ( 'NONE',  ( 0.000000000000000000, 0.000000000000000000, -1.000000000000000000 ) ) ;
#154 = CARTESIAN_POINT ( 'NONE',  ( 8.000000000000277112, 1.734723475976807094E-15, 0.000000000000000000 ) ) ;
#155 = AXIS2_PLACEMENT_3D ( 'NONE', #185, #211, #294 ) ;
#156 = AXIS2_PLACEMENT_3D ( 'NONE', #356, #104, #318 ) ;
#157 = DIRECTION ( 'NONE',  ( -1.000000000000000000, -0.000000000000000000, -0.000000000000000000 ) ) ;
#158 = AXIS2_PLACEMENT_3D ( 'NONE', #141, #51, #245 ) ;
#159 = DIRECTION ( 'NONE',  ( -1.000000000000000000, -0.000000000000000000, -0.000000000000000000 ) ) ;
#160 = CC_DESIGN_APPROVAL ( #161, ( #117 ) ) ;
#161 = APPROVAL ( #342, 'UNSPECIFIED' ) ;
#162 = CYLINDRICAL_SURFACE ( 'NONE', #4, 19.20000000000002416 ) ;
#163 = AXIS2_PLACEMENT_3D ( 'NONE', #72, #348, #319 ) ;
#164 = EDGE_CURVE ( 'NONE', #315, #98, #169, .T. ) ;
#165 = CARTESIAN_POINT ( 'NONE',  ( -154.8395502972293230, 2.351321854362920840E-15, -19.20000000000002416 ) ) ;
#166 = CYLINDRICAL_SURFACE ( 'NONE', #158, 21.20000000000001705 ) ;
#167 = EDGE_CURVE ( 'NONE', #252, #61, #350, .T. ) ;
#168 = CARTESIAN_POINT ( 'NONE',  ( -154.8395502972293230, 0.000000000000000000, 21.20000000000001705 ) ) ;
#169 = CIRCLE ( 'NONE', #68, 19.20000000000002416 ) ;
#170 = CARTESIAN_POINT ( 'NONE',  ( -1.000000000000000888, 0.000000000000000000, 21.20000000000001705 ) ) ;
#171 = DATE_TIME_ROLE ( 'creation_date' ) ;
#172 = ORIENTED_EDGE ( 'NONE', *, *, #331, .T. ) ;
#173 = AXIS2_PLACEMENT_3D ( 'NONE', #8, #114, #337 ) ;
#174 = CALENDAR_DATE ( 2024, 23, 9 ) ;
#175 = TOROIDAL_SURFACE ( 'NONE', #295, 19.20000000000001705, 2.000000000000000888 ) ;
#176 = VERTEX_POINT ( 'NONE', #292 ) ;
#177 = APPROVAL_STATUS ( 'not_yet_approved' ) ;
#178 = EDGE_LOOP ( 'NONE', ( #90, #116, #282, #145 ) ) ;
#179 = EDGE_CURVE ( 'NONE', #181, #2, #81, .T. ) ;
#180 = ORIENTED_EDGE ( 'NONE', *, *, #41, .F. ) ;
#181 = VERTEX_POINT ( 'NONE', #351 ) ;
#182 = FACE_OUTER_BOUND ( 'NONE', #229, .T. ) ;
#183 = DIRECTION ( 'NONE',  ( -1.000000000000000000, -0.000000000000000000, -0.000000000000000000 ) ) ;
#184 = CARTESIAN_POINT ( 'NONE',  ( 8.000000000000561329, 0.000000000000000000, 0.000000000000000000 ) ) ;
#185 = CARTESIAN_POINT ( 'NONE',  ( -1.941065176648555885E-15, 19.20000000000002416, 0.000000000000000000 ) ) ;
#186 = FACE_OUTER_BOUND ( 'NONE', #267, .T. ) ;
#187 = ADVANCED_FACE ( 'NONE', ( #182 ), #291, .F. ) ;
#188 = DIRECTION ( 'NONE',  ( 0.000000000000000000, 0.000000000000000000, 1.000000000000000000 ) ) ;
#189 = CIRCLE ( 'NONE', #327, 18.20000000000002061 ) ;
#190 = AXIS2_PLACEMENT_3D ( 'NONE', #305, #138, #330 ) ;
#191 = CARTESIAN_POINT ( 'NONE',  ( -1.000000000000001776, 0.000000000000000000, 19.20000000000001705 ) ) ;
#192 = ORIENTED_EDGE ( 'NONE', *, *, #357, .F. ) ;
#193 = ADVANCED_FACE ( 'NONE', ( #261 ), #103, .T. ) ;
#194 = APPROVAL_PERSON_ORGANIZATION ( #88, #27, #204 ) ;
#195 = DIRECTION ( 'NONE',  ( 0.000000000000000000, 0.000000000000000000, 1.000000000000000000 ) ) ;
#196 = VERTEX_POINT ( 'NONE', #113 ) ;
#197 = DIRECTION ( 'NONE',  ( -1.000000000000000000, -0.000000000000000000, -0.000000000000000000 ) ) ;
#198 = APPLICATION_PROTOCOL_DEFINITION ( 'international standard', 'config_control_design', 1994, #325 ) ;
#199 = ADVANCED_FACE ( 'NONE', ( #221 ), #175, .T. ) ;
#200 = ORIENTED_EDGE ( 'NONE', *, *, #206, .F. ) ;
#201 = MANIFOLD_SOLID_BREP ( 'Rotation1', #134 ) ;
#202 = COORDINATED_UNIVERSAL_TIME_OFFSET ( 1, 0, .AHEAD. ) ;
#203 = ORIENTED_EDGE ( 'NONE', *, *, #167, .T. ) ;
#204 = APPROVAL_ROLE ( '' ) ;
#205 = EDGE_LOOP ( 'NONE', ( #44, #339, #15, #311 ) ) ;
#206 = EDGE_CURVE ( 'NONE', #2, #98, #328, .T. ) ;
#207 =( GEOMETRIC_REPRESENTATION_CONTEXT ( 3 ) GLOBAL_UNCERTAINTY_ASSIGNED_CONTEXT ( ( #111 ) ) GLOBAL_UNIT_ASSIGNED_CONTEXT ( ( #84, #135, #137 ) ) REPRESENTATION_CONTEXT ( 'NONE', 'WORKASPACE' ) );
#208 = DIRECTION ( 'NONE',  ( 0.000000000000000000, 0.000000000000000000, 1.000000000000000000 ) ) ;
#209 = ORIENTED_EDGE ( 'NONE', *, *, #290, .F. ) ;
#210 = ORIENTED_EDGE ( 'NONE', *, *, #50, .T. ) ;
#211 = DIRECTION ( 'NONE',  ( -1.000000000000000000, 0.000000000000000000, -0.000000000000000000 ) ) ;
#212 = FACE_OUTER_BOUND ( 'NONE', #39, .T. ) ;
#213 = CARTESIAN_POINT ( 'NONE',  ( -1.000000000000001776, 0.000000000000000000, 0.000000000000000000 ) ) ;
#214 = DIRECTION ( 'NONE',  ( 0.000000000000000000, 0.000000000000000000, 1.000000000000000000 ) ) ;
#215 = ADVANCED_FACE ( 'NONE', ( #242 ), #162, .T. ) ;
#216 = CARTESIAN_POINT ( 'NONE',  ( 0.000000000000000000, 2.596251214192391136E-15, -21.20000000000001705 ) ) ;
#217 = DIRECTION ( 'NONE',  ( -1.000000000000000000, -0.000000000000000000, -0.000000000000000000 ) ) ;
#218 = ORIENTED_EDGE ( 'NONE', *, *, #16, .T. ) ;
#219 = DIRECTION ( 'NONE',  ( -0.7071067811865474617, 8.659560562354932858E-17, -0.7071067811865474617 ) ) ;
#220 = DIRECTION ( 'NONE',  ( 0.000000000000000000, -1.000000000000000000, 0.000000000000000000 ) ) ;
#221 = FACE_OUTER_BOUND ( 'NONE', #310, .T. ) ;
#222 = VECTOR ( 'NONE', #235, 1000.000000000000114 ) ;
#223 = EDGE_CURVE ( 'NONE', #2, #181, #128, .T. ) ;
#224 = DATE_AND_TIME ( #285, #288 ) ;
#225 = VERTEX_POINT ( 'NONE', #31 ) ;
#226 = PERSON_AND_ORGANIZATION_ROLE ( 'classification_officer' ) ;
#227 = EDGE_LOOP ( 'NONE', ( #209, #210, #11, #256 ) ) ;
#228 = APPROVAL_DATE_TIME ( #224, #27 ) ;
#229 = EDGE_LOOP ( 'NONE', ( #119, #289 ) ) ;
#230 = EDGE_CURVE ( 'NONE', #308, #196, #301, .T. ) ;
#231 = PERSON_AND_ORGANIZATION_ROLE ( 'design_owner' ) ;
#232 = EDGE_LOOP ( 'NONE', ( #18, #313, #59, #66 ) ) ;
#233 = ORIENTED_EDGE ( 'NONE', *, *, #57, .F. ) ;
#234 = DIRECTION ( 'NONE',  ( 0.000000000000000000, 0.000000000000000000, 1.000000000000000000 ) ) ;
#235 = DIRECTION ( 'NONE',  ( -0.7071067811865474617, 0.000000000000000000, 0.7071067811865474617 ) ) ;
#236 = CONICAL_SURFACE ( 'NONE', #5, 18.20000000000002061, 0.7853981633974482790 ) ;
#237 = CARTESIAN_POINT ( 'NONE',  ( 0.000000000000000000, 0.000000000000000000, 0.000000000000000000 ) ) ;
#238 = DIRECTION ( 'NONE',  ( 0.000000000000000000, 0.000000000000000000, 1.000000000000000000 ) ) ;
#239 = EDGE_CURVE ( 'NONE', #176, #308, #1, .T. ) ;
#240 = DIRECTION ( 'NONE',  ( 0.000000000000000000, 0.000000000000000000, 1.000000000000000000 ) ) ;
#241 = CARTESIAN_POINT ( 'NONE',  ( 7.000000000000561329, 0.000000000000000000, 0.000000000000000000 ) ) ;
#242 = FACE_OUTER_BOUND ( 'NONE', #205, .T. ) ;
#243 = CARTESIAN_POINT ( 'NONE',  ( 8.000000000000561329, 0.000000000000000000, 0.000000000000000000 ) ) ;
#244 = AXIS2_PLACEMENT_3D ( 'NONE', #241, #217, #54 ) ;
#245 = DIRECTION ( 'NONE',  ( 0.000000000000000000, 0.000000000000000000, 1.000000000000000000 ) ) ;
#246 = DIRECTION ( 'NONE',  ( -1.000000000000000000, -0.000000000000000000, -0.000000000000000000 ) ) ;
#247 = EDGE_CURVE ( 'NONE', #308, #252, #329, .T. ) ;
#248 = COORDINATED_UNIVERSAL_TIME_OFFSET ( 1, 0, .AHEAD. ) ;
#249 = ORIENTED_EDGE ( 'NONE', *, *, #75, .F. ) ;
#250 = AXIS2_PLACEMENT_3D ( 'NONE', #237, #159, #48 ) ;
#251 = APPROVAL_STATUS ( 'not_yet_approved' ) ;
#252 = VERTEX_POINT ( 'NONE', #82 ) ;
#253 = DATE_AND_TIME ( #346, #298 ) ;
#254 = CC_DESIGN_PERSON_AND_ORGANIZATION_ASSIGNMENT ( #40, #33, ( #335 ) ) ;
#255 = ORIENTED_EDGE ( 'NONE', *, *, #167, .F. ) ;
#256 = ORIENTED_EDGE ( 'NONE', *, *, #16, .F. ) ;
#257 = CIRCLE ( 'NONE', #163, 19.20000000000001705 ) ;
#258 = ORIENTED_EDGE ( 'NONE', *, *, #9, .F. ) ;
#259 = CARTESIAN_POINT ( 'NONE',  ( 7.000000000000561329, 0.000000000000000000, 0.000000000000000000 ) ) ;
#260 = DIRECTION ( 'NONE',  ( 0.000000000000000000, 0.000000000000000000, 1.000000000000000000 ) ) ;
#261 = FACE_OUTER_BOUND ( 'NONE', #12, .T. ) ;
#262 = CONICAL_SURFACE ( 'NONE', #108, 18.20000000000002061, 0.7853981633974482790 ) ;
#263 = DIRECTION ( 'NONE',  ( -1.000000000000000000, -0.000000000000000000, -0.000000000000000000 ) ) ;
#264 = ADVANCED_FACE ( 'NONE', ( #332 ), #262, .T. ) ;
#265 = CARTESIAN_POINT ( 'NONE',  ( 8.000000000000561329, 0.000000000000000000, 18.20000000000002061 ) ) ;
#266 = CARTESIAN_POINT ( 'NONE',  ( 8.000000000000561329, 2.228857174448185692E-15, -18.20000000000002061 ) ) ;
#267 = EDGE_LOOP ( 'NONE', ( #233, #79 ) ) ;
#268 = PRODUCT ( '3D_GR1174_DN42.2x2_18380660', '3D_GR1174_DN42.2x2_18380660', '', ( #56 ) ) ;
#269 = CARTESIAN_POINT ( 'NONE',  ( -1.000000000000000888, 0.000000000000000000, 0.000000000000000000 ) ) ;
#270 = CC_DESIGN_SECURITY_CLASSIFICATION ( #117, ( #335 ) ) ;
#271 = CARTESIAN_POINT ( 'NONE',  ( -154.8395502972293230, 0.000000000000000000, 0.000000000000000000 ) ) ;
#272 = AXIS2_PLACEMENT_3D ( 'NONE', #74, #354, #234 ) ;
#273 = FACE_OUTER_BOUND ( 'NONE', #232, .T. ) ;
#274 = CC_DESIGN_DATE_AND_TIME_ASSIGNMENT ( #58, #171, ( #326 ) ) ;
#275 = DESIGN_CONTEXT ( 'detailed design', #325, 'design' ) ;
#276 = DATE_AND_TIME ( #174, #71 ) ;
#277 = COORDINATED_UNIVERSAL_TIME_OFFSET ( 1, 0, .AHEAD. ) ;
#278 = EDGE_LOOP ( 'NONE', ( #255, #218, #123, #249 ) ) ;
#279 = AXIS2_PLACEMENT_3D ( 'NONE', #22, #23, #102 ) ;
#280 = VECTOR ( 'NONE', #197, 1000.000000000000000 ) ;
#281 = COORDINATED_UNIVERSAL_TIME_OFFSET ( 1, 0, .AHEAD. ) ;
#282 = ORIENTED_EDGE ( 'NONE', *, *, #247, .F. ) ;
#283 = APPROVAL_ROLE ( '' ) ;
#284 = ORIENTED_EDGE ( 'NONE', *, *, #223, .T. ) ;
#285 = CALENDAR_DATE ( 2024, 23, 9 ) ;
#286 = ORIENTED_EDGE ( 'NONE', *, *, #223, .F. ) ;
#287 = CIRCLE ( 'NONE', #250, 21.20000000000001705 ) ;
#288 = LOCAL_TIME ( 8, 18, 37.00000000000000000, #312 ) ;
#289 = ORIENTED_EDGE ( 'NONE', *, *, #75, .T. ) ;
#290 = EDGE_CURVE ( 'NONE', #89, #252, #105, .T. ) ;
#291 = PLANE ( 'NONE',  #94 ) ;
#292 = CARTESIAN_POINT ( 'NONE',  ( 0.000000000000000000, 0.000000000000000000, 21.20000000000001705 ) ) ;
#293 = CC_DESIGN_DATE_AND_TIME_ASSIGNMENT ( #276, #14, ( #117 ) ) ;
#294 = DIRECTION ( 'NONE',  ( -0.000000000000000000, 0.000000000000000000, 1.000000000000000000 ) ) ;
#295 = AXIS2_PLACEMENT_3D ( 'NONE', #85, #55, #110 ) ;
#296 = CARTESIAN_POINT ( 'NONE',  ( 0.000000000000000000, 0.000000000000000000, 0.000000000000000000 ) ) ;
#297 = CARTESIAN_POINT ( 'NONE',  ( -3.000000000000002665, 2.473786534277655594E-15, -19.20000000000001705 ) ) ;
#298 = LOCAL_TIME ( 8, 18, 37.00000000000000000, #277 ) ;
#299 = PRODUCT_RELATED_PRODUCT_CATEGORY ( 'detail', '', ( #268 ) ) ;
#300 = CARTESIAN_POINT ( 'NONE',  ( 0.000000000000000000, 0.000000000000000000, 19.20000000000002416 ) ) ;
#301 = CIRCLE ( 'NONE', #144, 2.000000000000001776 ) ;
#302 = DIRECTION ( 'NONE',  ( -1.000000000000000000, -0.000000000000000000, -0.000000000000000000 ) ) ;
#303 = DIRECTION ( 'NONE',  ( -1.000000000000000000, -0.000000000000000000, -0.000000000000000000 ) ) ;
#304 = ADVANCED_FACE ( 'NONE', ( #26 ), #166, .T. ) ;
#305 = CARTESIAN_POINT ( 'NONE',  ( -154.8395502972293230, 0.000000000000000000, 0.000000000000000000 ) ) ;
#306 = AXIS2_PLACEMENT_3D ( 'NONE', #323, #132, #49 ) ;
#307 = APPROVAL_DATE_TIME ( #95, #161 ) ;
#308 = VERTEX_POINT ( 'NONE', #170 ) ;
#309 = SECURITY_CLASSIFICATION_LEVEL ( 'unclassified' ) ;
#310 = EDGE_LOOP ( 'NONE', ( #92, #203, #180, #341 ) ) ;
#311 = ORIENTED_EDGE ( 'NONE', *, *, #331, .F. ) ;
#312 = COORDINATED_UNIVERSAL_TIME_OFFSET ( 1, 0, .AHEAD. ) ;
#313 = ORIENTED_EDGE ( 'NONE', *, *, #357, .T. ) ;
#314 = ADVANCED_FACE ( 'NONE', ( #273 ), #236, .T. ) ;
#315 = VERTEX_POINT ( 'NONE', #300 ) ;
#316 = APPROVAL_PERSON_ORGANIZATION ( #148, #320, #283 ) ;
#317 = CC_DESIGN_APPROVAL ( #320, ( #335 ) ) ;
#318 = DIRECTION ( 'NONE',  ( 0.000000000000000000, -1.224646799147353454E-16, 1.000000000000000000 ) ) ;
#319 = DIRECTION ( 'NONE',  ( 0.000000000000000000, 0.000000000000000000, 1.000000000000000000 ) ) ;
#320 = APPROVAL ( #177, 'UNSPECIFIED' ) ;
#321 = FACE_OUTER_BOUND ( 'NONE', #278, .T. ) ;
#322 = CIRCLE ( 'NONE', #306, 19.20000000000002416 ) ;
#323 = CARTESIAN_POINT ( 'NONE',  ( 0.000000000000000000, 0.000000000000000000, 0.000000000000000000 ) ) ;
#324 = PLANE ( 'NONE',  #142 ) ;
#325 = APPLICATION_CONTEXT ( 'configuration controlled 3d designs of mechanical parts and assemblies' ) ;
#326 = PRODUCT_DEFINITION ( 'UNKNOWN', '', #335, #275 ) ;
#327 = AXIS2_PLACEMENT_3D ( 'NONE', #96, #43, #150 ) ;
#328 = LINE ( 'NONE', #165, #101 ) ;
#329 = CIRCLE ( 'NONE', #21, 21.20000000000001705 ) ;
#330 = DIRECTION ( 'NONE',  ( 0.000000000000000000, 0.000000000000000000, 1.000000000000000000 ) ) ;
#331 = EDGE_CURVE ( 'NONE', #181, #315, #7, .T. ) ;
#332 = FACE_OUTER_BOUND ( 'NONE', #347, .T. ) ;
#333 = LINE ( 'NONE', #266, #131 ) ;
#334 = CIRCLE ( 'NONE', #25, 19.20000000000001705 ) ;
#335 = PRODUCT_DEFINITION_FORMATION_WITH_SPECIFIED_SOURCE ( 'ANY', '', #268, .NOT_KNOWN. ) ;
#336 = PERSON_AND_ORGANIZATION_ROLE ( 'creator' ) ;
#337 = DIRECTION ( 'NONE',  ( 0.000000000000000000, 0.000000000000000000, 1.000000000000000000 ) ) ;
#338 = PERSON_AND_ORGANIZATION ( #13, #352 ) ;
#339 = ORIENTED_EDGE ( 'NONE', *, *, #206, .T. ) ;
#340 = APPROVAL_DATE_TIME ( #253, #320 ) ;
#341 = ORIENTED_EDGE ( 'NONE', *, *, #230, .F. ) ;
#342 = APPROVAL_STATUS ( 'not_yet_approved' ) ;
#343 = CARTESIAN_POINT ( 'NONE',  ( 7.000000000000561329, 2.351321854362920840E-15, -19.20000000000002416 ) ) ;
#344 = CC_DESIGN_PERSON_AND_ORGANIZATION_ASSIGNMENT ( #146, #336, ( #326 ) ) ;
#345 = AXIS2_PLACEMENT_3D ( 'NONE', #97, #208, #37 ) ;
#346 = CALENDAR_DATE ( 2024, 23, 9 ) ;
#347 = EDGE_LOOP ( 'NONE', ( #192, #67, #42, #286 ) ) ;
#348 = DIRECTION ( 'NONE',  ( -1.000000000000000000, -0.000000000000000000, -0.000000000000000000 ) ) ;
#349 = CIRCLE ( 'NONE', #34, 18.20000000000002061 ) ;
#350 = CIRCLE ( 'NONE', #156, 2.000000000000001776 ) ;
#351 = CARTESIAN_POINT ( 'NONE',  ( 7.000000000000561329, 0.000000000000000000, 19.20000000000002416 ) ) ;
#352 = ORGANIZATION ( 'UNSPECIFIED', 'UNSPECIFIED', '' ) ;
#353 = DIRECTION ( 'NONE',  ( -1.000000000000000000, -0.000000000000000000, -0.000000000000000000 ) ) ;
#354 = DIRECTION ( 'NONE',  ( -1.000000000000000000, -0.000000000000000000, -0.000000000000000000 ) ) ;
#355 = AXIS2_PLACEMENT_3D ( 'NONE', #213, #263, #260 ) ;
#356 = CARTESIAN_POINT ( 'NONE',  ( -1.000000000000001776, 2.351321854362920051E-15, -19.20000000000001705 ) ) ;
#357 = EDGE_CURVE ( 'NONE', #225, #2, #333, .T. ) ;
ENDSEC;
END-ISO-10303-21;
