ISO-10303-21;
HEADER;
FILE_DESCRIPTION (( 'STEP AP203' ),
    '1' );
FILE_NAME ('3D-M2102P_76.1x2_174114045.STEP',
    '2024-09-05T09:23:09',
    ( '' ),
    ( '' ),
    'SwSTEP 2.0',
    'SolidWorks 2024',
    '' );
FILE_SCHEMA (( 'CONFIG_CONTROL_DESIGN' ));
ENDSEC;

DATA;
#1 = CARTESIAN_POINT ( 'NONE',  ( -16.64708581120227038, 0.000000000000000000, 35.75000000000000000 ) ) ;
#2 = MECHANICAL_CONTEXT ( 'NONE', #425, 'mechanical' ) ;
#3 = CARTESIAN_POINT ( 'NONE',  ( 13.99999999999999822, 0.000000000000000000, -43.00000000000000000 ) ) ;
#4 = PERSON_AND_ORGANIZATION ( #306, #207 ) ;
#5 = AXIS2_PLACEMENT_3D ( 'NONE', #140, #181, #377 ) ;
#6 = CARTESIAN_POINT ( 'NONE',  ( 32.00000000000000000, 38.04999999999999716, 0.000000000000000000 ) ) ;
#7 = DIRECTION ( 'NONE',  ( 0.000000000000000000, 0.000000000000000000, -1.000000000000000000 ) ) ;
#8 = CARTESIAN_POINT ( 'NONE',  ( 32.00000000000000000, 0.000000000000000000, 0.000000000000000000 ) ) ;
#9 = DIRECTION ( 'NONE',  ( 0.000000000000000000, 0.000000000000000000, -1.000000000000000000 ) ) ;
#10 = AXIS2_PLACEMENT_3D ( 'NONE', #11, #145, #206 ) ;
#11 = CARTESIAN_POINT ( 'NONE',  ( 13.99999999999999822, 0.000000000000000000, 0.000000000000000000 ) ) ;
#12 = DIRECTION ( 'NONE',  ( 0.000000000000000000, 0.000000000000000000, 1.000000000000000000 ) ) ;
#13 = CIRCLE ( 'NONE', #354, 35.75000000000000000 ) ;
#14 = DIRECTION ( 'NONE',  ( -1.000000000000000000, -0.000000000000000000, -0.000000000000000000 ) ) ;
#15 = DIRECTION ( 'NONE',  ( -1.000000000000000000, -0.000000000000000000, -0.000000000000000000 ) ) ;
#16 = EDGE_CURVE ( 'NONE', #294, #252, #298, .T. ) ;
#17 = ORIENTED_EDGE ( 'NONE', *, *, #360, .T. ) ;
#18 = ORIENTED_EDGE ( 'NONE', *, *, #101, .T. ) ;
#19 = ORIENTED_EDGE ( 'NONE', *, *, #335, .T. ) ;
#20 = EDGE_CURVE ( 'NONE', #62, #419, #25, .T. ) ;
#21 = CC_DESIGN_APPROVAL ( #351, ( #412 ) ) ;
#22 = EDGE_LOOP ( 'NONE', ( #262, #136 ) ) ;
#23 = AXIS2_PLACEMENT_3D ( 'NONE', #372, #14, #49 ) ;
#24 = EDGE_CURVE ( 'NONE', #252, #162, #277, .T. ) ;
#25 = LINE ( 'NONE', #1, #194 ) ;
#26 = PERSON_AND_ORGANIZATION_ROLE ( 'creator' ) ;
#27 = VECTOR ( 'NONE', #57, 1000.000000000000000 ) ;
#28 = DIRECTION ( 'NONE',  ( -1.000000000000000000, -0.000000000000000000, -0.000000000000000000 ) ) ;
#29 = DIRECTION ( 'NONE',  ( 0.000000000000000000, 0.000000000000000000, 1.000000000000000000 ) ) ;
#30 = ORIENTED_EDGE ( 'NONE', *, *, #32, .T. ) ;
#31 = PERSON_AND_ORGANIZATION ( #306, #207 ) ;
#32 = EDGE_CURVE ( 'NONE', #78, #150, #407, .T. ) ;
#33 = DIRECTION ( 'NONE',  ( -1.000000000000000000, -0.000000000000000000, -0.000000000000000000 ) ) ;
#34 = CC_DESIGN_PERSON_AND_ORGANIZATION_ASSIGNMENT ( #323, #198, ( #38 ) ) ;
#35 = CARTESIAN_POINT ( 'NONE',  ( 13.99999999999999822, 4.659781070755679014E-15, -38.04999999999999716 ) ) ;
#36 = FACE_OUTER_BOUND ( 'NONE', #250, .T. ) ;
#37 = DIRECTION ( 'NONE',  ( 0.000000000000000000, 0.000000000000000000, 1.000000000000000000 ) ) ;
#38 = SECURITY_CLASSIFICATION ( '', '', #394 ) ;
#39 = AXIS2_PLACEMENT_3D ( 'NONE', #341, #338, #307 ) ;
#40 = CYLINDRICAL_SURFACE ( 'NONE', #5, 38.04999999999999716 ) ;
#41 = CARTESIAN_POINT ( 'NONE',  ( -3.469446951953614189E-15, 5.036281051742192675E-15, 39.24871130596425672 ) ) ;
#42 = DIRECTION ( 'NONE',  ( -0.000000000000000000, 0.000000000000000000, 1.000000000000000000 ) ) ;
#43 = CARTESIAN_POINT ( 'NONE',  ( -3.469446951953614189E-15, 0.000000000000000000, 0.000000000000000000 ) ) ;
#44 = DIRECTION ( 'NONE',  ( 0.000000000000000000, 0.000000000000000000, 1.000000000000000000 ) ) ;
#45 = CONICAL_SURFACE ( 'NONE', #322, 33.00000000000000000, 0.09141120186028071914 ) ;
#46 = EDGE_CURVE ( 'NONE', #380, #419, #13, .T. ) ;
#47 = DIRECTION ( 'NONE',  ( 0.000000000000000000, 0.000000000000000000, -1.000000000000000000 ) ) ;
#48 = VERTEX_POINT ( 'NONE', #231 ) ;
#49 = DIRECTION ( 'NONE',  ( 0.000000000000000000, 0.000000000000000000, 1.000000000000000000 ) ) ;
#50 = VERTEX_POINT ( 'NONE', #61 ) ;
#51 = EDGE_CURVE ( 'NONE', #150, #191, #228, .T. ) ;
#52 = ORIENTED_EDGE ( 'NONE', *, *, #16, .F. ) ;
#53 = ORIENTED_EDGE ( 'NONE', *, *, #16, .T. ) ;
#54 = ADVANCED_FACE ( 'NONE', ( #159 ), #330, .F. ) ;
#55 = DATE_TIME_ROLE ( 'classification_date' ) ;
#56 = AXIS2_PLACEMENT_3D ( 'NONE', #342, #370, #9 ) ;
#57 = DIRECTION ( 'NONE',  ( -1.000000000000000000, -0.000000000000000000, -0.000000000000000000 ) ) ;
#58 = CARTESIAN_POINT ( 'NONE',  ( -16.64708581120227038, 0.000000000000000000, 0.000000000000000000 ) ) ;
#59 = PERSON_AND_ORGANIZATION ( #306, #207 ) ;
#60 = CIRCLE ( 'NONE', #217, 38.04999999999999716 ) ;
#61 = CARTESIAN_POINT ( 'NONE',  ( 0.000000000000000000, 4.041334437186266200E-15, -33.00000000000000000 ) ) ;
#62 = VERTEX_POINT ( 'NONE', #427 ) ;
#63 = DATE_AND_TIME ( #428, #72 ) ;
#64 = LINE ( 'NONE', #200, #230 ) ;
#65 = APPROVAL_STATUS ( 'not_yet_approved' ) ;
#66 = CARTESIAN_POINT ( 'NONE',  ( 32.00000000000000000, 0.000000000000000000, 38.04999999999999716 ) ) ;
#67 = DIRECTION ( 'NONE',  ( 0.000000000000000000, 0.000000000000000000, 1.000000000000000000 ) ) ;
#68 = PLANE ( 'NONE',  #264 ) ;
#69 = CIRCLE ( 'NONE', #329, 38.04999999999999716 ) ;
#70 = PLANE ( 'NONE',  #210 ) ;
#71 = DIRECTION ( 'NONE',  ( 0.000000000000000000, 0.000000000000000000, 1.000000000000000000 ) ) ;
#72 = LOCAL_TIME ( 11, 23, 9.000000000000000000, #257 ) ;
#73 = AXIS2_PLACEMENT_3D ( 'NONE', #244, #75, #44 ) ;
#74 = CARTESIAN_POINT ( 'NONE',  ( -16.64708581120227038, 4.659781070755679014E-15, -38.04999999999999716 ) ) ;
#75 = DIRECTION ( 'NONE',  ( -1.000000000000000000, -0.000000000000000000, -0.000000000000000000 ) ) ;
#76 = CARTESIAN_POINT ( 'NONE',  ( -16.64708581120227038, 0.000000000000000000, 38.04999999999999716 ) ) ;
#77 = FACE_OUTER_BOUND ( 'NONE', #113, .T. ) ;
#78 = VERTEX_POINT ( 'NONE', #132 ) ;
#79 = AXIS2_PLACEMENT_3D ( 'NONE', #405, #178, #409 ) ;
#80 = CARTESIAN_POINT ( 'NONE',  ( 1.000000000000000888, 0.000000000000000000, -33.00000000000000000 ) ) ;
#81 = EDGE_LOOP ( 'NONE', ( #392, #287 ) ) ;
#82 = EDGE_LOOP ( 'NONE', ( #381, #185, #325, #19 ) ) ;
#83 = ORIENTED_EDGE ( 'NONE', *, *, #321, .F. ) ;
#84 = CIRCLE ( 'NONE', #158, 33.00000000000000000 ) ;
#85 = EDGE_LOOP ( 'NONE', ( #193, #320, #268, #115 ) ) ;
#86 = EDGE_CURVE ( 'NONE', #426, #184, #69, .T. ) ;
#87 = AXIS2_PLACEMENT_3D ( 'NONE', #43, #213, #12 ) ;
#88 = ADVANCED_BREP_SHAPE_REPRESENTATION ( '3D-M2102P_76.1x2_174114045', ( #255, #79 ), #382 ) ;
#89 = EDGE_CURVE ( 'NONE', #150, #419, #345, .T. ) ;
#90 = PRODUCT_DEFINITION_FORMATION_WITH_SPECIFIED_SOURCE ( 'ANY', '', #211, .NOT_KNOWN. ) ;
#91 = DIRECTION ( 'NONE',  ( 0.000000000000000000, 0.000000000000000000, 1.000000000000000000 ) ) ;
#92 = DIRECTION ( 'NONE',  ( -1.000000000000000000, -0.000000000000000000, -0.000000000000000000 ) ) ;
#93 = UNCERTAINTY_MEASURE_WITH_UNIT (LENGTH_MEASURE( 1.000000000000000082E-05 ), #109, 'distance_accuracy_value', 'NONE');
#94 = ORIENTED_EDGE ( 'NONE', *, *, #86, .T. ) ;
#95 = APPROVAL_ROLE ( '' ) ;
#96 = AXIS2_PLACEMENT_3D ( 'NONE', #276, #114, #349 ) ;
#97 = ORIENTED_EDGE ( 'NONE', *, *, #379, .F. ) ;
#98 = COORDINATED_UNIVERSAL_TIME_OFFSET ( 1, 0, .AHEAD. ) ;
#99 = CC_DESIGN_PERSON_AND_ORGANIZATION_ASSIGNMENT ( #362, #124, ( #90 ) ) ;
#100 = DIRECTION ( 'NONE',  ( 0.000000000000000000, 0.000000000000000000, 1.000000000000000000 ) ) ;
#101 = EDGE_CURVE ( 'NONE', #62, #182, #205, .T. ) ;
#102 = DIRECTION ( 'NONE',  ( -1.000000000000000000, -0.000000000000000000, -0.000000000000000000 ) ) ;
#103 = PERSON_AND_ORGANIZATION ( #306, #207 ) ;
#104 = CYLINDRICAL_SURFACE ( 'NONE', #128, 33.00000000000000000 ) ;
#105 = VECTOR ( 'NONE', #239, 1000.000000000000000 ) ;
#106 = LINE ( 'NONE', #366, #420 ) ;
#107 = DIRECTION ( 'NONE',  ( 0.000000000000000000, 0.000000000000000000, 1.000000000000000000 ) ) ;
#108 = FACE_OUTER_BOUND ( 'NONE', #396, .T. ) ;
#109 =( LENGTH_UNIT ( ) NAMED_UNIT ( * ) SI_UNIT ( .MILLI., .METRE. ) );
#110 = DIRECTION ( 'NONE',  ( 0.000000000000000000, 0.000000000000000000, 1.000000000000000000 ) ) ;
#111 = CARTESIAN_POINT ( 'NONE',  ( 0.000000000000000000, 0.000000000000000000, 0.000000000000000000 ) ) ;
#112 = CARTESIAN_POINT ( 'NONE',  ( 32.00000000000000000, 0.000000000000000000, 0.000000000000000000 ) ) ;
#113 = EDGE_LOOP ( 'NONE', ( #389, #53, #223, #168 ) ) ;
#114 = DIRECTION ( 'NONE',  ( -1.000000000000000000, -0.000000000000000000, -0.000000000000000000 ) ) ;
#115 = ORIENTED_EDGE ( 'NONE', *, *, #20, .F. ) ;
#116 = EDGE_CURVE ( 'NONE', #184, #426, #186, .T. ) ;
#117 = ORIENTED_EDGE ( 'NONE', *, *, #46, .F. ) ;
#118 = EDGE_LOOP ( 'NONE', ( #416, #254, #316, #348 ) ) ;
#119 = ORIENTED_EDGE ( 'NONE', *, *, #283, .T. ) ;
#120 = EDGE_CURVE ( 'NONE', #376, #294, #385, .T. ) ;
#121 = DATE_AND_TIME ( #229, #261 ) ;
#122 = EDGE_CURVE ( 'NONE', #48, #426, #147, .T. ) ;
#123 = DIRECTION ( 'NONE',  ( 0.000000000000000000, 0.000000000000000000, 1.000000000000000000 ) ) ;
#124 = PERSON_AND_ORGANIZATION_ROLE ( 'design_supplier' ) ;
#125 = AXIS2_PLACEMENT_3D ( 'NONE', #58, #28, #29 ) ;
#126 = CARTESIAN_POINT ( 'NONE',  ( 31.00000000000000000, 0.000000000000000000, 0.000000000000000000 ) ) ;
#127 = SHAPE_DEFINITION_REPRESENTATION ( #305, #88 ) ;
#128 = AXIS2_PLACEMENT_3D ( 'NONE', #271, #365, #107 ) ;
#129 = CARTESIAN_POINT ( 'NONE',  ( 1.000000000000000888, 0.000000000000000000, 0.000000000000000000 ) ) ;
#130 = DESIGN_CONTEXT ( 'detailed design', #165, 'design' ) ;
#131 = APPROVAL ( #189, 'UNSPECIFIED' ) ;
#132 = CARTESIAN_POINT ( 'NONE',  ( 1.000000000000000888, 0.000000000000000000, -33.00000000000000000 ) ) ;
#133 = APPROVAL_STATUS ( 'not_yet_approved' ) ;
#134 = DIRECTION ( 'NONE',  ( 0.9659258262890678681, 0.000000000000000000, -0.2588190451025219052 ) ) ;
#135 = ADVANCED_FACE ( 'NONE', ( #403 ), #368, .F. ) ;
#136 = ORIENTED_EDGE ( 'NONE', *, *, #24, .F. ) ;
#137 = FACE_OUTER_BOUND ( 'NONE', #281, .T. ) ;
#138 = FACE_OUTER_BOUND ( 'NONE', #222, .T. ) ;
#139 = CIRCLE ( 'NONE', #343, 35.75000000000000000 ) ;
#140 = CARTESIAN_POINT ( 'NONE',  ( -16.64708581120227038, 0.000000000000000000, 0.000000000000000000 ) ) ;
#141 = CARTESIAN_POINT ( 'NONE',  ( -16.64708581120227038, 0.000000000000000000, 0.000000000000000000 ) ) ;
#142 = VECTOR ( 'NONE', #144, 1000.000000000000227 ) ;
#143 = DIRECTION ( 'NONE',  ( 0.9958249045631323293, 1.117905966727418458E-17, 0.09128394958495364420 ) ) ;
#144 = DIRECTION ( 'NONE',  ( 0.9958249045631323293, 0.000000000000000000, -0.09128394958495364420 ) ) ;
#145 = DIRECTION ( 'NONE',  ( 1.000000000000000000, 0.000000000000000000, 0.000000000000000000 ) ) ;
#146 = VECTOR ( 'NONE', #293, 1000.000000000000114 ) ;
#147 = LINE ( 'NONE', #74, #105 ) ;
#148 = CARTESIAN_POINT ( 'NONE',  ( 13.99999999999999822, 0.000000000000000000, 0.000000000000000000 ) ) ;
#149 = DIRECTION ( 'NONE',  ( 0.000000000000000000, 0.000000000000000000, 1.000000000000000000 ) ) ;
#150 = VERTEX_POINT ( 'NONE', #302 ) ;
#151 = AXIS2_PLACEMENT_3D ( 'NONE', #238, #336, #273 ) ;
#152 = CC_DESIGN_PERSON_AND_ORGANIZATION_ASSIGNMENT ( #103, #237, ( #211 ) ) ;
#153 = ORIENTED_EDGE ( 'NONE', *, *, #187, .F. ) ;
#154 = ORIENTED_EDGE ( 'NONE', *, *, #51, .F. ) ;
#155 = LOCAL_TIME ( 11, 23, 9.000000000000000000, #98 ) ;
#156 = CIRCLE ( 'NONE', #355, 38.04999999999999716 ) ;
#157 = ORIENTED_EDGE ( 'NONE', *, *, #321, .T. ) ;
#158 = AXIS2_PLACEMENT_3D ( 'NONE', #218, #15, #413 ) ;
#159 = FACE_OUTER_BOUND ( 'NONE', #85, .T. ) ;
#160 = DATE_AND_TIME ( #387, #163 ) ;
#161 = CLOSED_SHELL ( 'NONE', ( #216, #289, #195, #202, #54, #135, #315, #247, #256, #386, #401, #324, #183 ) ) ;
#162 = VERTEX_POINT ( 'NONE', #3 ) ;
#163 = LOCAL_TIME ( 11, 23, 9.000000000000000000, #422 ) ;
#164 = ORIENTED_EDGE ( 'NONE', *, *, #51, .T. ) ;
#165 = APPLICATION_CONTEXT ( 'configuration controlled 3d designs of mechanical parts and assemblies' ) ;
#166 = EDGE_CURVE ( 'NONE', #294, #376, #199, .T. ) ;
#167 = DIRECTION ( 'NONE',  ( -1.000000000000000000, -0.000000000000000000, -0.000000000000000000 ) ) ;
#168 = ORIENTED_EDGE ( 'NONE', *, *, #174, .F. ) ;
#169 = PERSON_AND_ORGANIZATION ( #306, #207 ) ;
#170 = CARTESIAN_POINT ( 'NONE',  ( 0.000000000000000000, 0.000000000000000000, 33.00000000000000000 ) ) ;
#171 = COORDINATED_UNIVERSAL_TIME_OFFSET ( 1, 0, .AHEAD. ) ;
#172 = CARTESIAN_POINT ( 'NONE',  ( 1.000000000000000888, 4.041334437186266200E-15, 33.00000000000000000 ) ) ;
#173 = DIRECTION ( 'NONE',  ( 0.000000000000000000, 0.000000000000000000, 1.000000000000000000 ) ) ;
#174 = EDGE_CURVE ( 'NONE', #376, #162, #179, .T. ) ;
#175 = AXIS2_PLACEMENT_3D ( 'NONE', #214, #280, #7 ) ;
#176 = CARTESIAN_POINT ( 'NONE',  ( -3.469446951953614189E-15, 0.000000000000000000, 0.000000000000000000 ) ) ;
#177 = FACE_OUTER_BOUND ( 'NONE', #378, .T. ) ;
#178 = DIRECTION ( 'NONE',  ( 0.000000000000000000, 0.000000000000000000, 1.000000000000000000 ) ) ;
#179 = LINE ( 'NONE', #311, #391 ) ;
#180 = LINE ( 'NONE', #80, #142 ) ;
#181 = DIRECTION ( 'NONE',  ( -1.000000000000000000, -0.000000000000000000, -0.000000000000000000 ) ) ;
#182 = VERTEX_POINT ( 'NONE', #429 ) ;
#183 = ADVANCED_FACE ( 'NONE', ( #267, #400 ), #70, .F. ) ;
#184 = VERTEX_POINT ( 'NONE', #208 ) ;
#185 = ORIENTED_EDGE ( 'NONE', *, *, #101, .F. ) ;
#186 = CIRCLE ( 'NONE', #241, 38.04999999999999716 ) ;
#187 = EDGE_CURVE ( 'NONE', #78, #50, #64, .T. ) ;
#188 = PRODUCT_RELATED_PRODUCT_CATEGORY ( 'detail', '', ( #211 ) ) ;
#189 = APPROVAL_STATUS ( 'not_yet_approved' ) ;
#190 = AXIS2_PLACEMENT_3D ( 'NONE', #111, #204, #37 ) ;
#191 = VERTEX_POINT ( 'NONE', #170 ) ;
#192 = CONICAL_SURFACE ( 'NONE', #10, 43.00000000000000000, 0.2617993877991506846 ) ;
#193 = ORIENTED_EDGE ( 'NONE', *, *, #220, .F. ) ;
#194 = VECTOR ( 'NONE', #233, 1000.000000000000000 ) ;
#195 = ADVANCED_FACE ( 'NONE', ( #138 ), #104, .F. ) ;
#196 = VERTEX_POINT ( 'NONE', #66 ) ;
#197 = ORIENTED_EDGE ( 'NONE', *, *, #174, .T. ) ;
#198 = PERSON_AND_ORGANIZATION_ROLE ( 'classification_officer' ) ;
#199 = CIRCLE ( 'NONE', #87, 39.24871130596425672 ) ;
#200 = CARTESIAN_POINT ( 'NONE',  ( -16.64708581120227038, 4.041334437186266200E-15, -33.00000000000000000 ) ) ;
#201 = APPROVAL_ROLE ( '' ) ;
#202 = ADVANCED_FACE ( 'NONE', ( #203 ), #304, .F. ) ;
#203 = FACE_OUTER_BOUND ( 'NONE', #314, .T. ) ;
#204 = DIRECTION ( 'NONE',  ( -1.000000000000000000, -0.000000000000000000, -0.000000000000000000 ) ) ;
#205 = CIRCLE ( 'NONE', #369, 35.75000000000000000 ) ;
#206 = DIRECTION ( 'NONE',  ( 0.000000000000000000, 0.000000000000000000, -1.000000000000000000 ) ) ;
#207 = ORGANIZATION ( 'UNSPECIFIED', 'UNSPECIFIED', '' ) ;
#208 = CARTESIAN_POINT ( 'NONE',  ( 13.99999999999999822, 0.000000000000000000, 38.04999999999999716 ) ) ;
#209 = DIRECTION ( 'NONE',  ( 0.000000000000000000, 0.000000000000000000, 1.000000000000000000 ) ) ;
#210 = AXIS2_PLACEMENT_3D ( 'NONE', #6, #236, #363 ) ;
#211 = PRODUCT ( '3D-M2102P_76.1x2_174114045', '3D-M2102P_76.1x2_174114045', '', ( #2 ) ) ;
#212 = CARTESIAN_POINT ( 'NONE',  ( 13.99999999999999822, 38.04999999999999716, 0.000000000000000000 ) ) ;
#213 = DIRECTION ( 'NONE',  ( -1.000000000000000000, -0.000000000000000000, -0.000000000000000000 ) ) ;
#214 = CARTESIAN_POINT ( 'NONE',  ( -9.981712175999393921E-16, 39.24871130596425672, 0.000000000000000000 ) ) ;
#215 = FACE_BOUND ( 'NONE', #282, .T. ) ;
#216 = ADVANCED_FACE ( 'NONE', ( #36 ), #40, .T. ) ;
#217 = AXIS2_PLACEMENT_3D ( 'NONE', #112, #375, #173 ) ;
#218 = CARTESIAN_POINT ( 'NONE',  ( 1.000000000000000888, 0.000000000000000000, 0.000000000000000000 ) ) ;
#219 = EDGE_LOOP ( 'NONE', ( #423, #350, #157, #393 ) ) ;
#220 = EDGE_CURVE ( 'NONE', #182, #62, #139, .T. ) ;
#221 = FACE_OUTER_BOUND ( 'NONE', #219, .T. ) ;
#222 = EDGE_LOOP ( 'NONE', ( #417, #352, #119, #154 ) ) ;
#223 = ORIENTED_EDGE ( 'NONE', *, *, #24, .T. ) ;
#224 = ORIENTED_EDGE ( 'NONE', *, *, #301, .F. ) ;
#225 = CC_DESIGN_SECURITY_CLASSIFICATION ( #38, ( #90 ) ) ;
#226 = DATE_AND_TIME ( #326, #390 ) ;
#227 = CC_DESIGN_APPROVAL ( #388, ( #90 ) ) ;
#228 = LINE ( 'NONE', #356, #27 ) ;
#229 = CALENDAR_DATE ( 2024, 5, 9 ) ;
#230 = VECTOR ( 'NONE', #33, 1000.000000000000000 ) ;
#231 = CARTESIAN_POINT ( 'NONE',  ( 32.00000000000000000, 4.659781070755679014E-15, -38.04999999999999716 ) ) ;
#232 = CIRCLE ( 'NONE', #309, 43.00000000000000000 ) ;
#233 = DIRECTION ( 'NONE',  ( -1.000000000000000000, -0.000000000000000000, -0.000000000000000000 ) ) ;
#234 = EDGE_LOOP ( 'NONE', ( #18, #292 ) ) ;
#235 = APPROVAL_DATE_TIME ( #331, #388 ) ;
#236 = DIRECTION ( 'NONE',  ( -1.000000000000000000, 0.000000000000000000, -0.000000000000000000 ) ) ;
#237 = PERSON_AND_ORGANIZATION_ROLE ( 'design_owner' ) ;
#238 = CARTESIAN_POINT ( 'NONE',  ( -16.64708581120227038, 0.000000000000000000, 0.000000000000000000 ) ) ;
#239 = DIRECTION ( 'NONE',  ( -1.000000000000000000, -0.000000000000000000, -0.000000000000000000 ) ) ;
#240 = CYLINDRICAL_SURFACE ( 'NONE', #373, 33.00000000000000000 ) ;
#241 = AXIS2_PLACEMENT_3D ( 'NONE', #243, #371, #406 ) ;
#242 = LINE ( 'NONE', #76, #288 ) ;
#243 = CARTESIAN_POINT ( 'NONE',  ( 13.99999999999999822, 0.000000000000000000, 0.000000000000000000 ) ) ;
#244 = CARTESIAN_POINT ( 'NONE',  ( 0.000000000000000000, 0.000000000000000000, 0.000000000000000000 ) ) ;
#245 = CARTESIAN_POINT ( 'NONE',  ( 1.000000000000000888, 0.000000000000000000, 0.000000000000000000 ) ) ;
#246 = ORIENTED_EDGE ( 'NONE', *, *, #116, .F. ) ;
#247 = ADVANCED_FACE ( 'NONE', ( #177 ), #240, .F. ) ;
#248 = DIRECTION ( 'NONE',  ( -1.000000000000000000, -0.000000000000000000, -0.000000000000000000 ) ) ;
#249 = ORIENTED_EDGE ( 'NONE', *, *, #120, .F. ) ;
#250 = EDGE_LOOP ( 'NONE', ( #414, #265, #246, #383 ) ) ;
#251 = CONICAL_SURFACE ( 'NONE', #56, 43.00000000000000000, 0.2617993877991506846 ) ;
#252 = VERTEX_POINT ( 'NONE', #408 ) ;
#253 = CIRCLE ( 'NONE', #23, 35.75000000000000000 ) ;
#254 = ORIENTED_EDGE ( 'NONE', *, *, #367, .T. ) ;
#255 = MANIFOLD_SOLID_BREP ( 'Rotation1', #161 ) ;
#256 = ADVANCED_FACE ( 'NONE', ( #404, #108 ), #346, .F. ) ;
#257 = COORDINATED_UNIVERSAL_TIME_OFFSET ( 1, 0, .AHEAD. ) ;
#258 = DIRECTION ( 'NONE',  ( -1.000000000000000000, -0.000000000000000000, -0.000000000000000000 ) ) ;
#259 = PERSON_AND_ORGANIZATION ( #306, #207 ) ;
#260 = AXIS2_PLACEMENT_3D ( 'NONE', #129, #92, #123 ) ;
#261 = LOCAL_TIME ( 11, 23, 9.000000000000000000, #334 ) ;
#262 = ORIENTED_EDGE ( 'NONE', *, *, #360, .F. ) ;
#263 = EDGE_LOOP ( 'NONE', ( #224, #317 ) ) ;
#264 = AXIS2_PLACEMENT_3D ( 'NONE', #212, #402, #42 ) ;
#265 = ORIENTED_EDGE ( 'NONE', *, *, #122, .T. ) ;
#266 = CALENDAR_DATE ( 2024, 5, 9 ) ;
#267 = FACE_OUTER_BOUND ( 'NONE', #81, .T. ) ;
#268 = ORIENTED_EDGE ( 'NONE', *, *, #46, .T. ) ;
#269 = CARTESIAN_POINT ( 'NONE',  ( 31.00000000000000000, 0.000000000000000000, 35.75000000000000000 ) ) ;
#270 = CC_DESIGN_PERSON_AND_ORGANIZATION_ASSIGNMENT ( #59, #26, ( #412 ) ) ;
#271 = CARTESIAN_POINT ( 'NONE',  ( -16.64708581120227038, 0.000000000000000000, 0.000000000000000000 ) ) ;
#272 = DIRECTION ( 'NONE',  ( -1.000000000000000000, -0.000000000000000000, -0.000000000000000000 ) ) ;
#273 = DIRECTION ( 'NONE',  ( 0.000000000000000000, 0.000000000000000000, 1.000000000000000000 ) ) ;
#274 = DIRECTION ( 'NONE',  ( -1.000000000000000000, -0.000000000000000000, -0.000000000000000000 ) ) ;
#275 = DIRECTION ( 'NONE',  ( -1.000000000000000000, -0.000000000000000000, -0.000000000000000000 ) ) ;
#276 = CARTESIAN_POINT ( 'NONE',  ( -16.64708581120227038, 0.000000000000000000, 0.000000000000000000 ) ) ;
#277 = CIRCLE ( 'NONE', #318, 43.00000000000000000 ) ;
#278 =( NAMED_UNIT ( * ) SI_UNIT ( $, .STERADIAN. ) SOLID_ANGLE_UNIT ( ) );
#279 = CYLINDRICAL_SURFACE ( 'NONE', #96, 38.04999999999999716 ) ;
#280 = DIRECTION ( 'NONE',  ( 1.000000000000000000, 0.000000000000000000, 0.000000000000000000 ) ) ;
#281 = EDGE_LOOP ( 'NONE', ( #52, #249, #197, #17 ) ) ;
#282 = EDGE_LOOP ( 'NONE', ( #361, #94 ) ) ;
#283 = EDGE_CURVE ( 'NONE', #50, #191, #286, .T. ) ;
#284 = APPROVAL_PERSON_ORGANIZATION ( #169, #131, #95 ) ;
#285 = ORIENTED_EDGE ( 'NONE', *, *, #89, .T. ) ;
#286 = CIRCLE ( 'NONE', #190, 33.00000000000000000 ) ;
#287 = ORIENTED_EDGE ( 'NONE', *, *, #367, .F. ) ;
#288 = VECTOR ( 'NONE', #272, 1000.000000000000000 ) ;
#289 = ADVANCED_FACE ( 'NONE', ( #77 ), #251, .T. ) ;
#290 = AXIS2_PLACEMENT_3D ( 'NONE', #176, #300, #110 ) ;
#291 = EDGE_CURVE ( 'NONE', #196, #48, #156, .T. ) ;
#292 = ORIENTED_EDGE ( 'NONE', *, *, #220, .T. ) ;
#293 = DIRECTION ( 'NONE',  ( 0.9659258262890678681, 3.169619151431779116E-17, 0.2588190451025219052 ) ) ;
#294 = VERTEX_POINT ( 'NONE', #41 ) ;
#295 = APPROVAL_ROLE ( '' ) ;
#296 = CARTESIAN_POINT ( 'NONE',  ( 13.99999999999999822, 0.000000000000000000, 0.000000000000000000 ) ) ;
#297 = CC_DESIGN_DATE_AND_TIME_ASSIGNMENT ( #121, #55, ( #38 ) ) ;
#298 = LINE ( 'NONE', #327, #146 ) ;
#299 =( NAMED_UNIT ( * ) PLANE_ANGLE_UNIT ( ) SI_UNIT ( $, .RADIAN. ) );
#300 = DIRECTION ( 'NONE',  ( -1.000000000000000000, -0.000000000000000000, -0.000000000000000000 ) ) ;
#301 = EDGE_CURVE ( 'NONE', #191, #50, #418, .T. ) ;
#302 = CARTESIAN_POINT ( 'NONE',  ( 1.000000000000000888, 4.209723372069026240E-15, 33.00000000000000000 ) ) ;
#303 = CARTESIAN_POINT ( 'NONE',  ( -3.469446951953614189E-15, 0.000000000000000000, -39.24871130596425672 ) ) ;
#304 = CONICAL_SURFACE ( 'NONE', #39, 33.00000000000000000, 0.09141120186028071914 ) ;
#305 = PRODUCT_DEFINITION_SHAPE ( 'NONE', 'NONE',  #412 ) ;
#306 = PERSON ( 'UNSPECIFIED', 'UNSPECIFIED', 'UNSPECIFIED', ('UNSPECIFIED'), ('UNSPECIFIED'), ('UNSPECIFIED') ) ;
#307 = DIRECTION ( 'NONE',  ( 0.000000000000000000, 0.000000000000000000, -1.000000000000000000 ) ) ;
#308 = DIRECTION ( 'NONE',  ( 1.000000000000000000, 0.000000000000000000, 0.000000000000000000 ) ) ;
#309 = AXIS2_PLACEMENT_3D ( 'NONE', #148, #313, #149 ) ;
#310 = FACE_OUTER_BOUND ( 'NONE', #22, .T. ) ;
#311 = CARTESIAN_POINT ( 'NONE',  ( 13.99999999999999822, 0.000000000000000000, -43.00000000000000000 ) ) ;
#312 = FACE_OUTER_BOUND ( 'NONE', #118, .T. ) ;
#313 = DIRECTION ( 'NONE',  ( -1.000000000000000000, -0.000000000000000000, -0.000000000000000000 ) ) ;
#314 = EDGE_LOOP ( 'NONE', ( #30, #285, #117, #83 ) ) ;
#315 = ADVANCED_FACE ( 'NONE', ( #221 ), #45, .F. ) ;
#316 = ORIENTED_EDGE ( 'NONE', *, *, #395, .T. ) ;
#317 = ORIENTED_EDGE ( 'NONE', *, *, #283, .F. ) ;
#318 = AXIS2_PLACEMENT_3D ( 'NONE', #399, #102, #358 ) ;
#319 = APPROVAL_PERSON_ORGANIZATION ( #4, #351, #201 ) ;
#320 = ORIENTED_EDGE ( 'NONE', *, *, #415, .T. ) ;
#321 = EDGE_CURVE ( 'NONE', #78, #380, #180, .T. ) ;
#322 = AXIS2_PLACEMENT_3D ( 'NONE', #245, #308, #47 ) ;
#323 = PERSON_AND_ORGANIZATION ( #306, #207 ) ;
#324 = ADVANCED_FACE ( 'NONE', ( #312 ), #279, .T. ) ;
#325 = ORIENTED_EDGE ( 'NONE', *, *, #20, .T. ) ;
#326 = CALENDAR_DATE ( 2024, 5, 9 ) ;
#327 = CARTESIAN_POINT ( 'NONE',  ( 13.99999999999999822, 5.265981236333618470E-15, 43.00000000000000000 ) ) ;
#328 = DATE_TIME_ROLE ( 'creation_date' ) ;
#329 = AXIS2_PLACEMENT_3D ( 'NONE', #296, #275, #398 ) ;
#330 = CYLINDRICAL_SURFACE ( 'NONE', #125, 35.75000000000000000 ) ;
#331 = DATE_AND_TIME ( #266, #155 ) ;
#332 = CC_DESIGN_PERSON_AND_ORGANIZATION_ASSIGNMENT ( #259, #397, ( #90 ) ) ;
#333 = ORIENTED_EDGE ( 'NONE', *, *, #166, .T. ) ;
#334 = COORDINATED_UNIVERSAL_TIME_OFFSET ( 1, 0, .AHEAD. ) ;
#335 = EDGE_CURVE ( 'NONE', #419, #380, #253, .T. ) ;
#336 = DIRECTION ( 'NONE',  ( -1.000000000000000000, -0.000000000000000000, -0.000000000000000000 ) ) ;
#337 = CARTESIAN_POINT ( 'NONE',  ( 31.00000000000000000, 4.378112306951787069E-15, -35.75000000000000000 ) ) ;
#338 = DIRECTION ( 'NONE',  ( 1.000000000000000000, 0.000000000000000000, 0.000000000000000000 ) ) ;
#339 = CARTESIAN_POINT ( 'NONE',  ( 32.00000000000000000, 0.000000000000000000, 0.000000000000000000 ) ) ;
#340 = APPROVAL_PERSON_ORGANIZATION ( #31, #388, #295 ) ;
#341 = CARTESIAN_POINT ( 'NONE',  ( 1.000000000000000888, 0.000000000000000000, 0.000000000000000000 ) ) ;
#342 = CARTESIAN_POINT ( 'NONE',  ( 13.99999999999999822, 0.000000000000000000, 0.000000000000000000 ) ) ;
#343 = AXIS2_PLACEMENT_3D ( 'NONE', #339, #347, #67 ) ;
#344 = DIRECTION ( 'NONE',  ( -1.000000000000000000, -0.000000000000000000, -0.000000000000000000 ) ) ;
#345 = LINE ( 'NONE', #172, #384 ) ;
#346 = PLANE ( 'NONE',  #175 ) ;
#347 = DIRECTION ( 'NONE',  ( -1.000000000000000000, -0.000000000000000000, -0.000000000000000000 ) ) ;
#348 = ORIENTED_EDGE ( 'NONE', *, *, #86, .F. ) ;
#349 = DIRECTION ( 'NONE',  ( 0.000000000000000000, 0.000000000000000000, 1.000000000000000000 ) ) ;
#350 = ORIENTED_EDGE ( 'NONE', *, *, #379, .T. ) ;
#351 = APPROVAL ( #65, 'UNSPECIFIED' ) ;
#352 = ORIENTED_EDGE ( 'NONE', *, *, #187, .T. ) ;
#353 = ORIENTED_EDGE ( 'NONE', *, *, #301, .T. ) ;
#354 = AXIS2_PLACEMENT_3D ( 'NONE', #126, #258, #91 ) ;
#355 = AXIS2_PLACEMENT_3D ( 'NONE', #410, #248, #71 ) ;
#356 = CARTESIAN_POINT ( 'NONE',  ( -16.64708581120227038, 0.000000000000000000, 33.00000000000000000 ) ) ;
#357 = APPROVAL_DATE_TIME ( #160, #131 ) ;
#358 = DIRECTION ( 'NONE',  ( 0.000000000000000000, 0.000000000000000000, 1.000000000000000000 ) ) ;
#359 = ORIENTED_EDGE ( 'NONE', *, *, #120, .T. ) ;
#360 = EDGE_CURVE ( 'NONE', #162, #252, #232, .T. ) ;
#361 = ORIENTED_EDGE ( 'NONE', *, *, #116, .T. ) ;
#362 = PERSON_AND_ORGANIZATION ( #306, #207 ) ;
#363 = DIRECTION ( 'NONE',  ( -0.000000000000000000, 0.000000000000000000, 1.000000000000000000 ) ) ;
#364 = APPLICATION_PROTOCOL_DEFINITION ( 'international standard', 'config_control_design', 1994, #165 ) ;
#365 = DIRECTION ( 'NONE',  ( -1.000000000000000000, -0.000000000000000000, -0.000000000000000000 ) ) ;
#366 = CARTESIAN_POINT ( 'NONE',  ( -16.64708581120227038, 4.378112306951787069E-15, -35.75000000000000000 ) ) ;
#367 = EDGE_CURVE ( 'NONE', #48, #196, #60, .T. ) ;
#368 = CYLINDRICAL_SURFACE ( 'NONE', #151, 35.75000000000000000 ) ;
#369 = AXIS2_PLACEMENT_3D ( 'NONE', #8, #167, #100 ) ;
#370 = DIRECTION ( 'NONE',  ( 1.000000000000000000, 0.000000000000000000, 0.000000000000000000 ) ) ;
#371 = DIRECTION ( 'NONE',  ( -1.000000000000000000, -0.000000000000000000, -0.000000000000000000 ) ) ;
#372 = CARTESIAN_POINT ( 'NONE',  ( 31.00000000000000000, 0.000000000000000000, 0.000000000000000000 ) ) ;
#373 = AXIS2_PLACEMENT_3D ( 'NONE', #141, #274, #209 ) ;
#374 = APPLICATION_PROTOCOL_DEFINITION ( 'international standard', 'config_control_design', 1994, #425 ) ;
#375 = DIRECTION ( 'NONE',  ( -1.000000000000000000, -0.000000000000000000, -0.000000000000000000 ) ) ;
#376 = VERTEX_POINT ( 'NONE', #303 ) ;
#377 = DIRECTION ( 'NONE',  ( 0.000000000000000000, 0.000000000000000000, 1.000000000000000000 ) ) ;
#378 = EDGE_LOOP ( 'NONE', ( #153, #97, #164, #353 ) ) ;
#379 = EDGE_CURVE ( 'NONE', #150, #78, #84, .T. ) ;
#380 = VERTEX_POINT ( 'NONE', #337 ) ;
#381 = ORIENTED_EDGE ( 'NONE', *, *, #415, .F. ) ;
#382 =( GEOMETRIC_REPRESENTATION_CONTEXT ( 3 ) GLOBAL_UNCERTAINTY_ASSIGNED_CONTEXT ( ( #93 ) ) GLOBAL_UNIT_ASSIGNED_CONTEXT ( ( #109, #299, #278 ) ) REPRESENTATION_CONTEXT ( 'NONE', 'WORKASPACE' ) );
#383 = ORIENTED_EDGE ( 'NONE', *, *, #395, .F. ) ;
#384 = VECTOR ( 'NONE', #143, 1000.000000000000227 ) ;
#385 = CIRCLE ( 'NONE', #290, 39.24871130596425672 ) ;
#386 = ADVANCED_FACE ( 'NONE', ( #137 ), #192, .T. ) ;
#387 = CALENDAR_DATE ( 2024, 5, 9 ) ;
#388 = APPROVAL ( #133, 'UNSPECIFIED' ) ;
#389 = ORIENTED_EDGE ( 'NONE', *, *, #166, .F. ) ;
#390 = LOCAL_TIME ( 11, 23, 9.000000000000000000, #171 ) ;
#391 = VECTOR ( 'NONE', #134, 1000.000000000000114 ) ;
#392 = ORIENTED_EDGE ( 'NONE', *, *, #291, .F. ) ;
#393 = ORIENTED_EDGE ( 'NONE', *, *, #335, .F. ) ;
#394 = SECURITY_CLASSIFICATION_LEVEL ( 'unclassified' ) ;
#395 = EDGE_CURVE ( 'NONE', #196, #184, #242, .T. ) ;
#396 = EDGE_LOOP ( 'NONE', ( #359, #333 ) ) ;
#397 = PERSON_AND_ORGANIZATION_ROLE ( 'creator' ) ;
#398 = DIRECTION ( 'NONE',  ( 0.000000000000000000, 0.000000000000000000, 1.000000000000000000 ) ) ;
#399 = CARTESIAN_POINT ( 'NONE',  ( 13.99999999999999822, 0.000000000000000000, 0.000000000000000000 ) ) ;
#400 = FACE_BOUND ( 'NONE', #234, .T. ) ;
#401 = ADVANCED_FACE ( 'NONE', ( #310, #215 ), #68, .F. ) ;
#402 = DIRECTION ( 'NONE',  ( -1.000000000000000000, 0.000000000000000000, -0.000000000000000000 ) ) ;
#403 = FACE_OUTER_BOUND ( 'NONE', #82, .T. ) ;
#404 = FACE_BOUND ( 'NONE', #263, .T. ) ;
#405 = CARTESIAN_POINT ( 'NONE',  ( 0.000000000000000000, 0.000000000000000000, 0.000000000000000000 ) ) ;
#406 = DIRECTION ( 'NONE',  ( 0.000000000000000000, 0.000000000000000000, 1.000000000000000000 ) ) ;
#407 = CIRCLE ( 'NONE', #260, 33.00000000000000000 ) ;
#408 = CARTESIAN_POINT ( 'NONE',  ( 13.99999999999999822, 5.265981236333618470E-15, 43.00000000000000000 ) ) ;
#409 = DIRECTION ( 'NONE',  ( 1.000000000000000000, 0.000000000000000000, 0.000000000000000000 ) ) ;
#410 = CARTESIAN_POINT ( 'NONE',  ( 32.00000000000000000, 0.000000000000000000, 0.000000000000000000 ) ) ;
#411 = CC_DESIGN_APPROVAL ( #131, ( #38 ) ) ;
#412 = PRODUCT_DEFINITION ( 'UNKNOWN', '', #90, #130 ) ;
#413 = DIRECTION ( 'NONE',  ( 0.000000000000000000, 0.000000000000000000, 1.000000000000000000 ) ) ;
#414 = ORIENTED_EDGE ( 'NONE', *, *, #291, .T. ) ;
#415 = EDGE_CURVE ( 'NONE', #182, #380, #106, .T. ) ;
#416 = ORIENTED_EDGE ( 'NONE', *, *, #122, .F. ) ;
#417 = ORIENTED_EDGE ( 'NONE', *, *, #32, .F. ) ;
#418 = CIRCLE ( 'NONE', #73, 33.00000000000000000 ) ;
#419 = VERTEX_POINT ( 'NONE', #269 ) ;
#420 = VECTOR ( 'NONE', #344, 1000.000000000000000 ) ;
#421 = CC_DESIGN_DATE_AND_TIME_ASSIGNMENT ( #63, #328, ( #412 ) ) ;
#422 = COORDINATED_UNIVERSAL_TIME_OFFSET ( 1, 0, .AHEAD. ) ;
#423 = ORIENTED_EDGE ( 'NONE', *, *, #89, .F. ) ;
#424 = APPROVAL_DATE_TIME ( #226, #351 ) ;
#425 = APPLICATION_CONTEXT ( 'configuration controlled 3d designs of mechanical parts and assemblies' ) ;
#426 = VERTEX_POINT ( 'NONE', #35 ) ;
#427 = CARTESIAN_POINT ( 'NONE',  ( 32.00000000000000000, 0.000000000000000000, 35.75000000000000000 ) ) ;
#428 = CALENDAR_DATE ( 2024, 5, 9 ) ;
#429 = CARTESIAN_POINT ( 'NONE',  ( 32.00000000000000000, 4.378112306951787069E-15, -35.75000000000000000 ) ) ;
ENDSEC;
END-ISO-10303-21;
