ISO-10303-21;
HEADER;
FILE_DESCRIPTION (( 'STEP AP203' ),
    '1' );
FILE_NAME ('3D_M2060_50-25_174121070.STEP',
    '2024-09-05T10:19:12',
    ( '' ),
    ( '' ),
    'SwSTEP 2.0',
    'SolidWorks 2024',
    '' );
FILE_SCHEMA (( 'CONFIG_CONTROL_DESIGN' ));
ENDSEC;

DATA;
#1 = ORIENTED_EDGE ( 'NONE', *, *, #11, .F. ) ;
#2 = EDGE_CURVE ( 'NONE', #41, #171, #68, .T. ) ;
#3 = EDGE_LOOP ( 'NONE', ( #223, #193 ) ) ;
#4 = DIRECTION ( 'NONE',  ( 0.000000000000000000, 0.000000000000000000, 1.000000000000000000 ) ) ;
#5 = CARTESIAN_POINT ( 'NONE',  ( 44.00000000000000000, 0.000000000000000000, 0.000000000000000000 ) ) ;
#6 = DIRECTION ( 'NONE',  ( 0.000000000000000000, 0.000000000000000000, 1.000000000000000000 ) ) ;
#7 = CIRCLE ( 'NONE', #76, 11.44521532941026720 ) ;
#8 = DESIGN_CONTEXT ( 'detailed design', #63, 'design' ) ;
#9 = PERSON_AND_ORGANIZATION_ROLE ( 'creator' ) ;
#10 = CALENDAR_DATE ( 2024, 5, 9 ) ;
#11 = EDGE_CURVE ( 'NONE', #41, #22, #160, .T. ) ;
#12 = APPROVAL_PERSON_ORGANIZATION ( #93, #91, #110 ) ;
#13 = AXIS2_PLACEMENT_3D ( 'NONE', #158, #213, #232 ) ;
#14 = APPROVAL_ROLE ( '' ) ;
#15 = AXIS2_PLACEMENT_3D ( 'NONE', #163, #236, #95 ) ;
#16 = APPROVAL_ROLE ( '' ) ;
#17 = DATE_AND_TIME ( #10, #124 ) ;
#18 = ORIENTED_EDGE ( 'NONE', *, *, #100, .T. ) ;
#19 = CARTESIAN_POINT ( 'NONE',  ( 44.00000000000000000, 0.000000000000000000, 13.00000000000000178 ) ) ;
#20 = APPROVAL_PERSON_ORGANIZATION ( #133, #157, #16 ) ;
#21 = AXIS2_PLACEMENT_3D ( 'NONE', #50, #161, #181 ) ;
#22 = VERTEX_POINT ( 'NONE', #81 ) ;
#23 = APPROVAL ( #152, 'UNSPECIFIED' ) ;
#24 = FACE_OUTER_BOUND ( 'NONE', #226, .T. ) ;
#25 = FACE_OUTER_BOUND ( 'NONE', #212, .T. ) ;
#26 = VECTOR ( 'NONE', #245, 1000.000000000000000 ) ;
#27 = CARTESIAN_POINT ( 'NONE',  ( 44.00000000000000000, 7.960204194457796463E-16, 13.00000000000000178 ) ) ;
#28 = APPROVAL_STATUS ( 'not_yet_approved' ) ;
#29 = CC_DESIGN_DATE_AND_TIME_ASSIGNMENT ( #220, #55, ( #173 ) ) ;
#30 = APPROVAL_DATE_TIME ( #204, #91 ) ;
#31 = ADVANCED_FACE ( 'NONE', ( #25 ), #125, .T. ) ;
#32 = DIRECTION ( 'NONE',  ( 0.000000000000000000, 0.000000000000000000, -1.000000000000000000 ) ) ;
#33 = CALENDAR_DATE ( 2024, 5, 9 ) ;
#34 = CC_DESIGN_APPROVAL ( #23, ( #173 ) ) ;
#35 = ORIENTED_EDGE ( 'NONE', *, *, #234, .T. ) ;
#36 = COORDINATED_UNIVERSAL_TIME_OFFSET ( 1, 0, .AHEAD. ) ;
#37 = AXIS2_PLACEMENT_3D ( 'NONE', #69, #218, #108 ) ;
#38 = VERTEX_POINT ( 'NONE', #42 ) ;
#39 = CARTESIAN_POINT ( 'NONE',  ( 0.000000000000000000, 0.000000000000000000, 0.000000000000000000 ) ) ;
#40 = CARTESIAN_POINT ( 'NONE',  ( 0.000000000000000000, 0.000000000000000000, 0.000000000000000000 ) ) ;
#41 = VERTEX_POINT ( 'NONE', #177 ) ;
#42 = CARTESIAN_POINT ( 'NONE',  ( 44.00000000000000000, 0.000000000000000000, 11.44521532941026720 ) ) ;
#43 = FACE_OUTER_BOUND ( 'NONE', #99, .T. ) ;
#44 = ORGANIZATION ( 'UNSPECIFIED', 'UNSPECIFIED', '' ) ;
#45 = AXIS2_PLACEMENT_3D ( 'NONE', #39, #141, #62 ) ;
#46 = CARTESIAN_POINT ( 'NONE',  ( 43.60532389131183351, 1.414816600049765688E-15, -11.55285426814340255 ) ) ;
#47 = MECHANICAL_CONTEXT ( 'NONE', #94, 'mechanical' ) ;
#48 = CARTESIAN_POINT ( 'NONE',  ( 0.000000000000000000, 0.000000000000000000, 0.000000000000000000 ) ) ;
#49 = ADVANCED_FACE ( 'NONE', ( #87, #43 ), #159, .T. ) ;
#50 = CARTESIAN_POINT ( 'NONE',  ( 44.00000000000000000, 0.000000000000000000, 0.000000000000000000 ) ) ;
#51 = CALENDAR_DATE ( 2024, 5, 9 ) ;
#52 = CONICAL_SURFACE ( 'NONE', #146, 11.55285426814340255, 0.2662520491509253739 ) ;
#53 = UNCERTAINTY_MEASURE_WITH_UNIT (LENGTH_MEASURE( 1.000000000000000082E-05 ), #201, 'distance_accuracy_value', 'NONE');
#54 = PERSON_AND_ORGANIZATION ( #139, #44 ) ;
#55 = DATE_TIME_ROLE ( 'classification_date' ) ;
#56 = ORIENTED_EDGE ( 'NONE', *, *, #79, .F. ) ;
#57 = EDGE_CURVE ( 'NONE', #22, #194, #166, .T. ) ;
#58 = AXIS2_PLACEMENT_3D ( 'NONE', #40, #230, #215 ) ;
#59 = DIRECTION ( 'NONE',  ( 0.000000000000000000, 0.000000000000000000, -1.000000000000000000 ) ) ;
#60 = PRODUCT_RELATED_PRODUCT_CATEGORY ( 'detail', '', ( #72 ) ) ;
#61 = EDGE_LOOP ( 'NONE', ( #86, #136, #174, #249 ) ) ;
#62 = DIRECTION ( 'NONE',  ( 0.000000000000000000, 0.000000000000000000, -1.000000000000000000 ) ) ;
#63 = APPLICATION_CONTEXT ( 'configuration controlled 3d designs of mechanical parts and assemblies' ) ;
#64 = CARTESIAN_POINT ( 'NONE',  ( 44.00000000000000000, 1.592040838891559293E-15, -13.00000000000000178 ) ) ;
#65 = CARTESIAN_POINT ( 'NONE',  ( 0.000000000000000000, 0.000000000000000000, 0.000000000000000000 ) ) ;
#66 = DIRECTION ( 'NONE',  ( -1.000000000000000000, -0.000000000000000000, -0.000000000000000000 ) ) ;
#67 = CC_DESIGN_APPROVAL ( #157, ( #82 ) ) ;
#68 = CIRCLE ( 'NONE', #227, 13.00000000000000178 ) ;
#69 = CARTESIAN_POINT ( 'NONE',  ( 44.00000000000000000, 0.000000000000000000, 0.000000000000000000 ) ) ;
#70 = CC_DESIGN_PERSON_AND_ORGANIZATION_ASSIGNMENT ( #185, #9, ( #222 ) ) ;
#71 = FACE_OUTER_BOUND ( 'NONE', #123, .T. ) ;
#72 = PRODUCT ( '3D_M2060_50-25_174121070', '3D_M2060_50-25_174121070', '', ( #47 ) ) ;
#73 = FACE_OUTER_BOUND ( 'NONE', #208, .T. ) ;
#74 = PERSON_AND_ORGANIZATION ( #139, #44 ) ;
#75 = VERTEX_POINT ( 'NONE', #155 ) ;
#76 = AXIS2_PLACEMENT_3D ( 'NONE', #5, #144, #128 ) ;
#77 = PERSON_AND_ORGANIZATION ( #139, #44 ) ;
#78 = APPROVAL_DATE_TIME ( #207, #23 ) ;
#79 = EDGE_CURVE ( 'NONE', #194, #22, #240, .T. ) ;
#80 = ORIENTED_EDGE ( 'NONE', *, *, #234, .F. ) ;
#81 = CARTESIAN_POINT ( 'NONE',  ( 0.000000000000000000, 4.592425496802574367E-15, -25.00000000000000000 ) ) ;
#82 = PRODUCT_DEFINITION_FORMATION_WITH_SPECIFIED_SOURCE ( 'ANY', '', #72, .NOT_KNOWN. ) ;
#83 = CLOSED_SHELL ( 'NONE', ( #217, #176, #49, #106, #31, #224 ) ) ;
#84 = ORIENTED_EDGE ( 'NONE', *, *, #11, .T. ) ;
#85 = CIRCLE ( 'NONE', #37, 11.44521532941026720 ) ;
#86 = ORIENTED_EDGE ( 'NONE', *, *, #209, .T. ) ;
#87 = FACE_BOUND ( 'NONE', #244, .T. ) ;
#88 = DIRECTION ( 'NONE',  ( 1.000000000000000000, 0.000000000000000000, 0.000000000000000000 ) ) ;
#89 = PERSON_AND_ORGANIZATION ( #139, #44 ) ;
#90 = DIRECTION ( 'NONE',  ( 1.000000000000000000, 0.000000000000000000, 0.000000000000000000 ) ) ;
#91 = APPROVAL ( #28, 'UNSPECIFIED' ) ;
#92 = CARTESIAN_POINT ( 'NONE',  ( 0.000000000000000000, -1.530808498934191521E-15, 25.00000000000000000 ) ) ;
#93 = PERSON_AND_ORGANIZATION ( #139, #44 ) ;
#94 = APPLICATION_CONTEXT ( 'configuration controlled 3d designs of mechanical parts and assemblies' ) ;
#95 = DIRECTION ( 'NONE',  ( 0.000000000000000000, 0.000000000000000000, 1.000000000000000000 ) ) ;
#96 = LOCAL_TIME ( 12, 19, 12.00000000000000000, #36 ) ;
#97 = COORDINATED_UNIVERSAL_TIME_OFFSET ( 1, 0, .AHEAD. ) ;
#98 = VECTOR ( 'NONE', #118, 1000.000000000000000 ) ;
#99 = EDGE_LOOP ( 'NONE', ( #169, #178 ) ) ;
#100 = EDGE_CURVE ( 'NONE', #171, #194, #195, .T. ) ;
#101 = ORIENTED_EDGE ( 'NONE', *, *, #192, .F. ) ;
#102 = LOCAL_TIME ( 12, 19, 12.00000000000000000, #167 ) ;
#103 = ORIENTED_EDGE ( 'NONE', *, *, #184, .F. ) ;
#104 = CARTESIAN_POINT ( 'NONE',  ( 0.000000000000000000, 0.000000000000000000, 0.000000000000000000 ) ) ;
#105 = DIRECTION ( 'NONE',  ( 0.000000000000000000, 0.000000000000000000, -1.000000000000000000 ) ) ;
#106 = ADVANCED_FACE ( 'NONE', ( #214, #24 ), #121, .F. ) ;
#107 = ORIENTED_EDGE ( 'NONE', *, *, #100, .F. ) ;
#108 = DIRECTION ( 'NONE',  ( 0.000000000000000000, 0.000000000000000000, -1.000000000000000000 ) ) ;
#109 = CC_DESIGN_PERSON_AND_ORGANIZATION_ASSIGNMENT ( #89, #126, ( #72 ) ) ;
#110 = APPROVAL_ROLE ( '' ) ;
#111 = LOCAL_TIME ( 12, 19, 12.00000000000000000, #164 ) ;
#112 = AXIS2_PLACEMENT_3D ( 'NONE', #183, #90, #32 ) ;
#113 = PERSON_AND_ORGANIZATION ( #139, #44 ) ;
#114 = CC_DESIGN_PERSON_AND_ORGANIZATION_ASSIGNMENT ( #77, #225, ( #173 ) ) ;
#115 = APPROVAL_STATUS ( 'not_yet_approved' ) ;
#116 = VERTEX_POINT ( 'NONE', #248 ) ;
#117 = ORIENTED_EDGE ( 'NONE', *, *, #57, .F. ) ;
#118 = DIRECTION ( 'NONE',  ( -0.9647638212377321887, 0.000000000000000000, 0.2631174057921087939 ) ) ;
#119 = CONICAL_SURFACE ( 'NONE', #221, 13.00000000000000178, 0.2662520491509253739 ) ;
#120 = CARTESIAN_POINT ( 'NONE',  ( 44.00000000000000000, 0.000000000000000000, 0.000000000000000000 ) ) ;
#121 = PLANE ( 'NONE',  #247 ) ;
#122 = EDGE_CURVE ( 'NONE', #38, #116, #179, .T. ) ;
#123 = EDGE_LOOP ( 'NONE', ( #134, #35, #229, #103 ) ) ;
#124 = LOCAL_TIME ( 12, 19, 12.00000000000000000, #219 ) ;
#125 = CONICAL_SURFACE ( 'NONE', #200, 13.00000000000000178, 0.2662520491509253739 ) ;
#126 = PERSON_AND_ORGANIZATION_ROLE ( 'design_owner' ) ;
#127 = CALENDAR_DATE ( 2024, 5, 9 ) ;
#128 = DIRECTION ( 'NONE',  ( 0.000000000000000000, 0.000000000000000000, -1.000000000000000000 ) ) ;
#129 = APPROVAL_PERSON_ORGANIZATION ( #113, #23, #14 ) ;
#130 = CIRCLE ( 'NONE', #112, 23.44521532941026720 ) ;
#131 = DATE_AND_TIME ( #51, #154 ) ;
#132 = CC_DESIGN_PERSON_AND_ORGANIZATION_ASSIGNMENT ( #74, #210, ( #82 ) ) ;
#133 = PERSON_AND_ORGANIZATION ( #139, #44 ) ;
#134 = ORIENTED_EDGE ( 'NONE', *, *, #172, .F. ) ;
#135 = CONICAL_SURFACE ( 'NONE', #15, 11.55285426814340255, 0.2662520491509253739 ) ;
#136 = ORIENTED_EDGE ( 'NONE', *, *, #172, .T. ) ;
#137 = DIRECTION ( 'NONE',  ( 0.000000000000000000, 0.000000000000000000, 1.000000000000000000 ) ) ;
#138 = DIRECTION ( 'NONE',  ( -1.000000000000000000, -0.000000000000000000, -0.000000000000000000 ) ) ;
#139 = PERSON ( 'UNSPECIFIED', 'UNSPECIFIED', 'UNSPECIFIED', ('UNSPECIFIED'), ('UNSPECIFIED'), ('UNSPECIFIED') ) ;
#140 = CARTESIAN_POINT ( 'NONE',  ( 44.00000000000000000, 0.000000000000000000, 0.000000000000000000 ) ) ;
#141 = DIRECTION ( 'NONE',  ( 1.000000000000000000, 0.000000000000000000, 0.000000000000000000 ) ) ;
#142 = EDGE_CURVE ( 'NONE', #116, #75, #147, .T. ) ;
#143 = DIRECTION ( 'NONE',  ( 1.000000000000000000, 0.000000000000000000, 0.000000000000000000 ) ) ;
#144 = DIRECTION ( 'NONE',  ( 1.000000000000000000, 0.000000000000000000, 0.000000000000000000 ) ) ;
#145 = CC_DESIGN_APPROVAL ( #91, ( #222 ) ) ;
#146 = AXIS2_PLACEMENT_3D ( 'NONE', #202, #205, #180 ) ;
#147 = CIRCLE ( 'NONE', #175, 23.44521532941026720 ) ;
#148 =( NAMED_UNIT ( * ) PLANE_ANGLE_UNIT ( ) SI_UNIT ( $, .RADIAN. ) );
#149 =( NAMED_UNIT ( * ) SI_UNIT ( $, .STERADIAN. ) SOLID_ANGLE_UNIT ( ) );
#150 = APPLICATION_PROTOCOL_DEFINITION ( 'international standard', 'config_control_design', 1994, #94 ) ;
#151 = ADVANCED_BREP_SHAPE_REPRESENTATION ( '3D_M2060_50-25_174121070', ( #196, #198 ), #246 ) ;
#152 = APPROVAL_STATUS ( 'not_yet_approved' ) ;
#153 = ORIENTED_EDGE ( 'NONE', *, *, #57, .T. ) ;
#154 = LOCAL_TIME ( 12, 19, 12.00000000000000000, #97 ) ;
#155 = CARTESIAN_POINT ( 'NONE',  ( 0.000000000000000000, 2.871210790848274185E-15, -23.44521532941026720 ) ) ;
#156 = VERTEX_POINT ( 'NONE', #199 ) ;
#157 = APPROVAL ( #115, 'UNSPECIFIED' ) ;
#158 = CARTESIAN_POINT ( 'NONE',  ( 44.00000000000000000, 0.000000000000000000, 0.000000000000000000 ) ) ;
#159 = PLANE ( 'NONE',  #13 ) ;
#160 = LINE ( 'NONE', #64, #26 ) ;
#161 = DIRECTION ( 'NONE',  ( 1.000000000000000000, 0.000000000000000000, 0.000000000000000000 ) ) ;
#162 = FACE_OUTER_BOUND ( 'NONE', #61, .T. ) ;
#163 = CARTESIAN_POINT ( 'NONE',  ( 43.60532389131183351, 0.000000000000000000, 0.000000000000000000 ) ) ;
#164 = COORDINATED_UNIVERSAL_TIME_OFFSET ( 1, 0, .AHEAD. ) ;
#165 = DIRECTION ( 'NONE',  ( -0.9647638212377321887, 3.222258888032613123E-17, -0.2631174057921087939 ) ) ;
#166 = CIRCLE ( 'NONE', #45, 25.00000000000000000 ) ;
#167 = COORDINATED_UNIVERSAL_TIME_OFFSET ( 1, 0, .AHEAD. ) ;
#168 = APPROVAL_DATE_TIME ( #131, #157 ) ;
#169 = ORIENTED_EDGE ( 'NONE', *, *, #192, .T. ) ;
#170 = DATE_TIME_ROLE ( 'creation_date' ) ;
#171 = VERTEX_POINT ( 'NONE', #27 ) ;
#172 = EDGE_CURVE ( 'NONE', #156, #75, #237, .T. ) ;
#173 = SECURITY_CLASSIFICATION ( '', '', #190 ) ;
#174 = ORIENTED_EDGE ( 'NONE', *, *, #142, .F. ) ;
#175 = AXIS2_PLACEMENT_3D ( 'NONE', #65, #143, #216 ) ;
#176 = ADVANCED_FACE ( 'NONE', ( #73 ), #119, .T. ) ;
#177 = CARTESIAN_POINT ( 'NONE',  ( 44.00000000000000000, 7.960204194457796463E-16, -13.00000000000000178 ) ) ;
#178 = ORIENTED_EDGE ( 'NONE', *, *, #2, .T. ) ;
#179 = LINE ( 'NONE', #228, #187 ) ;
#180 = DIRECTION ( 'NONE',  ( 0.000000000000000000, 0.000000000000000000, 1.000000000000000000 ) ) ;
#181 = DIRECTION ( 'NONE',  ( 0.000000000000000000, 0.000000000000000000, -1.000000000000000000 ) ) ;
#182 = CIRCLE ( 'NONE', #21, 13.00000000000000178 ) ;
#183 = CARTESIAN_POINT ( 'NONE',  ( 0.000000000000000000, 0.000000000000000000, 0.000000000000000000 ) ) ;
#184 = EDGE_CURVE ( 'NONE', #75, #116, #130, .T. ) ;
#185 = PERSON_AND_ORGANIZATION ( #139, #44 ) ;
#186 = CC_DESIGN_SECURITY_CLASSIFICATION ( #173, ( #82 ) ) ;
#187 = VECTOR ( 'NONE', #233, 1000.000000000000000 ) ;
#188 = PERSON_AND_ORGANIZATION_ROLE ( 'creator' ) ;
#189 = SHAPE_DEFINITION_REPRESENTATION ( #238, #151 ) ;
#190 = SECURITY_CLASSIFICATION_LEVEL ( 'unclassified' ) ;
#191 = ORIENTED_EDGE ( 'NONE', *, *, #2, .F. ) ;
#192 = EDGE_CURVE ( 'NONE', #171, #41, #182, .T. ) ;
#193 = ORIENTED_EDGE ( 'NONE', *, *, #184, .T. ) ;
#194 = VERTEX_POINT ( 'NONE', #92 ) ;
#195 = LINE ( 'NONE', #19, #98 ) ;
#196 = MANIFOLD_SOLID_BREP ( 'Wandung2', #83 ) ;
#197 = DIRECTION ( 'NONE',  ( 1.000000000000000000, 0.000000000000000000, 0.000000000000000000 ) ) ;
#198 = AXIS2_PLACEMENT_3D ( 'NONE', #48, #4, #239 ) ;
#199 = CARTESIAN_POINT ( 'NONE',  ( 44.00000000000000000, 2.136422711359862507E-15, -11.44521532941026720 ) ) ;
#200 = AXIS2_PLACEMENT_3D ( 'NONE', #140, #138, #137 ) ;
#201 =( LENGTH_UNIT ( ) NAMED_UNIT ( * ) SI_UNIT ( .MILLI., .METRE. ) );
#202 = CARTESIAN_POINT ( 'NONE',  ( 43.60532389131183351, 0.000000000000000000, 0.000000000000000000 ) ) ;
#203 = APPLICATION_PROTOCOL_DEFINITION ( 'international standard', 'config_control_design', 1994, #63 ) ;
#204 = DATE_AND_TIME ( #127, #111 ) ;
#205 = DIRECTION ( 'NONE',  ( -1.000000000000000000, -0.000000000000000000, -0.000000000000000000 ) ) ;
#206 = VECTOR ( 'NONE', #165, 1000.000000000000000 ) ;
#207 = DATE_AND_TIME ( #33, #102 ) ;
#208 = EDGE_LOOP ( 'NONE', ( #191, #84, #153, #107 ) ) ;
#209 = EDGE_CURVE ( 'NONE', #38, #156, #7, .T. ) ;
#210 = PERSON_AND_ORGANIZATION_ROLE ( 'design_supplier' ) ;
#211 = ORIENTED_EDGE ( 'NONE', *, *, #209, .F. ) ;
#212 = EDGE_LOOP ( 'NONE', ( #1, #101, #18, #243 ) ) ;
#213 = DIRECTION ( 'NONE',  ( 1.000000000000000000, 0.000000000000000000, 0.000000000000000000 ) ) ;
#214 = FACE_BOUND ( 'NONE', #3, .T. ) ;
#215 = DIRECTION ( 'NONE',  ( 0.000000000000000000, 0.000000000000000000, -1.000000000000000000 ) ) ;
#216 = DIRECTION ( 'NONE',  ( 0.000000000000000000, 0.000000000000000000, -1.000000000000000000 ) ) ;
#217 = ADVANCED_FACE ( 'NONE', ( #162 ), #52, .F. ) ;
#218 = DIRECTION ( 'NONE',  ( 1.000000000000000000, 0.000000000000000000, 0.000000000000000000 ) ) ;
#219 = COORDINATED_UNIVERSAL_TIME_OFFSET ( 1, 0, .AHEAD. ) ;
#220 = DATE_AND_TIME ( #242, #96 ) ;
#221 = AXIS2_PLACEMENT_3D ( 'NONE', #235, #66, #6 ) ;
#222 = PRODUCT_DEFINITION ( 'UNKNOWN', '', #82, #8 ) ;
#223 = ORIENTED_EDGE ( 'NONE', *, *, #142, .T. ) ;
#224 = ADVANCED_FACE ( 'NONE', ( #71 ), #135, .F. ) ;
#225 = PERSON_AND_ORGANIZATION_ROLE ( 'classification_officer' ) ;
#226 = EDGE_LOOP ( 'NONE', ( #56, #117 ) ) ;
#227 = AXIS2_PLACEMENT_3D ( 'NONE', #120, #88, #59 ) ;
#228 = CARTESIAN_POINT ( 'NONE',  ( 43.60532389131183351, 0.000000000000000000, 11.55285426814340255 ) ) ;
#229 = ORIENTED_EDGE ( 'NONE', *, *, #122, .T. ) ;
#230 = DIRECTION ( 'NONE',  ( 1.000000000000000000, 0.000000000000000000, 0.000000000000000000 ) ) ;
#231 = CC_DESIGN_PERSON_AND_ORGANIZATION_ASSIGNMENT ( #54, #188, ( #82 ) ) ;
#232 = DIRECTION ( 'NONE',  ( 0.000000000000000000, 0.000000000000000000, -1.000000000000000000 ) ) ;
#233 = DIRECTION ( 'NONE',  ( -0.9647638212377321887, 0.000000000000000000, 0.2631174057921087939 ) ) ;
#234 = EDGE_CURVE ( 'NONE', #156, #38, #85, .T. ) ;
#235 = CARTESIAN_POINT ( 'NONE',  ( 44.00000000000000000, 0.000000000000000000, 0.000000000000000000 ) ) ;
#236 = DIRECTION ( 'NONE',  ( -1.000000000000000000, -0.000000000000000000, -0.000000000000000000 ) ) ;
#237 = LINE ( 'NONE', #46, #206 ) ;
#238 = PRODUCT_DEFINITION_SHAPE ( 'NONE', 'NONE',  #222 ) ;
#239 = DIRECTION ( 'NONE',  ( 1.000000000000000000, 0.000000000000000000, 0.000000000000000000 ) ) ;
#240 = CIRCLE ( 'NONE', #58, 25.00000000000000000 ) ;
#241 = CC_DESIGN_DATE_AND_TIME_ASSIGNMENT ( #17, #170, ( #222 ) ) ;
#242 = CALENDAR_DATE ( 2024, 5, 9 ) ;
#243 = ORIENTED_EDGE ( 'NONE', *, *, #79, .T. ) ;
#244 = EDGE_LOOP ( 'NONE', ( #211, #80 ) ) ;
#245 = DIRECTION ( 'NONE',  ( -0.9647638212377321887, 3.222258888032613123E-17, -0.2631174057921087939 ) ) ;
#246 =( GEOMETRIC_REPRESENTATION_CONTEXT ( 3 ) GLOBAL_UNCERTAINTY_ASSIGNED_CONTEXT ( ( #53 ) ) GLOBAL_UNIT_ASSIGNED_CONTEXT ( ( #201, #148, #149 ) ) REPRESENTATION_CONTEXT ( 'NONE', 'WORKASPACE' ) );
#247 = AXIS2_PLACEMENT_3D ( 'NONE', #104, #197, #105 ) ;
#248 = CARTESIAN_POINT ( 'NONE',  ( 0.000000000000000000, 0.000000000000000000, 23.44521532941026720 ) ) ;
#249 = ORIENTED_EDGE ( 'NONE', *, *, #122, .F. ) ;
ENDSEC;
END-ISO-10303-21;
