ISO-10303-21;
HEADER;
FILE_DESCRIPTION (( 'STEP AP203' ),
    '1' );
FILE_NAME ('3D_GR1392_DN26.9x2_18380120.STEP',
    '2024-09-21T10:14:10',
    ( '' ),
    ( '' ),
    'SwSTEP 2.0',
    'SolidWorks 2024',
    '' );
FILE_SCHEMA (( 'CONFIG_CONTROL_DESIGN' ));
ENDSEC;

DATA;
#1 = DIRECTION ( 'NONE',  ( -0.000000000000000000, 0.000000000000000000, 1.000000000000000000 ) ) ;
#2 = CARTESIAN_POINT ( 'NONE',  ( -2.000000000000001776, 0.000000000000000000, 13.45000000000001705 ) ) ;
#3 = EDGE_CURVE ( 'NONE', #285, #262, #114, .T. ) ;
#4 = DATE_TIME_ROLE ( 'creation_date' ) ;
#5 = CONICAL_SURFACE ( 'NONE', #270, 10.45000000000002061, 0.7853981633974491672 ) ;
#6 = ORIENTED_EDGE ( 'NONE', *, *, #3, .F. ) ;
#7 = PERSON_AND_ORGANIZATION ( #105, #76 ) ;
#8 =( NAMED_UNIT ( * ) SI_UNIT ( $, .STERADIAN. ) SOLID_ANGLE_UNIT ( ) );
#9 = ORIENTED_EDGE ( 'NONE', *, *, #157, .F. ) ;
#10 = EDGE_CURVE ( 'NONE', #93, #74, #18, .T. ) ;
#11 = CARTESIAN_POINT ( 'NONE',  ( 13.59024999999994954, 8.673617379884035472E-16, 0.000000000000000000 ) ) ;
#12 = ORIENTED_EDGE ( 'NONE', *, *, #30, .F. ) ;
#13 = DIRECTION ( 'NONE',  ( -1.000000000000000000, -0.000000000000000000, -0.000000000000000000 ) ) ;
#14 = SPHERICAL_SURFACE ( 'NONE', #110, 20.59024999999996908 ) ;
#15 = PRODUCT_DEFINITION_FORMATION_WITH_SPECIFIED_SOURCE ( 'ANY', '', #238, .NOT_KNOWN. ) ;
#16 = CARTESIAN_POINT ( 'NONE',  ( -154.8395502972293230, 0.000000000000000000, 0.000000000000000000 ) ) ;
#17 = APPROVAL_STATUS ( 'not_yet_approved' ) ;
#18 = LINE ( 'NONE', #100, #164 ) ;
#19 = ADVANCED_FACE ( 'NONE', ( #321 ), #51, .T. ) ;
#20 = ORIENTED_EDGE ( 'NONE', *, *, #297, .T. ) ;
#21 = ORIENTED_EDGE ( 'NONE', *, *, #56, .F. ) ;
#22 = AXIS2_PLACEMENT_3D ( 'NONE', #292, #216, #70 ) ;
#23 = AXIS2_PLACEMENT_3D ( 'NONE', #324, #248, #345 ) ;
#24 = APPROVAL_PERSON_ORGANIZATION ( #57, #92, #78 ) ;
#25 = CARTESIAN_POINT ( 'NONE',  ( -2.000000000000001776, 13.45000000000001350, 0.000000000000000000 ) ) ;
#26 = EDGE_CURVE ( 'NONE', #262, #285, #83, .T. ) ;
#27 = CIRCLE ( 'NONE', #127, 13.45000000000001705 ) ;
#28 = PERSON_AND_ORGANIZATION_ROLE ( 'classification_officer' ) ;
#29 = DIRECTION ( 'NONE',  ( -0.000000000000000000, 0.000000000000000000, -1.000000000000000000 ) ) ;
#30 = EDGE_CURVE ( 'NONE', #93, #228, #287, .T. ) ;
#31 = PERSON_AND_ORGANIZATION_ROLE ( 'creator' ) ;
#32 = DIRECTION ( 'NONE',  ( 0.000000000000000000, 0.000000000000000000, 1.000000000000000000 ) ) ;
#33 = DATE_AND_TIME ( #306, #138 ) ;
#34 = CONICAL_SURFACE ( 'NONE', #318, 10.45000000000002061, 0.7853981633974491672 ) ;
#35 = DIRECTION ( 'NONE',  ( -1.000000000000000000, -0.000000000000000000, -0.000000000000000000 ) ) ;
#36 = EDGE_LOOP ( 'NONE', ( #41, #133, #242, #180 ) ) ;
#37 = COORDINATED_UNIVERSAL_TIME_OFFSET ( 1, 0, .AHEAD. ) ;
#38 = DIRECTION ( 'NONE',  ( 0.000000000000000000, 0.000000000000000000, 1.000000000000000000 ) ) ;
#39 = ORIENTED_EDGE ( 'NONE', *, *, #107, .T. ) ;
#40 = ADVANCED_FACE ( 'NONE', ( #130 ), #125, .T. ) ;
#41 = ORIENTED_EDGE ( 'NONE', *, *, #62, .T. ) ;
#42 = CC_DESIGN_APPROVAL ( #151, ( #178 ) ) ;
#43 = ORIENTED_EDGE ( 'NONE', *, *, #286, .F. ) ;
#44 = DIRECTION ( 'NONE',  ( -1.000000000000000000, -0.000000000000000000, -0.000000000000000000 ) ) ;
#45 = DIRECTION ( 'NONE',  ( 0.000000000000000000, 0.000000000000000000, 1.000000000000000000 ) ) ;
#46 = PERSON_AND_ORGANIZATION_ROLE ( 'design_owner' ) ;
#47 = AXIS2_PLACEMENT_3D ( 'NONE', #77, #278, #1 ) ;
#48 = EDGE_LOOP ( 'NONE', ( #6, #233 ) ) ;
#49 = EDGE_CURVE ( 'NONE', #131, #234, #347, .T. ) ;
#50 = CARTESIAN_POINT ( 'NONE',  ( -2.775557561562891351E-14, 0.000000000000000000, 0.000000000000000000 ) ) ;
#51 = CYLINDRICAL_SURFACE ( 'NONE', #308, 13.45000000000001705 ) ;
#52 = AXIS2_PLACEMENT_3D ( 'NONE', #330, #240, #200 ) ;
#53 = DIRECTION ( 'NONE',  ( 0.000000000000000000, 0.000000000000000000, 1.000000000000000000 ) ) ;
#54 = FACE_OUTER_BOUND ( 'NONE', #309, .T. ) ;
#55 = CARTESIAN_POINT ( 'NONE',  ( 7.999999999999979572, 0.000000000000000000, 10.45000000000002061 ) ) ;
#56 = EDGE_CURVE ( 'NONE', #234, #154, #249, .T. ) ;
#57 = PERSON_AND_ORGANIZATION ( #105, #76 ) ;
#58 = ORIENTED_EDGE ( 'NONE', *, *, #107, .F. ) ;
#59 = AXIS2_PLACEMENT_3D ( 'NONE', #337, #315, #313 ) ;
#60 = DIRECTION ( 'NONE',  ( -0.000000000000000000, 0.000000000000000000, -1.000000000000000000 ) ) ;
#61 = ORIENTED_EDGE ( 'NONE', *, *, #26, .T. ) ;
#62 = EDGE_CURVE ( 'NONE', #147, #106, #203, .T. ) ;
#63 = EDGE_LOOP ( 'NONE', ( #179, #43 ) ) ;
#64 = VECTOR ( 'NONE', #220, 1000.000000000000000 ) ;
#65 = EDGE_CURVE ( 'NONE', #147, #228, #73, .T. ) ;
#66 = ORIENTED_EDGE ( 'NONE', *, *, #247, .F. ) ;
#67 = CYLINDRICAL_SURFACE ( 'NONE', #291, 11.45000000000002061 ) ;
#68 = CARTESIAN_POINT ( 'NONE',  ( 13.59024999999994954, 8.673617379884035472E-16, 0.000000000000000000 ) ) ;
#69 = FACE_OUTER_BOUND ( 'NONE', #36, .T. ) ;
#70 = DIRECTION ( 'NONE',  ( 0.000000000000000000, 0.000000000000000000, 1.000000000000000000 ) ) ;
#71 = AXIS2_PLACEMENT_3D ( 'NONE', #108, #75, #53 ) ;
#72 = DIRECTION ( 'NONE',  ( -0.7071067811865469066, 0.000000000000000000, 0.7071067811865482389 ) ) ;
#73 = LINE ( 'NONE', #210, #245 ) ;
#74 = VERTEX_POINT ( 'NONE', #267 ) ;
#75 = DIRECTION ( 'NONE',  ( -1.000000000000000000, -0.000000000000000000, -0.000000000000000000 ) ) ;
#76 = ORGANIZATION ( 'UNSPECIFIED', 'UNSPECIFIED', '' ) ;
#77 = CARTESIAN_POINT ( 'NONE',  ( 7.999999999999983125, 8.875796951589162995E-16, 0.000000000000000000 ) ) ;
#78 = APPROVAL_ROLE ( '' ) ;
#79 = FACE_OUTER_BOUND ( 'NONE', #120, .T. ) ;
#80 = CC_DESIGN_PERSON_AND_ORGANIZATION_ASSIGNMENT ( #351, #28, ( #182 ) ) ;
#81 = MANIFOLD_SOLID_BREP ( 'Rotation1', #212 ) ;
#82 = DIRECTION ( 'NONE',  ( 0.000000000000000000, 1.000000000000000000, 0.000000000000000000 ) ) ;
#83 = CIRCLE ( 'NONE', #171, 13.45000000000001883 ) ;
#84 = CARTESIAN_POINT ( 'NONE',  ( -2.000000000000001776, 1.647149944853192160E-15, -13.45000000000001705 ) ) ;
#85 = APPROVAL_STATUS ( 'not_yet_approved' ) ;
#86 = DIRECTION ( 'NONE',  ( -1.000000000000000000, -0.000000000000000000, -0.000000000000000000 ) ) ;
#87 = VERTEX_POINT ( 'NONE', #339 ) ;
#88 = SECURITY_CLASSIFICATION_LEVEL ( 'unclassified' ) ;
#89 = APPLICATION_PROTOCOL_DEFINITION ( 'international standard', 'config_control_design', 1994, #135 ) ;
#90 = AXIS2_PLACEMENT_3D ( 'NONE', #271, #246, #295 ) ;
#91 = ORIENTED_EDGE ( 'NONE', *, *, #10, .T. ) ;
#92 = APPROVAL ( #118, 'UNSPECIFIED' ) ;
#93 = VERTEX_POINT ( 'NONE', #187 ) ;
#94 = PRODUCT_RELATED_PRODUCT_CATEGORY ( 'detail', '', ( #238 ) ) ;
#95 = MECHANICAL_CONTEXT ( 'NONE', #254, 'mechanical' ) ;
#96 = AXIS2_PLACEMENT_3D ( 'NONE', #185, #338, #229 ) ;
#97 = ORIENTED_EDGE ( 'NONE', *, *, #169, .T. ) ;
#98 = DIRECTION ( 'NONE',  ( 0.000000000000000000, 0.000000000000000000, 1.000000000000000000 ) ) ;
#99 = ORIENTED_EDGE ( 'NONE', *, *, #49, .F. ) ;
#100 = CARTESIAN_POINT ( 'NONE',  ( -154.8395502972293230, 1.402220585023722061E-15, -11.45000000000002061 ) ) ;
#101 = EDGE_CURVE ( 'NONE', #74, #87, #214, .T. ) ;
#102 = UNCERTAINTY_MEASURE_WITH_UNIT (LENGTH_MEASURE( 1.000000000000000082E-05 ), #288, 'distance_accuracy_value', 'NONE');
#103 = VECTOR ( 'NONE', #126, 1000.000000000000000 ) ;
#104 = ORIENTED_EDGE ( 'NONE', *, *, #304, .T. ) ;
#105 = PERSON ( 'UNSPECIFIED', 'UNSPECIFIED', 'UNSPECIFIED', ('UNSPECIFIED'), ('UNSPECIFIED'), ('UNSPECIFIED') ) ;
#106 = VERTEX_POINT ( 'NONE', #346 ) ;
#107 = EDGE_CURVE ( 'NONE', #333, #154, #181, .T. ) ;
#108 = CARTESIAN_POINT ( 'NONE',  ( -154.8395502972293230, 0.000000000000000000, 0.000000000000000000 ) ) ;
#109 = PLANE ( 'NONE',  #47 ) ;
#110 = AXIS2_PLACEMENT_3D ( 'NONE', #11, #60, #281 ) ;
#111 = DIRECTION ( 'NONE',  ( -1.000000000000000000, -0.000000000000000000, -0.000000000000000000 ) ) ;
#112 = CALENDAR_DATE ( 2024, 21, 9 ) ;
#113 = CARTESIAN_POINT ( 'NONE',  ( -2.000000000000001776, 0.000000000000000000, 0.000000000000000000 ) ) ;
#114 = CIRCLE ( 'NONE', #22, 13.45000000000001883 ) ;
#115 = CIRCLE ( 'NONE', #312, 11.45000000000002238 ) ;
#116 = LINE ( 'NONE', #208, #103 ) ;
#117 = VERTEX_POINT ( 'NONE', #84 ) ;
#118 = APPROVAL_STATUS ( 'not_yet_approved' ) ;
#119 = DIRECTION ( 'NONE',  ( 1.000000000000000000, 0.000000000000000000, 0.000000000000000000 ) ) ;
#120 = EDGE_LOOP ( 'NONE', ( #204, #61, #231, #66, #268 ) ) ;
#121 = AXIS2_PLACEMENT_3D ( 'NONE', #68, #289, #320 ) ;
#122 = EDGE_CURVE ( 'NONE', #106, #93, #217, .T. ) ;
#123 = ORIENTED_EDGE ( 'NONE', *, *, #122, .F. ) ;
#124 = CARTESIAN_POINT ( 'NONE',  ( 7.999999999999979572, 0.000000000000000000, 0.000000000000000000 ) ) ;
#125 = CYLINDRICAL_SURFACE ( 'NONE', #159, 11.45000000000002061 ) ;
#126 = DIRECTION ( 'NONE',  ( -1.000000000000000000, -0.000000000000000000, -0.000000000000000000 ) ) ;
#127 = AXIS2_PLACEMENT_3D ( 'NONE', #113, #136, #327 ) ;
#128 = CC_DESIGN_SECURITY_CLASSIFICATION ( #182, ( #15 ) ) ;
#129 = DIRECTION ( 'NONE',  ( 0.000000000000000000, 0.000000000000000000, 1.000000000000000000 ) ) ;
#130 = FACE_OUTER_BOUND ( 'NONE', #259, .T. ) ;
#131 = VERTEX_POINT ( 'NONE', #2 ) ;
#132 = CALENDAR_DATE ( 2024, 21, 9 ) ;
#133 = ORIENTED_EDGE ( 'NONE', *, *, #122, .T. ) ;
#134 = FACE_OUTER_BOUND ( 'NONE', #63, .T. ) ;
#135 = APPLICATION_CONTEXT ( 'configuration controlled 3d designs of mechanical parts and assemblies' ) ;
#136 = DIRECTION ( 'NONE',  ( -1.000000000000000000, -0.000000000000000000, -0.000000000000000000 ) ) ;
#137 = CIRCLE ( 'NONE', #269, 10.45000000000002061 ) ;
#138 = LOCAL_TIME ( 12, 14, 10.00000000000000000, #201 ) ;
#139 = DIRECTION ( 'NONE',  ( 0.000000000000000000, 0.000000000000000000, 1.000000000000000000 ) ) ;
#140 = DATE_AND_TIME ( #112, #282 ) ;
#141 =( NAMED_UNIT ( * ) PLANE_ANGLE_UNIT ( ) SI_UNIT ( $, .RADIAN. ) );
#142 = AXIS2_PLACEMENT_3D ( 'NONE', #215, #13, #239 ) ;
#143 = ADVANCED_FACE ( 'NONE', ( #134 ), #109, .F. ) ;
#144 = CC_DESIGN_APPROVAL ( #275, ( #15 ) ) ;
#145 = APPROVAL_DATE_TIME ( #33, #92 ) ;
#146 = PLANE ( 'NONE',  #96 ) ;
#147 = VERTEX_POINT ( 'NONE', #55 ) ;
#148 = DATE_AND_TIME ( #177, #192 ) ;
#149 = CARTESIAN_POINT ( 'NONE',  ( -154.8395502972293230, 0.000000000000000000, 0.000000000000000000 ) ) ;
#150 = ORIENTED_EDGE ( 'NONE', *, *, #294, .T. ) ;
#151 = APPROVAL ( #17, 'UNSPECIFIED' ) ;
#152 = ORIENTED_EDGE ( 'NONE', *, *, #56, .T. ) ;
#153 = LOCAL_TIME ( 12, 14, 10.00000000000000000, #213 ) ;
#154 = VERTEX_POINT ( 'NONE', #322 ) ;
#155 = DIRECTION ( 'NONE',  ( 0.000000000000000000, 0.000000000000000000, 1.000000000000000000 ) ) ;
#156 = CARTESIAN_POINT ( 'NONE',  ( 7.999999999999979572, 0.000000000000000000, 0.000000000000000000 ) ) ;
#157 = EDGE_CURVE ( 'NONE', #234, #117, #232, .T. ) ;
#158 = PERSON_AND_ORGANIZATION ( #105, #76 ) ;
#159 = AXIS2_PLACEMENT_3D ( 'NONE', #16, #236, #209 ) ;
#160 = DIRECTION ( 'NONE',  ( -1.000000000000000000, -0.000000000000000000, -0.000000000000000000 ) ) ;
#161 = ORIENTED_EDGE ( 'NONE', *, *, #286, .T. ) ;
#162 = CC_DESIGN_DATE_AND_TIME_ASSIGNMENT ( #148, #283, ( #182 ) ) ;
#163 = ORIENTED_EDGE ( 'NONE', *, *, #30, .T. ) ;
#164 = VECTOR ( 'NONE', #160, 1000.000000000000000 ) ;
#165 = CARTESIAN_POINT ( 'NONE',  ( -2.000000000000001776, 0.000000000000000000, 0.000000000000000000 ) ) ;
#166 = LINE ( 'NONE', #272, #64 ) ;
#167 = CARTESIAN_POINT ( 'NONE',  ( 0.000000000000000000, 1.647149944853192555E-15, -13.45000000000002061 ) ) ;
#168 = APPROVAL_DATE_TIME ( #251, #275 ) ;
#169 = EDGE_CURVE ( 'NONE', #87, #74, #197, .T. ) ;
#170 = DIRECTION ( 'NONE',  ( -1.000000000000000000, -0.000000000000000000, -0.000000000000000000 ) ) ;
#171 = AXIS2_PLACEMENT_3D ( 'NONE', #189, #186, #155 ) ;
#172 = COORDINATED_UNIVERSAL_TIME_OFFSET ( 1, 0, .AHEAD. ) ;
#173 = APPROVAL_ROLE ( '' ) ;
#174 = CC_DESIGN_PERSON_AND_ORGANIZATION_ASSIGNMENT ( #280, #31, ( #178 ) ) ;
#175 = DIRECTION ( 'NONE',  ( -1.000000000000000000, -0.000000000000000000, -0.000000000000000000 ) ) ;
#176 = AXIS2_PLACEMENT_3D ( 'NONE', #50, #342, #293 ) ;
#177 = CALENDAR_DATE ( 2024, 21, 9 ) ;
#178 = PRODUCT_DEFINITION ( 'UNKNOWN', '', #15, #188 ) ;
#179 = ORIENTED_EDGE ( 'NONE', *, *, #62, .F. ) ;
#180 = ORIENTED_EDGE ( 'NONE', *, *, #65, .F. ) ;
#181 = CIRCLE ( 'NONE', #23, 20.59024999999996908 ) ;
#182 = SECURITY_CLASSIFICATION ( '', '', #88 ) ;
#183 = DIRECTION ( 'NONE',  ( 0.000000000000000000, 0.000000000000000000, 1.000000000000000000 ) ) ;
#184 = EDGE_LOOP ( 'NONE', ( #311, #163, #256, #243 ) ) ;
#185 = CARTESIAN_POINT ( 'NONE',  ( -8.161837114768046337E-15, 11.45000000000001883, 0.000000000000000000 ) ) ;
#186 = DIRECTION ( 'NONE',  ( -1.000000000000000000, -0.000000000000000000, -0.000000000000000000 ) ) ;
#187 = CARTESIAN_POINT ( 'NONE',  ( 6.999999999999978684, 1.402220585023722456E-15, -11.45000000000002238 ) ) ;
#188 = DESIGN_CONTEXT ( 'detailed design', #135, 'design' ) ;
#189 = CARTESIAN_POINT ( 'NONE',  ( 0.000000000000000000, 0.000000000000000000, 0.000000000000000000 ) ) ;
#190 = CARTESIAN_POINT ( 'NONE',  ( -154.8395502972293230, 0.000000000000000000, 0.000000000000000000 ) ) ;
#191 = AXIS2_PLACEMENT_3D ( 'NONE', #227, #284, #119 ) ;
#192 = LOCAL_TIME ( 12, 14, 10.00000000000000000, #37 ) ;
#193 = ADVANCED_BREP_SHAPE_REPRESENTATION ( '3D_GR1392_DN26.9x2_18380120', ( #81, #191 ), #336 ) ;
#194 = CARTESIAN_POINT ( 'NONE',  ( 7.999999999999979572, 0.000000000000000000, 0.000000000000000000 ) ) ;
#195 = PERSON_AND_ORGANIZATION ( #105, #76 ) ;
#196 = FACE_OUTER_BOUND ( 'NONE', #331, .T. ) ;
#197 = CIRCLE ( 'NONE', #90, 11.45000000000001883 ) ;
#198 = CC_DESIGN_PERSON_AND_ORGANIZATION_ASSIGNMENT ( #7, #199, ( #15 ) ) ;
#199 = PERSON_AND_ORGANIZATION_ROLE ( 'creator' ) ;
#200 = DIRECTION ( 'NONE',  ( 0.000000000000000000, 0.000000000000000000, 1.000000000000000000 ) ) ;
#201 = COORDINATED_UNIVERSAL_TIME_OFFSET ( 1, 0, .AHEAD. ) ;
#202 = CARTESIAN_POINT ( 'NONE',  ( 7.999999999999979572, 0.000000000000000000, 0.000000000000000000 ) ) ;
#203 = CIRCLE ( 'NONE', #328, 10.45000000000002061 ) ;
#204 = ORIENTED_EDGE ( 'NONE', *, *, #297, .F. ) ;
#205 = EDGE_LOOP ( 'NONE', ( #58, #317, #258, #152 ) ) ;
#206 = CIRCLE ( 'NONE', #52, 13.45000000000001705 ) ;
#207 = ORIENTED_EDGE ( 'NONE', *, *, #65, .T. ) ;
#208 = CARTESIAN_POINT ( 'NONE',  ( -154.8395502972293230, 1.647149944853192160E-15, -13.45000000000001705 ) ) ;
#209 = DIRECTION ( 'NONE',  ( 0.000000000000000000, 0.000000000000000000, 1.000000000000000000 ) ) ;
#210 = CARTESIAN_POINT ( 'NONE',  ( 7.999999999999979572, 0.000000000000000000, 10.45000000000002061 ) ) ;
#211 = CC_DESIGN_PERSON_AND_ORGANIZATION_ASSIGNMENT ( #332, #274, ( #15 ) ) ;
#212 = CLOSED_SHELL ( 'NONE', ( #343, #40, #19, #266, #316, #219, #349, #326, #253, #143 ) ) ;
#213 = COORDINATED_UNIVERSAL_TIME_OFFSET ( 1, 0, .AHEAD. ) ;
#214 = CIRCLE ( 'NONE', #176, 11.45000000000001883 ) ;
#215 = CARTESIAN_POINT ( 'NONE',  ( 6.999999999999978684, 0.000000000000000000, 0.000000000000000000 ) ) ;
#216 = DIRECTION ( 'NONE',  ( -1.000000000000000000, -0.000000000000000000, -0.000000000000000000 ) ) ;
#217 = LINE ( 'NONE', #302, #260 ) ;
#218 = APPROVAL_PERSON_ORGANIZATION ( #195, #275, #299 ) ;
#219 = ADVANCED_FACE ( 'NONE', ( #79 ), #273, .T. ) ;
#220 = DIRECTION ( 'NONE',  ( -1.000000000000000000, -0.000000000000000000, -0.000000000000000000 ) ) ;
#221 = SPHERICAL_SURFACE ( 'NONE', #323, 20.59024999999996908 ) ;
#222 = COORDINATED_UNIVERSAL_TIME_OFFSET ( 1, 0, .AHEAD. ) ;
#223 = DIRECTION ( 'NONE',  ( -0.7071067811865469066, 8.659560562354941486E-17, -0.7071067811865482389 ) ) ;
#224 = PRODUCT_DEFINITION_SHAPE ( 'NONE', 'NONE',  #178 ) ;
#225 = EDGE_CURVE ( 'NONE', #285, #131, #166, .T. ) ;
#226 = AXIS2_PLACEMENT_3D ( 'NONE', #165, #170, #139 ) ;
#227 = CARTESIAN_POINT ( 'NONE',  ( 0.000000000000000000, 0.000000000000000000, 0.000000000000000000 ) ) ;
#228 = VERTEX_POINT ( 'NONE', #350 ) ;
#229 = DIRECTION ( 'NONE',  ( -0.000000000000000000, 0.000000000000000000, 1.000000000000000000 ) ) ;
#230 = EDGE_CURVE ( 'NONE', #228, #87, #276, .T. ) ;
#231 = ORIENTED_EDGE ( 'NONE', *, *, #225, .T. ) ;
#232 = CIRCLE ( 'NONE', #226, 13.45000000000001705 ) ;
#233 = ORIENTED_EDGE ( 'NONE', *, *, #26, .F. ) ;
#234 = VERTEX_POINT ( 'NONE', #25 ) ;
#235 = FACE_OUTER_BOUND ( 'NONE', #48, .T. ) ;
#236 = DIRECTION ( 'NONE',  ( -1.000000000000000000, -0.000000000000000000, -0.000000000000000000 ) ) ;
#237 = PERSON_AND_ORGANIZATION ( #105, #76 ) ;
#238 = PRODUCT ( '3D_GR1392_DN26.9x2_18380120', '3D_GR1392_DN26.9x2_18380120', '', ( #95 ) ) ;
#239 = DIRECTION ( 'NONE',  ( 0.000000000000000000, 0.000000000000000000, 1.000000000000000000 ) ) ;
#240 = DIRECTION ( 'NONE',  ( -1.000000000000000000, -0.000000000000000000, -0.000000000000000000 ) ) ;
#241 = CC_DESIGN_PERSON_AND_ORGANIZATION_ASSIGNMENT ( #237, #46, ( #238 ) ) ;
#242 = ORIENTED_EDGE ( 'NONE', *, *, #294, .F. ) ;
#243 = ORIENTED_EDGE ( 'NONE', *, *, #101, .F. ) ;
#244 = DATE_AND_TIME ( #132, #153 ) ;
#245 = VECTOR ( 'NONE', #72, 999.9999999999998863 ) ;
#246 = DIRECTION ( 'NONE',  ( -1.000000000000000000, -0.000000000000000000, -0.000000000000000000 ) ) ;
#247 = EDGE_CURVE ( 'NONE', #333, #131, #27, .T. ) ;
#248 = DIRECTION ( 'NONE',  ( 0.000000000000000000, 1.224646799147353207E-16, -1.000000000000000000 ) ) ;
#249 = CIRCLE ( 'NONE', #121, 20.59024999999996908 ) ;
#250 = CARTESIAN_POINT ( 'NONE',  ( 0.000000000000000000, 0.000000000000000000, 13.45000000000001883 ) ) ;
#251 = DATE_AND_TIME ( #277, #319 ) ;
#252 = CARTESIAN_POINT ( 'NONE',  ( -154.8395502972293230, 0.000000000000000000, 11.45000000000002061 ) ) ;
#253 = ADVANCED_FACE ( 'NONE', ( #196 ), #5, .T. ) ;
#254 = APPLICATION_CONTEXT ( 'configuration controlled 3d designs of mechanical parts and assemblies' ) ;
#255 = ORIENTED_EDGE ( 'NONE', *, *, #169, .F. ) ;
#256 = ORIENTED_EDGE ( 'NONE', *, *, #230, .T. ) ;
#257 = CARTESIAN_POINT ( 'NONE',  ( -2.000000000000001776, -13.45000000000001350, -1.647149944853191766E-15 ) ) ;
#258 = ORIENTED_EDGE ( 'NONE', *, *, #49, .T. ) ;
#259 = EDGE_LOOP ( 'NONE', ( #150, #91, #255, #261 ) ) ;
#260 = VECTOR ( 'NONE', #223, 999.9999999999998863 ) ;
#261 = ORIENTED_EDGE ( 'NONE', *, *, #230, .F. ) ;
#262 = VERTEX_POINT ( 'NONE', #167 ) ;
#263 = DIRECTION ( 'NONE',  ( -1.000000000000000000, -0.000000000000000000, -0.000000000000000000 ) ) ;
#264 = VECTOR ( 'NONE', #111, 1000.000000000000000 ) ;
#265 = ORIENTED_EDGE ( 'NONE', *, *, #101, .T. ) ;
#266 = ADVANCED_FACE ( 'NONE', ( #54 ), #221, .T. ) ;
#267 = CARTESIAN_POINT ( 'NONE',  ( -2.775557561562891351E-14, 1.402220585023722061E-15, -11.45000000000001883 ) ) ;
#268 = ORIENTED_EDGE ( 'NONE', *, *, #304, .F. ) ;
#269 = AXIS2_PLACEMENT_3D ( 'NONE', #202, #175, #38 ) ;
#270 = AXIS2_PLACEMENT_3D ( 'NONE', #194, #296, #298 ) ;
#271 = CARTESIAN_POINT ( 'NONE',  ( -2.775557561562891351E-14, 0.000000000000000000, 0.000000000000000000 ) ) ;
#272 = CARTESIAN_POINT ( 'NONE',  ( -154.8395502972293230, 0.000000000000000000, 13.45000000000001705 ) ) ;
#273 = CYLINDRICAL_SURFACE ( 'NONE', #71, 13.45000000000001705 ) ;
#274 = PERSON_AND_ORGANIZATION_ROLE ( 'design_supplier' ) ;
#275 = APPROVAL ( #85, 'UNSPECIFIED' ) ;
#276 = LINE ( 'NONE', #252, #264 ) ;
#277 = CALENDAR_DATE ( 2024, 21, 9 ) ;
#278 = DIRECTION ( 'NONE',  ( -1.000000000000000000, 0.000000000000000000, -0.000000000000000000 ) ) ;
#279 = DIRECTION ( 'NONE',  ( -1.000000000000000000, -0.000000000000000000, -0.000000000000000000 ) ) ;
#280 = PERSON_AND_ORGANIZATION ( #105, #76 ) ;
#281 = DIRECTION ( 'NONE',  ( 0.000000000000000000, 1.000000000000000000, 0.000000000000000000 ) ) ;
#282 = LOCAL_TIME ( 12, 14, 10.00000000000000000, #222 ) ;
#283 = DATE_TIME_ROLE ( 'classification_date' ) ;
#284 = DIRECTION ( 'NONE',  ( 0.000000000000000000, 0.000000000000000000, 1.000000000000000000 ) ) ;
#285 = VERTEX_POINT ( 'NONE', #250 ) ;
#286 = EDGE_CURVE ( 'NONE', #106, #147, #137, .T. ) ;
#287 = CIRCLE ( 'NONE', #142, 11.45000000000002238 ) ;
#288 =( LENGTH_UNIT ( ) NAMED_UNIT ( * ) SI_UNIT ( .MILLI., .METRE. ) );
#289 = DIRECTION ( 'NONE',  ( -0.000000000000000000, 0.000000000000000000, 1.000000000000000000 ) ) ;
#290 = ORIENTED_EDGE ( 'NONE', *, *, #3, .T. ) ;
#291 = AXIS2_PLACEMENT_3D ( 'NONE', #149, #279, #183 ) ;
#292 = CARTESIAN_POINT ( 'NONE',  ( 0.000000000000000000, 0.000000000000000000, 0.000000000000000000 ) ) ;
#293 = DIRECTION ( 'NONE',  ( 0.000000000000000000, 0.000000000000000000, 1.000000000000000000 ) ) ;
#294 = EDGE_CURVE ( 'NONE', #228, #93, #115, .T. ) ;
#295 = DIRECTION ( 'NONE',  ( 0.000000000000000000, 0.000000000000000000, 1.000000000000000000 ) ) ;
#296 = DIRECTION ( 'NONE',  ( -1.000000000000000000, -0.000000000000000000, -0.000000000000000000 ) ) ;
#297 = EDGE_CURVE ( 'NONE', #262, #117, #116, .T. ) ;
#298 = DIRECTION ( 'NONE',  ( 0.000000000000000000, 0.000000000000000000, 1.000000000000000000 ) ) ;
#299 = APPROVAL_ROLE ( '' ) ;
#300 = APPROVAL_PERSON_ORGANIZATION ( #158, #151, #173 ) ;
#301 = CC_DESIGN_APPROVAL ( #92, ( #182 ) ) ;
#302 = CARTESIAN_POINT ( 'NONE',  ( 7.999999999999979572, 1.279755905108986519E-15, -10.45000000000002061 ) ) ;
#303 = CARTESIAN_POINT ( 'NONE',  ( 6.999999999999978684, 0.000000000000000000, 0.000000000000000000 ) ) ;
#304 = EDGE_CURVE ( 'NONE', #117, #333, #206, .T. ) ;
#305 = EDGE_LOOP ( 'NONE', ( #97, #265 ) ) ;
#306 = CALENDAR_DATE ( 2024, 21, 9 ) ;
#307 = FACE_OUTER_BOUND ( 'NONE', #205, .T. ) ;
#308 = AXIS2_PLACEMENT_3D ( 'NONE', #190, #44, #45 ) ;
#309 = EDGE_LOOP ( 'NONE', ( #344, #104, #39, #21 ) ) ;
#310 = ORIENTED_EDGE ( 'NONE', *, *, #225, .F. ) ;
#311 = ORIENTED_EDGE ( 'NONE', *, *, #10, .F. ) ;
#312 = AXIS2_PLACEMENT_3D ( 'NONE', #303, #86, #98 ) ;
#313 = DIRECTION ( 'NONE',  ( 0.000000000000000000, 0.000000000000000000, 1.000000000000000000 ) ) ;
#314 = FACE_OUTER_BOUND ( 'NONE', #184, .T. ) ;
#315 = DIRECTION ( 'NONE',  ( -1.000000000000000000, -0.000000000000000000, -0.000000000000000000 ) ) ;
#316 = ADVANCED_FACE ( 'NONE', ( #307 ), #14, .T. ) ;
#317 = ORIENTED_EDGE ( 'NONE', *, *, #247, .T. ) ;
#318 = AXIS2_PLACEMENT_3D ( 'NONE', #124, #35, #32 ) ;
#319 = LOCAL_TIME ( 12, 14, 10.00000000000000000, #172 ) ;
#320 = DIRECTION ( 'NONE',  ( 1.000000000000000000, 0.000000000000000000, 0.000000000000000000 ) ) ;
#321 = FACE_OUTER_BOUND ( 'NONE', #341, .T. ) ;
#322 = CARTESIAN_POINT ( 'NONE',  ( -7.000000000000020428, 2.128150925795590984E-15, 0.000000000000000000 ) ) ;
#323 = AXIS2_PLACEMENT_3D ( 'NONE', #325, #29, #82 ) ;
#324 = CARTESIAN_POINT ( 'NONE',  ( 13.59024999999994954, 8.673617379884035472E-16, 0.000000000000000000 ) ) ;
#325 = CARTESIAN_POINT ( 'NONE',  ( 13.59024999999994954, 8.673617379884035472E-16, 0.000000000000000000 ) ) ;
#326 = ADVANCED_FACE ( 'NONE', ( #314 ), #67, .T. ) ;
#327 = DIRECTION ( 'NONE',  ( 0.000000000000000000, 0.000000000000000000, 1.000000000000000000 ) ) ;
#328 = AXIS2_PLACEMENT_3D ( 'NONE', #156, #263, #129 ) ;
#329 = APPROVAL_DATE_TIME ( #244, #151 ) ;
#330 = CARTESIAN_POINT ( 'NONE',  ( -2.000000000000001776, 0.000000000000000000, 0.000000000000000000 ) ) ;
#331 = EDGE_LOOP ( 'NONE', ( #123, #161, #207, #12 ) ) ;
#332 = PERSON_AND_ORGANIZATION ( #105, #76 ) ;
#333 = VERTEX_POINT ( 'NONE', #257 ) ;
#334 = CC_DESIGN_DATE_AND_TIME_ASSIGNMENT ( #140, #4, ( #178 ) ) ;
#335 = APPLICATION_PROTOCOL_DEFINITION ( 'international standard', 'config_control_design', 1994, #254 ) ;
#336 =( GEOMETRIC_REPRESENTATION_CONTEXT ( 3 ) GLOBAL_UNCERTAINTY_ASSIGNED_CONTEXT ( ( #102 ) ) GLOBAL_UNIT_ASSIGNED_CONTEXT ( ( #288, #141, #8 ) ) REPRESENTATION_CONTEXT ( 'NONE', 'WORKASPACE' ) );
#337 = CARTESIAN_POINT ( 'NONE',  ( -2.000000000000001776, 0.000000000000000000, 0.000000000000000000 ) ) ;
#338 = DIRECTION ( 'NONE',  ( -1.000000000000000000, 0.000000000000000000, -0.000000000000000000 ) ) ;
#339 = CARTESIAN_POINT ( 'NONE',  ( -2.775557561562891351E-14, 0.000000000000000000, 11.45000000000001883 ) ) ;
#340 = FACE_BOUND ( 'NONE', #305, .T. ) ;
#341 = EDGE_LOOP ( 'NONE', ( #290, #20, #9, #99, #310 ) ) ;
#342 = DIRECTION ( 'NONE',  ( -1.000000000000000000, -0.000000000000000000, -0.000000000000000000 ) ) ;
#343 = ADVANCED_FACE ( 'NONE', ( #69 ), #34, .T. ) ;
#344 = ORIENTED_EDGE ( 'NONE', *, *, #157, .T. ) ;
#345 = DIRECTION ( 'NONE',  ( 0.000000000000000000, 1.000000000000000000, 1.224646799147353207E-16 ) ) ;
#346 = CARTESIAN_POINT ( 'NONE',  ( 7.999999999999979572, 1.340988245066354487E-15, -10.45000000000002061 ) ) ;
#347 = CIRCLE ( 'NONE', #59, 13.45000000000001705 ) ;
#348 = SHAPE_DEFINITION_REPRESENTATION ( #224, #193 ) ;
#349 = ADVANCED_FACE ( 'NONE', ( #235, #340 ), #146, .F. ) ;
#350 = CARTESIAN_POINT ( 'NONE',  ( 6.999999999999978684, 0.000000000000000000, 11.45000000000002238 ) ) ;
#351 = PERSON_AND_ORGANIZATION ( #105, #76 ) ;
ENDSEC;
END-ISO-10303-21;
