ISO-10303-21;
HEADER;
FILE_DESCRIPTION (( 'STEP AP203' ),
    '1' );
FILE_NAME ('OT200-50-60_3x2_6_OSTP.step',
    '2020-12-16T02:27:51',
    ( '' ),
    ( '' ),
    'SwSTEP 2.0',
    'SolidWorks 2014',
    '' );
FILE_SCHEMA (( 'CONFIG_CONTROL_DESIGN' ));
ENDSEC;

DATA;
#1 = DIRECTION ( 'NONE',  ( 0.0000000000000000000, 1.000000000000000000, 0.0000000000000000000 ) ) ;
#2 = CLOSED_SHELL ( 'NONE', ( #137, #78, #94, #115, #208, #74 ) ) ;
#3 = CC_DESIGN_SECURITY_CLASSIFICATION ( #53, ( #131 ) ) ;
#4 = CARTESIAN_POINT ( 'NONE',  ( 0.0000000000000000000, 0.0000000000000000000, 0.0000000000000000000 ) ) ;
#5 = LOCAL_TIME ( 3, 27, 51.00000000000000000, #81 ) ;
#6 = VERTEX_POINT ( 'NONE', #177 ) ;
#7 = CARTESIAN_POINT ( 'NONE',  ( 76.00000000000000000, 0.0000000000000000000, -3.692310099429270400E-015 ) ) ;
#8 =( NAMED_UNIT ( * ) SI_UNIT ( $, .STERADIAN. ) SOLID_ANGLE_UNIT ( ) );
#9 = ORGANIZATION ( 'UNSPECIFIED', 'UNSPECIFIED', '' ) ;
#10 = ORIENTED_EDGE ( 'NONE', *, *, #88, .F. ) ;
#11 = DIRECTION ( 'NONE',  ( 0.0000000000000000000, 1.000000000000000000, 0.0000000000000000000 ) ) ;
#12 = EDGE_CURVE ( 'NONE', #209, #215, #190, .T. ) ;
#13 = CIRCLE ( 'NONE', #192, 45.85000000000000100 ) ;
#14 = ORIENTED_EDGE ( 'NONE', *, *, #178, .F. ) ;
#15 = PRODUCT_RELATED_PRODUCT_CATEGORY ( 'detail', '', ( #219 ) ) ;
#16 = PERSON_AND_ORGANIZATION ( #184, #9 ) ;
#17 = CARTESIAN_POINT ( 'NONE',  ( 76.00000000000000000, 0.0000000000000000000, 0.0000000000000000000 ) ) ;
#18 = APPROVAL ( #24, 'UNSPECIFIED' ) ;
#19 = LOCAL_TIME ( 3, 27, 51.00000000000000000, #75 ) ;
#20 = EDGE_LOOP ( 'NONE', ( #154, #194 ) ) ;
#21 = DIRECTION ( 'NONE',  ( 0.0000000000000000000, 0.0000000000000000000, 1.000000000000000000 ) ) ;
#22 = CIRCLE ( 'NONE', #23, 106.1499999999999800 ) ;
#23 = AXIS2_PLACEMENT_3D ( 'NONE', #160, #227, #48 ) ;
#24 = APPROVAL_STATUS ( 'not_yet_approved' ) ;
#25 = DIRECTION ( 'NONE',  ( 0.0000000000000000000, 1.000000000000000000, 0.0000000000000000000 ) ) ;
#26 = UNCERTAINTY_MEASURE_WITH_UNIT (LENGTH_MEASURE( 1.000000000000000100E-005 ), #110, 'distance_accuracy_value', 'NONE');
#27 = CIRCLE ( 'NONE', #55, 30.14999999999999900 ) ;
#28 = ORIENTED_EDGE ( 'NONE', *, *, #46, .F. ) ;
#29 =( NAMED_UNIT ( * ) PLANE_ANGLE_UNIT ( ) SI_UNIT ( $, .RADIAN. ) );
#30 = AXIS2_PLACEMENT_3D ( 'NONE', #195, #61, #82 ) ;
#31 = TOROIDAL_SURFACE ( 'NONE', #59, 76.00000000000000000, 30.14999999999999900 ) ;
#32 = AXIS2_PLACEMENT_3D ( 'NONE', #140, #41, #85 ) ;
#33 = CIRCLE ( 'NONE', #167, 27.54999999999999700 ) ;
#34 = EDGE_CURVE ( 'NONE', #6, #237, #147, .T. ) ;
#35 = CARTESIAN_POINT ( 'NONE',  ( 76.00000000000000000, 0.0000000000000000000, 0.0000000000000000000 ) ) ;
#36 = CC_DESIGN_APPROVAL ( #18, ( #131 ) ) ;
#37 = APPROVAL_PERSON_ORGANIZATION ( #187, #64, #228 ) ;
#38 = EDGE_LOOP ( 'NONE', ( #114, #226, #60, #14 ) ) ;
#39 = DIRECTION ( 'NONE',  ( 1.000000000000000000, 0.0000000000000000000, 0.0000000000000000000 ) ) ;
#40 = EDGE_CURVE ( 'NONE', #101, #205, #33, .T. ) ;
#41 = DIRECTION ( 'NONE',  ( 0.0000000000000000000, 1.000000000000000000, 0.0000000000000000000 ) ) ;
#42 = CARTESIAN_POINT ( 'NONE',  ( 76.00000000000000000, 0.0000000000000000000, 0.0000000000000000000 ) ) ;
#43 = LOCAL_TIME ( 3, 27, 51.00000000000000000, #133 ) ;
#44 = APPLICATION_PROTOCOL_DEFINITION ( 'international standard', 'config_control_design', 1994, #204 ) ;
#45 = ORIENTED_EDGE ( 'NONE', *, *, #73, .T. ) ;
#46 = EDGE_CURVE ( 'NONE', #153, #205, #189, .T. ) ;
#47 = PERSON_AND_ORGANIZATION_ROLE ( 'design_owner' ) ;
#48 = DIRECTION ( 'NONE',  ( 1.000000000000000000, 0.0000000000000000000, 0.0000000000000000000 ) ) ;
#49 = AXIS2_PLACEMENT_3D ( 'NONE', #62, #125, #21 ) ;
#50 = CARTESIAN_POINT ( 'NONE',  ( 0.0000000000000000000, 0.0000000000000000000, 0.0000000000000000000 ) ) ;
#51 = ORIENTED_EDGE ( 'NONE', *, *, #148, .T. ) ;
#52 = PERSON_AND_ORGANIZATION_ROLE ( 'design_supplier' ) ;
#53 = SECURITY_CLASSIFICATION ( '', '', #109 ) ;
#54 = VERTEX_POINT ( 'NONE', #235 ) ;
#55 = AXIS2_PLACEMENT_3D ( 'NONE', #112, #25, #127 ) ;
#56 = CARTESIAN_POINT ( 'NONE',  ( 76.00000000000000000, 76.00000000000000000, 0.0000000000000000000 ) ) ;
#57 = TOROIDAL_SURFACE ( 'NONE', #77, 76.00000000000000000, 27.54999999999999700 ) ;
#58 = EDGE_LOOP ( 'NONE', ( #250, #181, #76, #51 ) ) ;
#59 = AXIS2_PLACEMENT_3D ( 'NONE', #42, #218, #39 ) ;
#60 = ORIENTED_EDGE ( 'NONE', *, *, #34, .T. ) ;
#61 = DIRECTION ( 'NONE',  ( 1.000000000000000000, 6.123233995736766000E-017, 0.0000000000000000000 ) ) ;
#62 = CARTESIAN_POINT ( 'NONE',  ( 75.99999999999998600, 76.00000000000000000, 0.0000000000000000000 ) ) ;
#63 = CIRCLE ( 'NONE', #188, 48.45000000000001000 ) ;
#64 = APPROVAL ( #93, 'UNSPECIFIED' ) ;
#65 = DIRECTION ( 'NONE',  ( 1.000000000000000000, 0.0000000000000000000, 0.0000000000000000000 ) ) ;
#66 = ADVANCED_BREP_SHAPE_REPRESENTATION ( 'OT200-50-60_3x2_6_OSTP', ( #198, #223 ), #97 ) ;
#67 = DATE_TIME_ROLE ( 'classification_date' ) ;
#68 = DIRECTION ( 'NONE',  ( 1.000000000000000000, 6.123233995736766000E-017, 0.0000000000000000000 ) ) ;
#69 = DIRECTION ( 'NONE',  ( 0.0000000000000000000, 1.000000000000000000, 0.0000000000000000000 ) ) ;
#70 = PERSON_AND_ORGANIZATION ( #184, #9 ) ;
#71 = ORIENTED_EDGE ( 'NONE', *, *, #124, .T. ) ;
#72 = MECHANICAL_CONTEXT ( 'NONE', #182, 'mechanical' ) ;
#73 = EDGE_CURVE ( 'NONE', #215, #209, #108, .T. ) ;
#74 = ADVANCED_FACE ( 'NONE', ( #248 ), #214, .F. ) ;
#75 = COORDINATED_UNIVERSAL_TIME_OFFSET ( 1, 0, .AHEAD. ) ;
#76 = ORIENTED_EDGE ( 'NONE', *, *, #178, .T. ) ;
#77 = AXIS2_PLACEMENT_3D ( 'NONE', #35, #141, #132 ) ;
#78 = ADVANCED_FACE ( 'NONE', ( #95 ), #31, .T. ) ;
#79 = CARTESIAN_POINT ( 'NONE',  ( 0.0000000000000000000, 0.0000000000000000000, 0.0000000000000000000 ) ) ;
#80 = CC_DESIGN_DATE_AND_TIME_ASSIGNMENT ( #180, #146, ( #236 ) ) ;
#81 = COORDINATED_UNIVERSAL_TIME_OFFSET ( 1, 0, .AHEAD. ) ;
#82 = DIRECTION ( 'NONE',  ( 0.0000000000000000000, 1.000000000000000000, 0.0000000000000000000 ) ) ;
#83 = AXIS2_PLACEMENT_3D ( 'NONE', #174, #251, #197 ) ;
#84 = CALENDAR_DATE ( 2020, 16, 12 ) ;
#85 = DIRECTION ( 'NONE',  ( 0.0000000000000000000, 0.0000000000000000000, 1.000000000000000000 ) ) ;
#86 = APPROVAL_STATUS ( 'not_yet_approved' ) ;
#87 = FACE_OUTER_BOUND ( 'NONE', #20, .T. ) ;
#88 = EDGE_CURVE ( 'NONE', #54, #153, #149, .T. ) ;
#89 = ORIENTED_EDGE ( 'NONE', *, *, #106, .T. ) ;
#90 = CARTESIAN_POINT ( 'NONE',  ( -27.55000000000000100, 0.0000000000000000000, 0.0000000000000000000 ) ) ;
#91 = CARTESIAN_POINT ( 'NONE',  ( 76.00000000000000000, 103.5500000000000000, 0.0000000000000000000 ) ) ;
#92 = CC_DESIGN_PERSON_AND_ORGANIZATION_ASSIGNMENT ( #16, #47, ( #219 ) ) ;
#93 = APPROVAL_STATUS ( 'not_yet_approved' ) ;
#94 = ADVANCED_FACE ( 'NONE', ( #229 ), #207, .T. ) ;
#95 = FACE_OUTER_BOUND ( 'NONE', #38, .T. ) ;
#96 = ORIENTED_EDGE ( 'NONE', *, *, #230, .T. ) ;
#97 =( GEOMETRIC_REPRESENTATION_CONTEXT ( 3 ) GLOBAL_UNCERTAINTY_ASSIGNED_CONTEXT ( ( #26 ) ) GLOBAL_UNIT_ASSIGNED_CONTEXT ( ( #110, #29, #8 ) ) REPRESENTATION_CONTEXT ( 'NONE', 'WORKASPACE' ) );
#98 = CARTESIAN_POINT ( 'NONE',  ( 27.54999999999999700, 0.0000000000000000000, -3.373901931650958000E-015 ) ) ;
#99 = DIRECTION ( 'NONE',  ( 0.0000000000000000000, 0.0000000000000000000, 1.000000000000000000 ) ) ;
#100 = CALENDAR_DATE ( 2020, 16, 12 ) ;
#101 = VERTEX_POINT ( 'NONE', #98 ) ;
#102 = CC_DESIGN_APPROVAL ( #64, ( #236 ) ) ;
#103 = EDGE_LOOP ( 'NONE', ( #249, #89 ) ) ;
#104 = DIRECTION ( 'NONE',  ( 1.000000000000000000, 0.0000000000000000000, 0.0000000000000000000 ) ) ;
#105 = DIRECTION ( 'NONE',  ( 0.0000000000000000000, 0.0000000000000000000, 1.000000000000000000 ) ) ;
#106 = EDGE_CURVE ( 'NONE', #205, #101, #113, .T. ) ;
#107 = CARTESIAN_POINT ( 'NONE',  ( 0.0000000000000000000, 0.0000000000000000000, 0.0000000000000000000 ) ) ;
#108 = CIRCLE ( 'NONE', #83, 30.14999999999999900 ) ;
#109 = SECURITY_CLASSIFICATION_LEVEL ( 'unclassified' ) ;
#110 =( LENGTH_UNIT ( ) NAMED_UNIT ( * ) SI_UNIT ( .MILLI., .METRE. ) );
#111 = ORIENTED_EDGE ( 'NONE', *, *, #124, .F. ) ;
#112 = CARTESIAN_POINT ( 'NONE',  ( 0.0000000000000000000, 0.0000000000000000000, 0.0000000000000000000 ) ) ;
#113 = CIRCLE ( 'NONE', #32, 27.54999999999999700 ) ;
#114 = ORIENTED_EDGE ( 'NONE', *, *, #73, .F. ) ;
#115 = ADVANCED_FACE ( 'NONE', ( #170, #193 ), #220, .T. ) ;
#116 = FACE_BOUND ( 'NONE', #103, .T. ) ;
#117 = ORIENTED_EDGE ( 'NONE', *, *, #40, .F. ) ;
#118 = CC_DESIGN_PERSON_AND_ORGANIZATION_ASSIGNMENT ( #239, #246, ( #236 ) ) ;
#119 = CARTESIAN_POINT ( 'NONE',  ( 75.99999999999998600, 45.84999999999999400, -3.692310099429271200E-015 ) ) ;
#120 = SHAPE_DEFINITION_REPRESENTATION ( #173, #66 ) ;
#121 = AXIS2_PLACEMENT_3D ( 'NONE', #107, #11, #202 ) ;
#122 = DATE_AND_TIME ( #168, #19 ) ;
#123 = ORIENTED_EDGE ( 'NONE', *, *, #12, .T. ) ;
#124 = EDGE_CURVE ( 'NONE', #153, #54, #139, .T. ) ;
#125 = DIRECTION ( 'NONE',  ( 1.000000000000000000, 6.123233995736766000E-017, 0.0000000000000000000 ) ) ;
#126 = DIRECTION ( 'NONE',  ( 0.0000000000000000000, 0.0000000000000000000, 1.000000000000000000 ) ) ;
#127 = DIRECTION ( 'NONE',  ( 0.0000000000000000000, 0.0000000000000000000, 1.000000000000000000 ) ) ;
#128 = CARTESIAN_POINT ( 'NONE',  ( 30.15000000000000200, 0.0000000000000000000, -3.692310099429271200E-015 ) ) ;
#129 = APPROVAL_DATE_TIME ( #221, #18 ) ;
#130 = EDGE_LOOP ( 'NONE', ( #253, #150, #117, #159 ) ) ;
#131 = PRODUCT_DEFINITION_FORMATION_WITH_SPECIFIED_SOURCE ( 'ANY', '', #219, .NOT_KNOWN. ) ;
#132 = DIRECTION ( 'NONE',  ( 1.000000000000000000, 0.0000000000000000000, 0.0000000000000000000 ) ) ;
#133 = COORDINATED_UNIVERSAL_TIME_OFFSET ( 1, 0, .AHEAD. ) ;
#134 = APPROVAL_DATE_TIME ( #136, #64 ) ;
#135 = COORDINATED_UNIVERSAL_TIME_OFFSET ( 1, 0, .AHEAD. ) ;
#136 = DATE_AND_TIME ( #100, #200 ) ;
#137 = ADVANCED_FACE ( 'NONE', ( #161 ), #57, .F. ) ;
#138 = AXIS2_PLACEMENT_3D ( 'NONE', #4, #155, #240 ) ;
#139 = CIRCLE ( 'NONE', #241, 27.55000000000000400 ) ;
#140 = CARTESIAN_POINT ( 'NONE',  ( 0.0000000000000000000, 0.0000000000000000000, 0.0000000000000000000 ) ) ;
#141 = DIRECTION ( 'NONE',  ( 0.0000000000000000000, 0.0000000000000000000, 1.000000000000000000 ) ) ;
#142 = DESIGN_CONTEXT ( 'detailed design', #204, 'design' ) ;
#143 = AXIS2_PLACEMENT_3D ( 'NONE', #234, #242, #126 ) ;
#144 = DIRECTION ( 'NONE',  ( 0.0000000000000000000, 0.0000000000000000000, 1.000000000000000000 ) ) ;
#145 = EDGE_LOOP ( 'NONE', ( #28, #71, #96, #196 ) ) ;
#146 = DATE_TIME_ROLE ( 'creation_date' ) ;
#147 = CIRCLE ( 'NONE', #138, 30.14999999999999900 ) ;
#148 = EDGE_CURVE ( 'NONE', #237, #6, #27, .T. ) ;
#149 = CIRCLE ( 'NONE', #30, 27.55000000000000400 ) ;
#150 = ORIENTED_EDGE ( 'NONE', *, *, #46, .T. ) ;
#151 = CC_DESIGN_PERSON_AND_ORGANIZATION_ASSIGNMENT ( #225, #165, ( #131 ) ) ;
#152 = APPROVAL_DATE_TIME ( #186, #211 ) ;
#153 = VERTEX_POINT ( 'NONE', #91 ) ;
#154 = ORIENTED_EDGE ( 'NONE', *, *, #148, .F. ) ;
#155 = DIRECTION ( 'NONE',  ( 0.0000000000000000000, 1.000000000000000000, 0.0000000000000000000 ) ) ;
#156 = AXIS2_PLACEMENT_3D ( 'NONE', #17, #105, #65 ) ;
#157 = CARTESIAN_POINT ( 'NONE',  ( 76.00000000000000000, 0.0000000000000000000, 0.0000000000000000000 ) ) ;
#158 = PERSON_AND_ORGANIZATION ( #184, #9 ) ;
#159 = ORIENTED_EDGE ( 'NONE', *, *, #230, .F. ) ;
#160 = CARTESIAN_POINT ( 'NONE',  ( 76.00000000000000000, 0.0000000000000000000, 0.0000000000000000000 ) ) ;
#161 = FACE_OUTER_BOUND ( 'NONE', #130, .T. ) ;
#162 = EDGE_LOOP ( 'NONE', ( #10, #111 ) ) ;
#163 = APPLICATION_PROTOCOL_DEFINITION ( 'international standard', 'config_control_design', 1994, #182 ) ;
#164 = CC_DESIGN_PERSON_AND_ORGANIZATION_ASSIGNMENT ( #166, #52, ( #131 ) ) ;
#165 = PERSON_AND_ORGANIZATION_ROLE ( 'creator' ) ;
#166 = PERSON_AND_ORGANIZATION ( #184, #9 ) ;
#167 = AXIS2_PLACEMENT_3D ( 'NONE', #79, #1, #99 ) ;
#168 = CALENDAR_DATE ( 2020, 16, 12 ) ;
#169 = AXIS2_PLACEMENT_3D ( 'NONE', #217, #172, #210 ) ;
#170 = FACE_BOUND ( 'NONE', #162, .T. ) ;
#171 = LOCAL_TIME ( 3, 27, 51.00000000000000000, #135 ) ;
#172 = DIRECTION ( 'NONE',  ( 0.0000000000000000000, 0.0000000000000000000, 1.000000000000000000 ) ) ;
#173 = PRODUCT_DEFINITION_SHAPE ( 'NONE', 'NONE',  #236 ) ;
#174 = CARTESIAN_POINT ( 'NONE',  ( 75.99999999999998600, 76.00000000000000000, 0.0000000000000000000 ) ) ;
#175 = APPROVAL_PERSON_ORGANIZATION ( #212, #18, #201 ) ;
#176 = CARTESIAN_POINT ( 'NONE',  ( 75.99999999999998600, 106.1499999999999900, 0.0000000000000000000 ) ) ;
#177 = CARTESIAN_POINT ( 'NONE',  ( -30.14999999999999500, 0.0000000000000000000, 0.0000000000000000000 ) ) ;
#178 = EDGE_CURVE ( 'NONE', #209, #237, #13, .T. ) ;
#179 = PERSON_AND_ORGANIZATION_ROLE ( 'classification_officer' ) ;
#180 = DATE_AND_TIME ( #84, #171 ) ;
#181 = ORIENTED_EDGE ( 'NONE', *, *, #12, .F. ) ;
#182 = APPLICATION_CONTEXT ( 'configuration controlled 3d designs of mechanical parts and assemblies' ) ;
#183 = DIRECTION ( 'NONE',  ( 1.000000000000000000, 0.0000000000000000000, 0.0000000000000000000 ) ) ;
#184 = PERSON ( 'UNSPECIFIED', 'UNSPECIFIED', 'UNSPECIFIED', ('UNSPECIFIED'), ('UNSPECIFIED'), ('UNSPECIFIED') ) ;
#185 = DIRECTION ( 'NONE',  ( 0.0000000000000000000, 0.0000000000000000000, 1.000000000000000000 ) ) ;
#186 = DATE_AND_TIME ( #206, #43 ) ;
#187 = PERSON_AND_ORGANIZATION ( #184, #9 ) ;
#188 = AXIS2_PLACEMENT_3D ( 'NONE', #203, #185, #243 ) ;
#189 = CIRCLE ( 'NONE', #156, 103.5499999999999800 ) ;
#190 = CIRCLE ( 'NONE', #49, 30.14999999999999900 ) ;
#191 = CC_DESIGN_PERSON_AND_ORGANIZATION_ASSIGNMENT ( #158, #179, ( #53 ) ) ;
#192 = AXIS2_PLACEMENT_3D ( 'NONE', #7, #245, #199 ) ;
#193 = FACE_OUTER_BOUND ( 'NONE', #213, .T. ) ;
#194 = ORIENTED_EDGE ( 'NONE', *, *, #34, .F. ) ;
#195 = CARTESIAN_POINT ( 'NONE',  ( 76.00000000000000000, 76.00000000000000000, 0.0000000000000000000 ) ) ;
#196 = ORIENTED_EDGE ( 'NONE', *, *, #106, .F. ) ;
#197 = DIRECTION ( 'NONE',  ( 0.0000000000000000000, 0.0000000000000000000, 1.000000000000000000 ) ) ;
#198 = MANIFOLD_SOLID_BREP ( 'cut-body', #2 ) ;
#199 = DIRECTION ( 'NONE',  ( 1.000000000000000000, 0.0000000000000000000, 0.0000000000000000000 ) ) ;
#200 = LOCAL_TIME ( 3, 27, 51.00000000000000000, #244 ) ;
#201 = APPROVAL_ROLE ( '' ) ;
#202 = DIRECTION ( 'NONE',  ( 0.0000000000000000000, -0.0000000000000000000, 1.000000000000000000 ) ) ;
#203 = CARTESIAN_POINT ( 'NONE',  ( 76.00000000000000000, 0.0000000000000000000, -3.373901931650958000E-015 ) ) ;
#204 = APPLICATION_CONTEXT ( 'configuration controlled 3d designs of mechanical parts and assemblies' ) ;
#205 = VERTEX_POINT ( 'NONE', #90 ) ;
#206 = CALENDAR_DATE ( 2020, 16, 12 ) ;
#207 = TOROIDAL_SURFACE ( 'NONE', #216, 76.00000000000000000, 30.14999999999999900 ) ;
#208 = ADVANCED_FACE ( 'NONE', ( #116, #87 ), #222, .F. ) ;
#209 = VERTEX_POINT ( 'NONE', #119 ) ;
#210 = DIRECTION ( 'NONE',  ( 1.000000000000000000, 0.0000000000000000000, 0.0000000000000000000 ) ) ;
#211 = APPROVAL ( #86, 'UNSPECIFIED' ) ;
#212 = PERSON_AND_ORGANIZATION ( #184, #9 ) ;
#213 = EDGE_LOOP ( 'NONE', ( #123, #45 ) ) ;
#214 = TOROIDAL_SURFACE ( 'NONE', #169, 76.00000000000000000, 27.54999999999999700 ) ;
#215 = VERTEX_POINT ( 'NONE', #176 ) ;
#216 = AXIS2_PLACEMENT_3D ( 'NONE', #157, #238, #104 ) ;
#217 = CARTESIAN_POINT ( 'NONE',  ( 76.00000000000000000, 0.0000000000000000000, 0.0000000000000000000 ) ) ;
#218 = DIRECTION ( 'NONE',  ( 0.0000000000000000000, 0.0000000000000000000, 1.000000000000000000 ) ) ;
#219 = PRODUCT ( 'OT200-50-60_3x2_6_OSTP', 'OT200-50-60_3x2_6_OSTP', '', ( #72 ) ) ;
#220 = PLANE ( 'NONE',  #143 ) ;
#221 = DATE_AND_TIME ( #231, #5 ) ;
#222 = PLANE ( 'NONE',  #121 ) ;
#223 = AXIS2_PLACEMENT_3D ( 'NONE', #50, #144, #183 ) ;
#224 = APPROVAL_ROLE ( '' ) ;
#225 = PERSON_AND_ORGANIZATION ( #184, #9 ) ;
#226 = ORIENTED_EDGE ( 'NONE', *, *, #252, .T. ) ;
#227 = DIRECTION ( 'NONE',  ( 0.0000000000000000000, 0.0000000000000000000, 1.000000000000000000 ) ) ;
#228 = APPROVAL_ROLE ( '' ) ;
#229 = FACE_OUTER_BOUND ( 'NONE', #58, .T. ) ;
#230 = EDGE_CURVE ( 'NONE', #54, #101, #63, .T. ) ;
#231 = CALENDAR_DATE ( 2020, 16, 12 ) ;
#232 = CC_DESIGN_DATE_AND_TIME_ASSIGNMENT ( #122, #67, ( #53 ) ) ;
#233 = APPROVAL_PERSON_ORGANIZATION ( #70, #211, #224 ) ;
#234 = CARTESIAN_POINT ( 'NONE',  ( 75.99999999999998600, 76.00000000000000000, 0.0000000000000000000 ) ) ;
#235 = CARTESIAN_POINT ( 'NONE',  ( 76.00000000000000000, 48.45000000000000300, -3.373901931650958000E-015 ) ) ;
#236 = PRODUCT_DEFINITION ( 'UNKNOWN', '', #131, #142 ) ;
#237 = VERTEX_POINT ( 'NONE', #128 ) ;
#238 = DIRECTION ( 'NONE',  ( 0.0000000000000000000, 0.0000000000000000000, 1.000000000000000000 ) ) ;
#239 = PERSON_AND_ORGANIZATION ( #184, #9 ) ;
#240 = DIRECTION ( 'NONE',  ( 0.0000000000000000000, 0.0000000000000000000, 1.000000000000000000 ) ) ;
#241 = AXIS2_PLACEMENT_3D ( 'NONE', #56, #68, #69 ) ;
#242 = DIRECTION ( 'NONE',  ( 1.000000000000000000, 6.123233995736766000E-017, -0.0000000000000000000 ) ) ;
#243 = DIRECTION ( 'NONE',  ( 1.000000000000000000, 0.0000000000000000000, 0.0000000000000000000 ) ) ;
#244 = COORDINATED_UNIVERSAL_TIME_OFFSET ( 1, 0, .AHEAD. ) ;
#245 = DIRECTION ( 'NONE',  ( 0.0000000000000000000, 0.0000000000000000000, 1.000000000000000000 ) ) ;
#246 = PERSON_AND_ORGANIZATION_ROLE ( 'creator' ) ;
#247 = CC_DESIGN_APPROVAL ( #211, ( #53 ) ) ;
#248 = FACE_OUTER_BOUND ( 'NONE', #145, .T. ) ;
#249 = ORIENTED_EDGE ( 'NONE', *, *, #40, .T. ) ;
#250 = ORIENTED_EDGE ( 'NONE', *, *, #252, .F. ) ;
#251 = DIRECTION ( 'NONE',  ( 1.000000000000000000, 6.123233995736766000E-017, 0.0000000000000000000 ) ) ;
#252 = EDGE_CURVE ( 'NONE', #215, #6, #22, .T. ) ;
#253 = ORIENTED_EDGE ( 'NONE', *, *, #88, .T. ) ;
ENDSEC;
END-ISO-10303-21;
