ISO-10303-21;
HEADER;
FILE_DESCRIPTION (( 'STEP AP203' ),
    '1' );
FILE_NAME ('11-0206-09_outokumpu.step',
    '2015-08-11T09:47:28',
    ( '' ),
    ( '' ),
    'SwSTEP 2.0',
    'SolidWorks 2008',
    '' );
FILE_SCHEMA (( 'CONFIG_CONTROL_DESIGN' ));
ENDSEC;

DATA;
#1 = DIRECTION ( 'NONE',  ( 0.0000000000000000000, 0.0000000000000000000, 1.000000000000000000 ) ) ;
#2 = AXIS2_PLACEMENT_3D ( 'NONE', #30, #1, #31 ) ;
#3 = CARTESIAN_POINT ( 'NONE',  ( 0.0000000000000000000, 0.0000000000000000000, -44.01076444183774300 ) ) ;
#4 = FACE_OUTER_BOUND ( 'NONE', #298, .T. ) ;
#5 =( NAMED_UNIT ( * ) PLANE_ANGLE_UNIT ( ) SI_UNIT ( $, .RADIAN. ) );
#6 = CYLINDRICAL_SURFACE ( 'NONE', #72, 26.55000000000000400 ) ;
#7 = CARTESIAN_POINT ( 'NONE',  ( 0.0000000000000000000, 0.0000000000000000000, 2.164076523963066500E-017 ) ) ;
#8 = FACE_OUTER_BOUND ( 'NONE', #305, .T. ) ;
#9 = DIRECTION ( 'NONE',  ( 1.000000000000000000, 0.0000000000000000000, 0.0000000000000000000 ) ) ;
#10 = DIRECTION ( 'NONE',  ( -0.0000000000000000000, -0.0000000000000000000, 1.000000000000000000 ) ) ;
#11 = PERSON_AND_ORGANIZATION_ROLE ( 'design_owner' ) ;
#12 = PERSON_AND_ORGANIZATION ( #14, #13 ) ;
#13 = ORGANIZATION ( 'UNSPECIFIED', 'UNSPECIFIED', '' ) ;
#14 = PERSON ( 'UNSPECIFIED', 'UNSPECIFIED', 'UNSPECIFIED', ('UNSPECIFIED'), ('UNSPECIFIED'), ('UNSPECIFIED') ) ;
#15 = PRODUCT ( '11-0206-09_outokumpu', '11-0206-09_outokumpu', '', ( #16 ) ) ;
#16 = MECHANICAL_CONTEXT ( 'NONE', #102, 'mechanical' ) ;
#17 = APPLICATION_PROTOCOL_DEFINITION ( 'international standard', 'config_control_design', 1994, #102 ) ;
#18 = DIRECTION ( 'NONE',  ( -0.0000000000000000000, -0.0000000000000000000, 1.000000000000000000 ) ) ;
#19 = AXIS2_PLACEMENT_3D ( 'NONE', #3, #18, #29 ) ;
#20 = CIRCLE ( 'NONE', #21, 27.33876444183796300 ) ;
#21 = AXIS2_PLACEMENT_3D ( 'NONE', #7, #10, #9 ) ;
#22 = SHAPE_DEFINITION_REPRESENTATION ( #32, #23 ) ;
#23 = ADVANCED_BREP_SHAPE_REPRESENTATION ( '11-0206-09_outokumpu', ( #161, #2 ), #24 ) ;
#24 =( GEOMETRIC_REPRESENTATION_CONTEXT ( 3 ) GLOBAL_UNCERTAINTY_ASSIGNED_CONTEXT ( ( #103 ) ) GLOBAL_UNIT_ASSIGNED_CONTEXT ( ( #26, #5, #104 ) ) REPRESENTATION_CONTEXT ( 'NONE', 'WORKASPACE' ) );
#25 = CONICAL_SURFACE ( 'NONE', #19, 28.32799999999999900, 0.7853981633974552700 ) ;
#26 =( LENGTH_UNIT ( ) NAMED_UNIT ( * ) SI_UNIT ( .MILLI., .METRE. ) );
#27 = DIRECTION ( 'NONE',  ( 0.0000000000000000000, 1.000000000000000000, 2.613519361170330500E-016 ) ) ;
#28 = DIRECTION ( 'NONE',  ( -0.0000000000000000000, 1.560205037662430700E-016, -1.000000000000000000 ) ) ;
#29 = DIRECTION ( 'NONE',  ( 1.000000000000000000, 0.0000000000000000000, 0.0000000000000000000 ) ) ;
#30 = CARTESIAN_POINT ( 'NONE',  ( 0.0000000000000000000, 0.0000000000000000000, 0.0000000000000000000 ) ) ;
#31 = DIRECTION ( 'NONE',  ( 1.000000000000000000, 0.0000000000000000000, 0.0000000000000000000 ) ) ;
#32 = PRODUCT_DEFINITION_SHAPE ( 'NONE', 'NONE',  #67 ) ;
#33 = PRODUCT_RELATED_PRODUCT_CATEGORY ( 'detail', '', ( #15 ) ) ;
#34 = CC_DESIGN_SECURITY_CLASSIFICATION ( #55, ( #90 ) ) ;
#35 = CC_DESIGN_APPROVAL ( #43, ( #55 ) ) ;
#36 = APPROVAL_DATE_TIME ( #37, #43 ) ;
#37 = DATE_AND_TIME ( #38, #39 ) ;
#38 = CALENDAR_DATE ( 2015, 11, 8 ) ;
#39 = LOCAL_TIME ( 11, 47, 28.00000000000000000, #40 ) ;
#40 = COORDINATED_UNIVERSAL_TIME_OFFSET ( 1, 0, .AHEAD. ) ;
#41 = APPROVAL_PERSON_ORGANIZATION ( #45, #43, #42 ) ;
#42 = APPROVAL_ROLE ( '' ) ;
#43 = APPROVAL ( #44, 'UNSPECIFIED' ) ;
#44 = APPROVAL_STATUS ( 'not_yet_approved' ) ;
#45 = PERSON_AND_ORGANIZATION ( #14, #13 ) ;
#46 = CC_DESIGN_DATE_AND_TIME_ASSIGNMENT ( #48, #47, ( #55 ) ) ;
#47 = DATE_TIME_ROLE ( 'classification_date' ) ;
#48 = DATE_AND_TIME ( #49, #50 ) ;
#49 = CALENDAR_DATE ( 2015, 11, 8 ) ;
#50 = LOCAL_TIME ( 11, 47, 28.00000000000000000, #51 ) ;
#51 = COORDINATED_UNIVERSAL_TIME_OFFSET ( 1, 0, .AHEAD. ) ;
#52 = CC_DESIGN_PERSON_AND_ORGANIZATION_ASSIGNMENT ( #54, #53, ( #55 ) ) ;
#53 = PERSON_AND_ORGANIZATION_ROLE ( 'classification_officer' ) ;
#54 = PERSON_AND_ORGANIZATION ( #14, #13 ) ;
#55 = SECURITY_CLASSIFICATION ( '', '', #56 ) ;
#56 = SECURITY_CLASSIFICATION_LEVEL ( 'unclassified' ) ;
#57 = CARTESIAN_POINT ( 'NONE',  ( 0.0000000000000000000, 3.551475717527341000E-015, -45.00000000000010700 ) ) ;
#58 = DATE_AND_TIME ( #59, #60 ) ;
#59 = CALENDAR_DATE ( 2015, 11, 8 ) ;
#60 = LOCAL_TIME ( 11, 47, 28.00000000000000000, #61 ) ;
#61 = COORDINATED_UNIVERSAL_TIME_OFFSET ( 1, 0, .AHEAD. ) ;
#62 = APPROVAL_PERSON_ORGANIZATION ( #66, #64, #63 ) ;
#63 = APPROVAL_ROLE ( '' ) ;
#64 = APPROVAL ( #65, 'UNSPECIFIED' ) ;
#65 = APPROVAL_STATUS ( 'not_yet_approved' ) ;
#66 = PERSON_AND_ORGANIZATION ( #14, #13 ) ;
#67 = PRODUCT_DEFINITION ( 'UNKNOWN', '', #90, #68 ) ;
#68 = DESIGN_CONTEXT ( 'detailed design', #70, 'design' ) ;
#69 = APPLICATION_PROTOCOL_DEFINITION ( 'international standard', 'config_control_design', 1994, #70 ) ;
#70 = APPLICATION_CONTEXT ( 'configuration controlled 3d designs of mechanical parts and assemblies' ) ;
#71 = CC_DESIGN_PERSON_AND_ORGANIZATION_ASSIGNMENT ( #12, #11, ( #15 ) ) ;
#72 = AXIS2_PLACEMENT_3D ( 'NONE', #57, #28, #27 ) ;
#73 = CC_DESIGN_PERSON_AND_ORGANIZATION_ASSIGNMENT ( #75, #74, ( #90 ) ) ;
#74 = PERSON_AND_ORGANIZATION_ROLE ( 'design_supplier' ) ;
#75 = PERSON_AND_ORGANIZATION ( #14, #13 ) ;
#76 = CC_DESIGN_PERSON_AND_ORGANIZATION_ASSIGNMENT ( #78, #77, ( #90 ) ) ;
#77 = PERSON_AND_ORGANIZATION_ROLE ( 'creator' ) ;
#78 = PERSON_AND_ORGANIZATION ( #14, #13 ) ;
#79 = CC_DESIGN_APPROVAL ( #87, ( #90 ) ) ;
#80 = APPROVAL_DATE_TIME ( #81, #87 ) ;
#81 = DATE_AND_TIME ( #82, #83 ) ;
#82 = CALENDAR_DATE ( 2015, 11, 8 ) ;
#83 = LOCAL_TIME ( 11, 47, 28.00000000000000000, #84 ) ;
#84 = COORDINATED_UNIVERSAL_TIME_OFFSET ( 1, 0, .AHEAD. ) ;
#85 = APPROVAL_PERSON_ORGANIZATION ( #89, #87, #86 ) ;
#86 = APPROVAL_ROLE ( '' ) ;
#87 = APPROVAL ( #88, 'UNSPECIFIED' ) ;
#88 = APPROVAL_STATUS ( 'not_yet_approved' ) ;
#89 = PERSON_AND_ORGANIZATION ( #14, #13 ) ;
#90 = PRODUCT_DEFINITION_FORMATION_WITH_SPECIFIED_SOURCE ( 'ANY', '', #15, .NOT_KNOWN. ) ;
#91 = CC_DESIGN_DATE_AND_TIME_ASSIGNMENT ( #93, #92, ( #67 ) ) ;
#92 = DATE_TIME_ROLE ( 'creation_date' ) ;
#93 = DATE_AND_TIME ( #94, #95 ) ;
#94 = CALENDAR_DATE ( 2015, 11, 8 ) ;
#95 = LOCAL_TIME ( 11, 47, 28.00000000000000000, #96 ) ;
#96 = COORDINATED_UNIVERSAL_TIME_OFFSET ( 1, 0, .AHEAD. ) ;
#97 = CC_DESIGN_PERSON_AND_ORGANIZATION_ASSIGNMENT ( #99, #98, ( #67 ) ) ;
#98 = PERSON_AND_ORGANIZATION_ROLE ( 'creator' ) ;
#99 = PERSON_AND_ORGANIZATION ( #14, #13 ) ;
#100 = CC_DESIGN_APPROVAL ( #64, ( #67 ) ) ;
#101 = APPROVAL_DATE_TIME ( #58, #64 ) ;
#102 = APPLICATION_CONTEXT ( 'configuration controlled 3d designs of mechanical parts and assemblies' ) ;
#103 = UNCERTAINTY_MEASURE_WITH_UNIT (LENGTH_MEASURE( 1.000000000000000100E-005 ), #26, 'distance_accuracy_value', 'NONE');
#104 =( NAMED_UNIT ( * ) SI_UNIT ( $, .STERADIAN. ) SOLID_ANGLE_UNIT ( ) );
#105 = EDGE_CURVE ( 'NONE', #147, #173, #315, .T. ) ;
#106 = EDGE_CURVE ( 'NONE', #168, #166, #310, .T. ) ;
#107 = ORIENTED_EDGE ( 'NONE', *, *, #118, .T. ) ;
#108 = ORIENTED_EDGE ( 'NONE', *, *, #105, .F. ) ;
#109 = ORIENTED_EDGE ( 'NONE', *, *, #106, .T. ) ;
#110 = EDGE_LOOP ( 'NONE', ( #111, #109, #107, #108 ) ) ;
#111 = ORIENTED_EDGE ( 'NONE', *, *, #117, .F. ) ;
#112 = VERTEX_POINT ( 'NONE', #291 ) ;
#113 = ORIENTED_EDGE ( 'NONE', *, *, #165, .T. ) ;
#114 = ORIENTED_EDGE ( 'NONE', *, *, #117, .T. ) ;
#115 = ADVANCED_FACE ( 'NONE', ( #290 ), #288, .T. ) ;
#116 = ORIENTED_EDGE ( 'NONE', *, *, #146, .F. ) ;
#117 = EDGE_CURVE ( 'NONE', #168, #147, #284, .T. ) ;
#118 = EDGE_CURVE ( 'NONE', #166, #173, #250, .T. ) ;
#119 = ORIENTED_EDGE ( 'NONE', *, *, #118, .F. ) ;
#120 = EDGE_LOOP ( 'NONE', ( #113, #114, #116, #119 ) ) ;
#121 = ADVANCED_FACE ( 'NONE', ( #246 ), #245, .T. ) ;
#122 = EDGE_CURVE ( 'NONE', #297, #134, #347, .T. ) ;
#123 = EDGE_CURVE ( 'NONE', #297, #112, #343, .T. ) ;
#124 = EDGE_CURVE ( 'NONE', #169, #174, #338, .T. ) ;
#125 = ORIENTED_EDGE ( 'NONE', *, *, #122, .F. ) ;
#126 = ADVANCED_FACE ( 'NONE', ( #333, #332 ), #331, .F. ) ;
#127 = ORIENTED_EDGE ( 'NONE', *, *, #123, .T. ) ;
#128 = ORIENTED_EDGE ( 'NONE', *, *, #124, .F. ) ;
#129 = EDGE_LOOP ( 'NONE', ( #127, #202 ) ) ;
#130 = ORIENTED_EDGE ( 'NONE', *, *, #171, .F. ) ;
#131 = EDGE_CURVE ( 'NONE', #134, #238, #325, .T. ) ;
#132 = ORIENTED_EDGE ( 'NONE', *, *, #241, .F. ) ;
#133 = EDGE_LOOP ( 'NONE', ( #130, #128 ) ) ;
#134 = VERTEX_POINT ( 'NONE', #321 ) ;
#135 = ORIENTED_EDGE ( 'NONE', *, *, #131, .F. ) ;
#136 = ADVANCED_FACE ( 'NONE', ( #320, #319 ), #318, .F. ) ;
#137 = EDGE_LOOP ( 'NONE', ( #135, #132 ) ) ;
#138 = ORIENTED_EDGE ( 'NONE', *, *, #131, .T. ) ;
#139 = ADVANCED_FACE ( 'NONE', ( #317 ), #197, .T. ) ;
#140 = EDGE_LOOP ( 'NONE', ( #141, #142, #235, #236 ) ) ;
#141 = ORIENTED_EDGE ( 'NONE', *, *, #157, .F. ) ;
#142 = ORIENTED_EDGE ( 'NONE', *, *, #302, .F. ) ;
#143 = EDGE_CURVE ( 'NONE', #158, #147, #192, .T. ) ;
#144 = ADVANCED_FACE ( 'NONE', ( #188 ), #187, .F. ) ;
#145 = ORIENTED_EDGE ( 'NONE', *, *, #143, .F. ) ;
#146 = EDGE_CURVE ( 'NONE', #173, #147, #186, .T. ) ;
#147 = VERTEX_POINT ( 'NONE', #181 ) ;
#148 = ORIENTED_EDGE ( 'NONE', *, *, #146, .T. ) ;
#149 = EDGE_LOOP ( 'NONE', ( #172, #242, #296, #125 ) ) ;
#150 = EDGE_LOOP ( 'NONE', ( #156, #152, #148, #145 ) ) ;
#151 = ADVANCED_FACE ( 'NONE', ( #176 ), #175, .T. ) ;
#152 = ORIENTED_EDGE ( 'NONE', *, *, #157, .T. ) ;
#153 = EDGE_CURVE ( 'NONE', #155, #158, #228, .T. ) ;
#154 = EDGE_CURVE ( 'NONE', #174, #166, #223, .T. ) ;
#155 = VERTEX_POINT ( 'NONE', #219 ) ;
#156 = ORIENTED_EDGE ( 'NONE', *, *, #153, .F. ) ;
#157 = EDGE_CURVE ( 'NONE', #155, #173, #218, .T. ) ;
#158 = VERTEX_POINT ( 'NONE', #214 ) ;
#159 = ORIENTED_EDGE ( 'NONE', *, *, #171, .T. ) ;
#160 = ADVANCED_FACE ( 'NONE', ( #213 ), #211, .T. ) ;
#161 = MANIFOLD_SOLID_BREP ( 'NONE', #308 ) ;
#162 = EDGE_LOOP ( 'NONE', ( #159, #170, #164, #163 ) ) ;
#163 = ORIENTED_EDGE ( 'NONE', *, *, #154, .F. ) ;
#164 = ORIENTED_EDGE ( 'NONE', *, *, #165, .F. ) ;
#165 = EDGE_CURVE ( 'NONE', #166, #168, #207, .T. ) ;
#166 = VERTEX_POINT ( 'NONE', #282 ) ;
#167 = EDGE_CURVE ( 'NONE', #169, #168, #281, .T. ) ;
#168 = VERTEX_POINT ( 'NONE', #277 ) ;
#169 = VERTEX_POINT ( 'NONE', #276 ) ;
#170 = ORIENTED_EDGE ( 'NONE', *, *, #167, .T. ) ;
#171 = EDGE_CURVE ( 'NONE', #174, #169, #275, .T. ) ;
#172 = ORIENTED_EDGE ( 'NONE', *, *, #239, .F. ) ;
#173 = VERTEX_POINT ( 'NONE', #270 ) ;
#174 = VERTEX_POINT ( 'NONE', #269 ) ;
#175 = CONICAL_SURFACE ( 'NONE', #232, 27.33876444183796300, 0.7853981633974530500 ) ;
#176 = FACE_OUTER_BOUND ( 'NONE', #150, .T. ) ;
#177 = DIRECTION ( 'NONE',  ( 1.000000000000000000, 0.0000000000000000000, 0.0000000000000000000 ) ) ;
#178 = DIRECTION ( 'NONE',  ( -0.0000000000000000000, -0.0000000000000000000, 1.000000000000000000 ) ) ;
#179 = CARTESIAN_POINT ( 'NONE',  ( 0.0000000000000000000, 0.0000000000000000000, -0.9892355581620261300 ) ) ;
#180 = AXIS2_PLACEMENT_3D ( 'NONE', #179, #178, #177 ) ;
#181 = CARTESIAN_POINT ( 'NONE',  ( -28.32799999999999900, 3.469064879108030200E-015, -0.9892355581620261300 ) ) ;
#182 = DIRECTION ( 'NONE',  ( 0.0000000000000000000, 1.000000000000000000, 2.613519361170330500E-016 ) ) ;
#183 = DIRECTION ( 'NONE',  ( -0.0000000000000000000, 1.560205037662430700E-016, -1.000000000000000000 ) ) ;
#184 = CARTESIAN_POINT ( 'NONE',  ( 0.0000000000000000000, 3.551475717527341000E-015, -45.00000000000010700 ) ) ;
#185 = AXIS2_PLACEMENT_3D ( 'NONE', #184, #183, #182 ) ;
#186 = CIRCLE ( 'NONE', #180, 28.32799999999999900 ) ;
#187 = CYLINDRICAL_SURFACE ( 'NONE', #185, 26.55000000000000400 ) ;
#188 = FACE_OUTER_BOUND ( 'NONE', #149, .T. ) ;
#189 = DIRECTION ( 'NONE',  ( -0.7071067811865507900, 0.0000000000000000000, -0.7071067811865441300 ) ) ;
#190 = VECTOR ( 'NONE', #189, 1000.000000000000000 ) ;
#191 = CARTESIAN_POINT ( 'NONE',  ( -27.33876444183796300, 0.0000000000000000000, 2.164076523963066500E-017 ) ) ;
#192 = LINE ( 'NONE', #191, #190 ) ;
#193 = DIRECTION ( 'NONE',  ( -1.000000000000000000, 0.0000000000000000000, 0.0000000000000000000 ) ) ;
#194 = DIRECTION ( 'NONE',  ( 0.0000000000000000000, 0.0000000000000000000, -1.000000000000000000 ) ) ;
#195 = CARTESIAN_POINT ( 'NONE',  ( 0.0000000000000000000, 0.0000000000000000000, 2.164076523963066500E-017 ) ) ;
#196 = AXIS2_PLACEMENT_3D ( 'NONE', #195, #194, #193 ) ;
#197 = CONICAL_SURFACE ( 'NONE', #196, 27.33876444183796300, 0.7853981633974530500 ) ;
#198 = DIRECTION ( 'NONE',  ( 1.000000000000000000, 0.0000000000000000000, 0.0000000000000000000 ) ) ;
#199 = DIRECTION ( 'NONE',  ( 0.0000000000000000000, -0.0000000000000000000, 1.000000000000000000 ) ) ;
#200 = CARTESIAN_POINT ( 'NONE',  ( 0.0000000000000000000, 28.32799999999999900, -45.00000000000000000 ) ) ;
#201 = AXIS2_PLACEMENT_3D ( 'NONE', #200, #199, #198 ) ;
#202 = ORIENTED_EDGE ( 'NONE', *, *, #239, .T. ) ;
#203 = DIRECTION ( 'NONE',  ( 1.000000000000000000, 0.0000000000000000000, 0.0000000000000000000 ) ) ;
#204 = DIRECTION ( 'NONE',  ( -0.0000000000000000000, -0.0000000000000000000, 1.000000000000000000 ) ) ;
#205 = CARTESIAN_POINT ( 'NONE',  ( 0.0000000000000000000, 0.0000000000000000000, -44.01076444183774300 ) ) ;
#206 = AXIS2_PLACEMENT_3D ( 'NONE', #205, #204, #203 ) ;
#207 = CIRCLE ( 'NONE', #206, 28.32799999999999900 ) ;
#208 = DIRECTION ( 'NONE',  ( 1.000000000000000000, 0.0000000000000000000, 0.0000000000000000000 ) ) ;
#209 = DIRECTION ( 'NONE',  ( -0.0000000000000000000, -0.0000000000000000000, 1.000000000000000000 ) ) ;
#210 = AXIS2_PLACEMENT_3D ( 'NONE', #212, #209, #208 ) ;
#211 = CONICAL_SURFACE ( 'NONE', #210, 28.32799999999999900, 0.7853981633974552700 ) ;
#212 = CARTESIAN_POINT ( 'NONE',  ( 0.0000000000000000000, 0.0000000000000000000, -44.01076444183774300 ) ) ;
#213 = FACE_OUTER_BOUND ( 'NONE', #162, .T. ) ;
#214 = CARTESIAN_POINT ( 'NONE',  ( -27.33876444183796300, 0.0000000000000000000, 2.164076523963066500E-017 ) ) ;
#215 = DIRECTION ( 'NONE',  ( 0.7071067811865507900, 8.659274570719396100E-017, -0.7071067811865441300 ) ) ;
#216 = VECTOR ( 'NONE', #215, 1000.000000000000000 ) ;
#217 = CARTESIAN_POINT ( 'NONE',  ( 27.33876444183796300, 3.347922464112804900E-015, 2.164076523963066500E-017 ) ) ;
#218 = LINE ( 'NONE', #217, #216 ) ;
#219 = CARTESIAN_POINT ( 'NONE',  ( 27.33876444183796300, 3.408493671610417800E-015, 2.164076523963066500E-017 ) ) ;
#220 = DIRECTION ( 'NONE',  ( 0.7071067811865525700, 0.0000000000000000000, 0.7071067811865425800 ) ) ;
#221 = VECTOR ( 'NONE', #220, 999.9999999999998900 ) ;
#222 = CARTESIAN_POINT ( 'NONE',  ( 28.32799999999999900, 0.0000000000000000000, -44.01076444183774300 ) ) ;
#223 = LINE ( 'NONE', #222, #221 ) ;
#224 = DIRECTION ( 'NONE',  ( 1.000000000000000000, 0.0000000000000000000, 0.0000000000000000000 ) ) ;
#225 = DIRECTION ( 'NONE',  ( -0.0000000000000000000, -0.0000000000000000000, 1.000000000000000000 ) ) ;
#226 = CARTESIAN_POINT ( 'NONE',  ( 0.0000000000000000000, 0.0000000000000000000, 2.164076523963066500E-017 ) ) ;
#227 = AXIS2_PLACEMENT_3D ( 'NONE', #226, #225, #224 ) ;
#228 = CIRCLE ( 'NONE', #227, 27.33876444183796300 ) ;
#229 = DIRECTION ( 'NONE',  ( -1.000000000000000000, 0.0000000000000000000, 0.0000000000000000000 ) ) ;
#230 = DIRECTION ( 'NONE',  ( 0.0000000000000000000, 0.0000000000000000000, -1.000000000000000000 ) ) ;
#231 = CARTESIAN_POINT ( 'NONE',  ( 0.0000000000000000000, 0.0000000000000000000, 2.164076523963066500E-017 ) ) ;
#232 = AXIS2_PLACEMENT_3D ( 'NONE', #231, #230, #229 ) ;
#233 = ORIENTED_EDGE ( 'NONE', *, *, #123, .F. ) ;
#234 = ORIENTED_EDGE ( 'NONE', *, *, #122, .T. ) ;
#235 = ORIENTED_EDGE ( 'NONE', *, *, #143, .T. ) ;
#236 = ORIENTED_EDGE ( 'NONE', *, *, #105, .T. ) ;
#237 = ORIENTED_EDGE ( 'NONE', *, *, #106, .F. ) ;
#238 = VERTEX_POINT ( 'NONE', #268 ) ;
#239 = EDGE_CURVE ( 'NONE', #112, #297, #267, .T. ) ;
#240 = EDGE_CURVE ( 'NONE', #112, #238, #262, .T. ) ;
#241 = EDGE_CURVE ( 'NONE', #238, #134, #258, .T. ) ;
#242 = ORIENTED_EDGE ( 'NONE', *, *, #240, .T. ) ;
#243 = CARTESIAN_POINT ( 'NONE',  ( 0.0000000000000000000, 0.0000000000000000000, -4.336808689942017700E-016 ) ) ;
#244 = AXIS2_PLACEMENT_3D ( 'NONE', #243, #349, #348 ) ;
#245 = CYLINDRICAL_SURFACE ( 'NONE', #244, 28.32799999999999900 ) ;
#246 = FACE_OUTER_BOUND ( 'NONE', #120, .T. ) ;
#247 = DIRECTION ( 'NONE',  ( -0.0000000000000000000, -0.0000000000000000000, 1.000000000000000000 ) ) ;
#248 = VECTOR ( 'NONE', #247, 1000.000000000000000 ) ;
#249 = CARTESIAN_POINT ( 'NONE',  ( 28.32799999999999900, 0.0000000000000000000, -4.336808689942017700E-016 ) ) ;
#250 = LINE ( 'NONE', #249, #248 ) ;
#251 = DIRECTION ( 'NONE',  ( -0.0000000000000000000, -0.0000000000000000000, 1.000000000000000000 ) ) ;
#252 = VECTOR ( 'NONE', #251, 1000.000000000000000 ) ;
#253 = CARTESIAN_POINT ( 'NONE',  ( 0.0000000000000000000, 26.54999999999999700, -2.796549528913474800E-015 ) ) ;
#254 = DIRECTION ( 'NONE',  ( 0.0000000000000000000, 1.000000000000000000, 2.613519361170330500E-016 ) ) ;
#255 = DIRECTION ( 'NONE',  ( -0.0000000000000000000, 1.560205037662430700E-016, -1.000000000000000000 ) ) ;
#256 = CARTESIAN_POINT ( 'NONE',  ( 0.0000000000000000000, 3.551475717527324000E-015, -45.00000000000000700 ) ) ;
#257 = AXIS2_PLACEMENT_3D ( 'NONE', #256, #255, #254 ) ;
#258 = CIRCLE ( 'NONE', #257, 26.55000000000000400 ) ;
#259 = DIRECTION ( 'NONE',  ( -0.0000000000000000000, 1.560205037662430700E-016, -1.000000000000000000 ) ) ;
#260 = VECTOR ( 'NONE', #259, 1000.000000000000000 ) ;
#261 = CARTESIAN_POINT ( 'NONE',  ( 3.251329869398411900E-015, -26.55000000000000100, -45.00000000000011400 ) ) ;
#262 = LINE ( 'NONE', #261, #260 ) ;
#263 = DIRECTION ( 'NONE',  ( 0.0000000000000000000, 1.000000000000000000, 1.560205037662430400E-016 ) ) ;
#264 = DIRECTION ( 'NONE',  ( -0.0000000000000000000, 1.560205037662430700E-016, -1.000000000000000000 ) ) ;
#265 = CARTESIAN_POINT ( 'NONE',  ( 0.0000000000000000000, -3.469446951953612600E-015, -6.938893903907228400E-015 ) ) ;
#266 = AXIS2_PLACEMENT_3D ( 'NONE', #265, #264, #263 ) ;
#267 = CIRCLE ( 'NONE', #266, 26.55000000000000100 ) ;
#268 = CARTESIAN_POINT ( 'NONE',  ( 3.251329869398411900E-015, -26.55000000000000100, -45.00000000000001400 ) ) ;
#269 = CARTESIAN_POINT ( 'NONE',  ( 27.33876444183772100, 0.0000000000000000000, -45.00000000000000700 ) ) ;
#270 = CARTESIAN_POINT ( 'NONE',  ( 28.32799999999999900, 0.0000000000000000000, -0.9892355581620261300 ) ) ;
#271 = DIRECTION ( 'NONE',  ( 1.000000000000000000, 0.0000000000000000000, 0.0000000000000000000 ) ) ;
#272 = DIRECTION ( 'NONE',  ( -0.0000000000000000000, -0.0000000000000000000, 1.000000000000000000 ) ) ;
#273 = CARTESIAN_POINT ( 'NONE',  ( 0.0000000000000000000, 0.0000000000000000000, -45.00000000000000700 ) ) ;
#274 = AXIS2_PLACEMENT_3D ( 'NONE', #273, #272, #271 ) ;
#275 = CIRCLE ( 'NONE', #274, 27.33876444183772100 ) ;
#276 = CARTESIAN_POINT ( 'NONE',  ( -27.33876444183772100, 3.408493671610402400E-015, -45.00000000000000700 ) ) ;
#277 = CARTESIAN_POINT ( 'NONE',  ( -28.32799999999999900, 3.469064879108030200E-015, -44.01076444183774300 ) ) ;
#278 = DIRECTION ( 'NONE',  ( -0.7071067811865525700, 8.659274570719415800E-017, 0.7071067811865425800 ) ) ;
#279 = VECTOR ( 'NONE', #278, 999.9999999999998900 ) ;
#280 = CARTESIAN_POINT ( 'NONE',  ( -28.32799999999999900, 3.469064879108030200E-015, -44.01076444183774300 ) ) ;
#281 = LINE ( 'NONE', #280, #279 ) ;
#282 = CARTESIAN_POINT ( 'NONE',  ( 28.32799999999999900, 0.0000000000000000000, -44.01076444183774300 ) ) ;
#283 = CARTESIAN_POINT ( 'NONE',  ( -28.32799999999999900, 3.469064879108030200E-015, -4.336808689942017700E-016 ) ) ;
#284 = LINE ( 'NONE', #283, #252 ) ;
#285 = DIRECTION ( 'NONE',  ( 1.000000000000000000, 0.0000000000000000000, 0.0000000000000000000 ) ) ;
#286 = DIRECTION ( 'NONE',  ( -0.0000000000000000000, -0.0000000000000000000, 1.000000000000000000 ) ) ;
#287 = AXIS2_PLACEMENT_3D ( 'NONE', #289, #286, #285 ) ;
#288 = CYLINDRICAL_SURFACE ( 'NONE', #287, 28.32799999999999900 ) ;
#289 = CARTESIAN_POINT ( 'NONE',  ( 0.0000000000000000000, 0.0000000000000000000, -4.336808689942017700E-016 ) ) ;
#290 = FACE_OUTER_BOUND ( 'NONE', #110, .T. ) ;
#291 = CARTESIAN_POINT ( 'NONE',  ( 3.251329869398411900E-015, -26.55000000000000400, -1.108123827890098200E-014 ) ) ;
#292 = DIRECTION ( 'NONE',  ( 1.000000000000000000, 0.0000000000000000000, 0.0000000000000000000 ) ) ;
#293 = DIRECTION ( 'NONE',  ( -0.0000000000000000000, -0.0000000000000000000, 1.000000000000000000 ) ) ;
#294 = ORIENTED_EDGE ( 'NONE', *, *, #124, .T. ) ;
#295 = ORIENTED_EDGE ( 'NONE', *, *, #154, .T. ) ;
#296 = ORIENTED_EDGE ( 'NONE', *, *, #241, .T. ) ;
#297 = VERTEX_POINT ( 'NONE', #253 ) ;
#298 = EDGE_LOOP ( 'NONE', ( #299, #294, #295, #237 ) ) ;
#299 = ORIENTED_EDGE ( 'NONE', *, *, #167, .F. ) ;
#300 = EDGE_LOOP ( 'NONE', ( #301, #303 ) ) ;
#301 = ORIENTED_EDGE ( 'NONE', *, *, #302, .T. ) ;
#302 = EDGE_CURVE ( 'NONE', #158, #155, #20, .T. ) ;
#303 = ORIENTED_EDGE ( 'NONE', *, *, #153, .T. ) ;
#304 = ADVANCED_FACE ( 'NONE', ( #8 ), #6, .F. ) ;
#305 = EDGE_LOOP ( 'NONE', ( #306, #233, #234, #138 ) ) ;
#306 = ORIENTED_EDGE ( 'NONE', *, *, #240, .F. ) ;
#307 = ADVANCED_FACE ( 'NONE', ( #4 ), #25, .T. ) ;
#308 = CLOSED_SHELL ( 'NONE', ( #160, #151, #144, #121, #115, #136, #126, #304, #139, #307 ) ) ;
#309 = AXIS2_PLACEMENT_3D ( 'NONE', #316, #293, #292 ) ;
#310 = CIRCLE ( 'NONE', #309, 28.32799999999999900 ) ;
#311 = DIRECTION ( 'NONE',  ( 1.000000000000000000, 0.0000000000000000000, 0.0000000000000000000 ) ) ;
#312 = DIRECTION ( 'NONE',  ( -0.0000000000000000000, -0.0000000000000000000, 1.000000000000000000 ) ) ;
#313 = CARTESIAN_POINT ( 'NONE',  ( 0.0000000000000000000, 0.0000000000000000000, -0.9892355581620261300 ) ) ;
#314 = AXIS2_PLACEMENT_3D ( 'NONE', #313, #312, #311 ) ;
#315 = CIRCLE ( 'NONE', #314, 28.32799999999999900 ) ;
#316 = CARTESIAN_POINT ( 'NONE',  ( 0.0000000000000000000, 0.0000000000000000000, -44.01076444183774300 ) ) ;
#317 = FACE_OUTER_BOUND ( 'NONE', #140, .T. ) ;
#318 = PLANE ( 'NONE',  #201 ) ;
#319 = FACE_OUTER_BOUND ( 'NONE', #133, .T. ) ;
#320 = FACE_BOUND ( 'NONE', #137, .T. ) ;
#321 = CARTESIAN_POINT ( 'NONE',  ( 0.0000000000000000000, 26.55000000000000800, -45.00000000000000000 ) ) ;
#322 = DIRECTION ( 'NONE',  ( 0.0000000000000000000, 1.000000000000000000, 2.613519361170330500E-016 ) ) ;
#323 = DIRECTION ( 'NONE',  ( -0.0000000000000000000, 1.560205037662430700E-016, -1.000000000000000000 ) ) ;
#324 = AXIS2_PLACEMENT_3D ( 'NONE', #329, #323, #322 ) ;
#325 = CIRCLE ( 'NONE', #324, 26.55000000000000400 ) ;
#326 = DIRECTION ( 'NONE',  ( -1.000000000000000000, 0.0000000000000000000, -0.0000000000000000000 ) ) ;
#327 = DIRECTION ( 'NONE',  ( 0.0000000000000000000, 0.0000000000000000000, -1.000000000000000000 ) ) ;
#328 = AXIS2_PLACEMENT_3D ( 'NONE', #330, #327, #326 ) ;
#329 = CARTESIAN_POINT ( 'NONE',  ( 0.0000000000000000000, 3.551475717527324000E-015, -45.00000000000000700 ) ) ;
#330 = CARTESIAN_POINT ( 'NONE',  ( 0.0000000000000000000, 28.32799999999999900, -2.168404344971008900E-016 ) ) ;
#331 = PLANE ( 'NONE',  #328 ) ;
#332 = FACE_OUTER_BOUND ( 'NONE', #300, .T. ) ;
#333 = FACE_BOUND ( 'NONE', #129, .T. ) ;
#334 = DIRECTION ( 'NONE',  ( 1.000000000000000000, 0.0000000000000000000, 0.0000000000000000000 ) ) ;
#335 = DIRECTION ( 'NONE',  ( -0.0000000000000000000, -0.0000000000000000000, 1.000000000000000000 ) ) ;
#336 = CARTESIAN_POINT ( 'NONE',  ( 0.0000000000000000000, 0.0000000000000000000, -45.00000000000000700 ) ) ;
#337 = AXIS2_PLACEMENT_3D ( 'NONE', #336, #335, #334 ) ;
#338 = CIRCLE ( 'NONE', #337, 27.33876444183772100 ) ;
#339 = DIRECTION ( 'NONE',  ( 0.0000000000000000000, 1.000000000000000000, 1.560205037662430400E-016 ) ) ;
#340 = DIRECTION ( 'NONE',  ( -0.0000000000000000000, 1.560205037662430700E-016, -1.000000000000000000 ) ) ;
#341 = CARTESIAN_POINT ( 'NONE',  ( 0.0000000000000000000, -3.469446951953612600E-015, -6.938893903907228400E-015 ) ) ;
#342 = AXIS2_PLACEMENT_3D ( 'NONE', #341, #340, #339 ) ;
#343 = CIRCLE ( 'NONE', #342, 26.55000000000000100 ) ;
#344 = DIRECTION ( 'NONE',  ( -0.0000000000000000000, 1.560205037662430700E-016, -1.000000000000000000 ) ) ;
#345 = VECTOR ( 'NONE', #344, 1000.000000000000000 ) ;
#346 = CARTESIAN_POINT ( 'NONE',  ( 0.0000000000000000000, 26.55000000000000800, -45.00000000000009900 ) ) ;
#347 = LINE ( 'NONE', #346, #345 ) ;
#348 = DIRECTION ( 'NONE',  ( 1.000000000000000000, 0.0000000000000000000, 0.0000000000000000000 ) ) ;
#349 = DIRECTION ( 'NONE',  ( -0.0000000000000000000, -0.0000000000000000000, 1.000000000000000000 ) ) ;
ENDSEC;
END-ISO-10303-21;
