ISO-10303-21;
HEADER;
FILE_DESCRIPTION (( 'STEP AP203' ),
    '1' );
FILE_NAME ('11-0232-08_outokumpu.step',
    '2015-08-11T14:08:09',
    ( '' ),
    ( '' ),
    'SwSTEP 2.0',
    'SolidWorks 2008',
    '' );
FILE_SCHEMA (( 'CONFIG_CONTROL_DESIGN' ));
ENDSEC;

DATA;
#1 = ORIENTED_EDGE ( 'NONE', *, *, #118, .F. ) ;
#2 = ORIENTED_EDGE ( 'NONE', *, *, #5, .T. ) ;
#3 = VERTEX_POINT ( 'NONE', #37 ) ;
#4 = EDGE_LOOP ( 'NONE', ( #6, #2, #120, #1 ) ) ;
#5 = EDGE_CURVE ( 'NONE', #3, #119, #108, .T. ) ;
#6 = ORIENTED_EDGE ( 'NONE', *, *, #7, .T. ) ;
#7 = EDGE_CURVE ( 'NONE', #10, #3, #103, .T. ) ;
#8 = EDGE_CURVE ( 'NONE', #9, #119, #98, .T. ) ;
#9 = VERTEX_POINT ( 'NONE', #94 ) ;
#10 = VERTEX_POINT ( 'NONE', #93 ) ;
#11 = MANIFOLD_SOLID_BREP ( 'NONE', #40 ) ;
#12 = ADVANCED_FACE ( 'NONE', ( #92 ), #90, .T. ) ;
#13 = VERTEX_POINT ( 'NONE', #88 ) ;
#14 = VERTEX_POINT ( 'NONE', #85 ) ;
#15 = ORIENTED_EDGE ( 'NONE', *, *, #18, .F. ) ;
#16 = ORIENTED_EDGE ( 'NONE', *, *, #17, .F. ) ;
#17 = EDGE_CURVE ( 'NONE', #14, #34, #84, .T. ) ;
#18 = EDGE_CURVE ( 'NONE', #13, #14, #79, .T. ) ;
#19 = EDGE_LOOP ( 'NONE', ( #67, #21, #57, #49 ) ) ;
#20 = ORIENTED_EDGE ( 'NONE', *, *, #68, .F. ) ;
#21 = ORIENTED_EDGE ( 'NONE', *, *, #24, .F. ) ;
#22 = ADVANCED_FACE ( 'NONE', ( #75 ), #73, .F. ) ;
#23 = ADVANCED_FACE ( 'NONE', ( #74 ), #305, .F. ) ;
#24 = EDGE_CURVE ( 'NONE', #3, #10, #246, .T. ) ;
#25 = ORIENTED_EDGE ( 'NONE', *, *, #114, .F. ) ;
#26 = EDGE_LOOP ( 'NONE', ( #20, #25 ) ) ;
#27 = VERTEX_POINT ( 'NONE', #139 ) ;
#28 = ORIENTED_EDGE ( 'NONE', *, *, #109, .F. ) ;
#29 = ADVANCED_FACE ( 'NONE', ( #138 ), #137, .F. ) ;
#30 = EDGE_LOOP ( 'NONE', ( #31, #35, #16, #15 ) ) ;
#31 = ORIENTED_EDGE ( 'NONE', *, *, #32, .T. ) ;
#32 = EDGE_CURVE ( 'NONE', #13, #33, #260, .T. ) ;
#33 = VERTEX_POINT ( 'NONE', #255 ) ;
#34 = VERTEX_POINT ( 'NONE', #254 ) ;
#35 = ORIENTED_EDGE ( 'NONE', *, *, #36, .T. ) ;
#36 = EDGE_CURVE ( 'NONE', #33, #34, #253, .T. ) ;
#37 = CARTESIAN_POINT ( 'NONE',  ( 0.0000000000000000000, -23.90149999999999900, -14.66534122799315800 ) ) ;
#38 = ORIENTED_EDGE ( 'NONE', *, *, #17, .T. ) ;
#39 = ORIENTED_EDGE ( 'NONE', *, *, #54, .T. ) ;
#40 = CLOSED_SHELL ( 'NONE', ( #12, #29, #117, #22, #23, #59, #60, #47, #55 ) ) ;
#41 = ORIENTED_EDGE ( 'NONE', *, *, #42, .F. ) ;
#42 = EDGE_CURVE ( 'NONE', #33, #13, #241, .T. ) ;
#43 = EDGE_LOOP ( 'NONE', ( #44, #46 ) ) ;
#44 = ORIENTED_EDGE ( 'NONE', *, *, #8, .T. ) ;
#45 = EDGE_LOOP ( 'NONE', ( #50, #51, #52, #53 ) ) ;
#46 = ORIENTED_EDGE ( 'NONE', *, *, #64, .T. ) ;
#47 = ADVANCED_FACE ( 'NONE', ( #236 ), #235, .T. ) ;
#48 = ORIENTED_EDGE ( 'NONE', *, *, #24, .T. ) ;
#49 = ORIENTED_EDGE ( 'NONE', *, *, #68, .T. ) ;
#50 = ORIENTED_EDGE ( 'NONE', *, *, #36, .F. ) ;
#51 = ORIENTED_EDGE ( 'NONE', *, *, #42, .T. ) ;
#52 = ORIENTED_EDGE ( 'NONE', *, *, #18, .T. ) ;
#53 = ORIENTED_EDGE ( 'NONE', *, *, #54, .F. ) ;
#54 = EDGE_CURVE ( 'NONE', #34, #14, #230, .T. ) ;
#55 = ADVANCED_FACE ( 'NONE', ( #225 ), #224, .F. ) ;
#56 = EDGE_LOOP ( 'NONE', ( #38, #39 ) ) ;
#57 = ORIENTED_EDGE ( 'NONE', *, *, #109, .T. ) ;
#58 = ORIENTED_EDGE ( 'NONE', *, *, #5, .F. ) ;
#59 = ADVANCED_FACE ( 'NONE', ( #222 ), #218, .F. ) ;
#60 = ADVANCED_FACE ( 'NONE', ( #217, #212 ), #291, .F. ) ;
#61 = ORIENTED_EDGE ( 'NONE', *, *, #32, .F. ) ;
#62 = ORIENTED_EDGE ( 'NONE', *, *, #118, .T. ) ;
#63 = ORIENTED_EDGE ( 'NONE', *, *, #64, .F. ) ;
#64 = EDGE_CURVE ( 'NONE', #119, #9, #286, .T. ) ;
#65 = EDGE_LOOP ( 'NONE', ( #61, #41 ) ) ;
#66 = EDGE_LOOP ( 'NONE', ( #58, #48, #62, #63 ) ) ;
#67 = ORIENTED_EDGE ( 'NONE', *, *, #111, .F. ) ;
#68 = EDGE_CURVE ( 'NONE', #112, #27, #282, .T. ) ;
#69 = DIRECTION ( 'NONE',  ( 0.0000000000000000000, -1.000000000000000000, 9.876183864091557800E-017 ) ) ;
#70 = DIRECTION ( 'NONE',  ( -0.0000000000000000000, 9.876183864091557800E-017, 1.000000000000000000 ) ) ;
#71 = CARTESIAN_POINT ( 'NONE',  ( 0.0000000000000000000, 23.90149999999999900, 9.999999999999994700 ) ) ;
#72 = AXIS2_PLACEMENT_3D ( 'NONE', #71, #70, #69 ) ;
#73 = PLANE ( 'NONE',  #72 ) ;
#74 = FACE_OUTER_BOUND ( 'NONE', #19, .T. ) ;
#75 = FACE_OUTER_BOUND ( 'NONE', #26, .T. ) ;
#76 = DIRECTION ( 'NONE',  ( -0.0000000000000000000, 9.876183864091557800E-017, 1.000000000000000000 ) ) ;
#77 = VECTOR ( 'NONE', #76, 1000.000000000000000 ) ;
#78 = CARTESIAN_POINT ( 'NONE',  ( 0.0000000000000000000, -28.49999999999999600, 2.814712401266093600E-015 ) ) ;
#79 = LINE ( 'NONE', #78, #77 ) ;
#80 = DIRECTION ( 'NONE',  ( 0.0000000000000000000, -1.000000000000000000, 1.217349807703022600E-016 ) ) ;
#81 = DIRECTION ( 'NONE',  ( -0.0000000000000000000, 9.876183864091557800E-017, 1.000000000000000000 ) ) ;
#82 = CARTESIAN_POINT ( 'NONE',  ( 0.0000000000000000000, 1.530808498934191700E-015, 15.50000000000000400 ) ) ;
#83 = AXIS2_PLACEMENT_3D ( 'NONE', #82, #81, #80 ) ;
#84 = CIRCLE ( 'NONE', #83, 28.49999999999999600 ) ;
#85 = CARTESIAN_POINT ( 'NONE',  ( 0.0000000000000000000, -28.49999999999999600, 15.50000000000000700 ) ) ;
#86 = DIRECTION ( 'NONE',  ( 0.0000000000000000000, -1.000000000000000000, 9.876183864091557800E-017 ) ) ;
#87 = DIRECTION ( 'NONE',  ( -0.0000000000000000000, 9.876183864091557800E-017, 1.000000000000000000 ) ) ;
#88 = CARTESIAN_POINT ( 'NONE',  ( 0.0000000000000000000, -28.49999999999999600, -15.49999999999999300 ) ) ;
#89 = AXIS2_PLACEMENT_3D ( 'NONE', #91, #87, #86 ) ;
#90 = CYLINDRICAL_SURFACE ( 'NONE', #89, 28.49999999999999600 ) ;
#91 = CARTESIAN_POINT ( 'NONE',  ( 0.0000000000000000000, 0.0000000000000000000, 0.0000000000000000000 ) ) ;
#92 = FACE_OUTER_BOUND ( 'NONE', #30, .T. ) ;
#93 = CARTESIAN_POINT ( 'NONE',  ( 2.926992876588555000E-015, 23.90149999999999900, -14.66534122799316000 ) ) ;
#94 = CARTESIAN_POINT ( 'NONE',  ( 0.0000000000000000000, 24.73615877200684200, -15.50000000000000000 ) ) ;
#95 = DIRECTION ( 'NONE',  ( 0.0000000000000000000, -1.000000000000000000, 7.012905649441176600E-017 ) ) ;
#96 = DIRECTION ( 'NONE',  ( -0.0000000000000000000, 9.876183864091557800E-017, 1.000000000000000000 ) ) ;
#97 = AXIS2_PLACEMENT_3D ( 'NONE', #104, #96, #95 ) ;
#98 = CIRCLE ( 'NONE', #97, 24.73615877200684200 ) ;
#99 = DIRECTION ( 'NONE',  ( 0.0000000000000000000, -1.000000000000000000, 7.257801711092639400E-017 ) ) ;
#100 = DIRECTION ( 'NONE',  ( -0.0000000000000000000, 9.876183864091557800E-017, 1.000000000000000000 ) ) ;
#101 = CARTESIAN_POINT ( 'NONE',  ( 0.0000000000000000000, -1.448376063973027100E-015, -14.66534122799316000 ) ) ;
#102 = AXIS2_PLACEMENT_3D ( 'NONE', #101, #100, #99 ) ;
#103 = CIRCLE ( 'NONE', #102, 23.90149999999999900 ) ;
#104 = CARTESIAN_POINT ( 'NONE',  ( 0.0000000000000000000, -1.530808498934191100E-015, -15.49999999999999800 ) ) ;
#105 = DIRECTION ( 'NONE',  ( 8.659274570719373900E-017, -0.7071067811865491300, -0.7071067811865459100 ) ) ;
#106 = VECTOR ( 'NONE', #105, 1000.000000000000000 ) ;
#107 = CARTESIAN_POINT ( 'NONE',  ( 2.926992876588555000E-015, -23.90149999999999900, -14.66534122799315800 ) ) ;
#108 = LINE ( 'NONE', #107, #106 ) ;
#109 = EDGE_CURVE ( 'NONE', #3, #112, #277, .T. ) ;
#110 = ORIENTED_EDGE ( 'NONE', *, *, #111, .T. ) ;
#111 = EDGE_CURVE ( 'NONE', #10, #27, #273, .T. ) ;
#112 = VERTEX_POINT ( 'NONE', #269 ) ;
#113 = ORIENTED_EDGE ( 'NONE', *, *, #114, .T. ) ;
#114 = EDGE_CURVE ( 'NONE', #27, #112, #267, .T. ) ;
#115 = ORIENTED_EDGE ( 'NONE', *, *, #7, .F. ) ;
#116 = EDGE_LOOP ( 'NONE', ( #115, #110, #113, #28 ) ) ;
#117 = ADVANCED_FACE ( 'NONE', ( #262 ), #261, .F. ) ;
#118 = EDGE_CURVE ( 'NONE', #10, #9, #165, .T. ) ;
#119 = VERTEX_POINT ( 'NONE', #161 ) ;
#120 = ORIENTED_EDGE ( 'NONE', *, *, #8, .F. ) ;
#121 = APPROVAL ( #122, 'UNSPECIFIED' ) ;
#122 = APPROVAL_STATUS ( 'not_yet_approved' ) ;
#123 = PERSON_AND_ORGANIZATION ( #145, #144 ) ;
#124 = CC_DESIGN_DATE_AND_TIME_ASSIGNMENT ( #126, #125, ( #133 ) ) ;
#125 = DATE_TIME_ROLE ( 'classification_date' ) ;
#126 = DATE_AND_TIME ( #127, #128 ) ;
#127 = CALENDAR_DATE ( 2015, 11, 8 ) ;
#128 = LOCAL_TIME ( 16, 8, 9.000000000000000000, #129 ) ;
#129 = COORDINATED_UNIVERSAL_TIME_OFFSET ( 1, 0, .AHEAD. ) ;
#130 = CC_DESIGN_PERSON_AND_ORGANIZATION_ASSIGNMENT ( #132, #131, ( #133 ) ) ;
#131 = PERSON_AND_ORGANIZATION_ROLE ( 'classification_officer' ) ;
#132 = PERSON_AND_ORGANIZATION ( #145, #144 ) ;
#133 = SECURITY_CLASSIFICATION ( '', '', #134 ) ;
#134 = SECURITY_CLASSIFICATION_LEVEL ( 'unclassified' ) ;
#135 = CC_DESIGN_PERSON_AND_ORGANIZATION_ASSIGNMENT ( #170, #169, ( #185 ) ) ;
#136 = CARTESIAN_POINT ( 'NONE',  ( 0.0000000000000000000, -1.448376063973027100E-015, -14.66534122799316000 ) ) ;
#137 = CONICAL_SURFACE ( 'NONE', #252, 23.90149999999999900, 0.7853981633974503900 ) ;
#138 = FACE_OUTER_BOUND ( 'NONE', #4, .T. ) ;
#139 = CARTESIAN_POINT ( 'NONE',  ( 2.926992876588555000E-015, 23.90149999999999900, 9.999999999999998200 ) ) ;
#140 = DIRECTION ( 'NONE',  ( 0.0000000000000000000, -1.000000000000000000, 7.257801711092639400E-017 ) ) ;
#141 = DIRECTION ( 'NONE',  ( -0.0000000000000000000, 9.876183864091557800E-017, 1.000000000000000000 ) ) ;
#142 = AXIS2_PLACEMENT_3D ( 'NONE', #245, #141, #140 ) ;
#143 = PERSON_AND_ORGANIZATION ( #145, #144 ) ;
#144 = ORGANIZATION ( 'UNSPECIFIED', 'UNSPECIFIED', '' ) ;
#145 = PERSON ( 'UNSPECIFIED', 'UNSPECIFIED', 'UNSPECIFIED', ('UNSPECIFIED'), ('UNSPECIFIED'), ('UNSPECIFIED') ) ;
#146 = PRODUCT ( '11-0232-08_outokumpu', '11-0232-08_outokumpu', '', ( #147 ) ) ;
#147 = MECHANICAL_CONTEXT ( 'NONE', #153, 'mechanical' ) ;
#148 = APPLICATION_PROTOCOL_DEFINITION ( 'international standard', 'config_control_design', 1994, #153 ) ;
#149 = AXIS2_PLACEMENT_3D ( 'NONE', #150, #152, #151 ) ;
#150 = CARTESIAN_POINT ( 'NONE',  ( 0.0000000000000000000, 0.0000000000000000000, 0.0000000000000000000 ) ) ;
#151 = DIRECTION ( 'NONE',  ( 1.000000000000000000, 0.0000000000000000000, 0.0000000000000000000 ) ) ;
#152 = DIRECTION ( 'NONE',  ( 0.0000000000000000000, 0.0000000000000000000, 1.000000000000000000 ) ) ;
#153 = APPLICATION_CONTEXT ( 'configuration controlled 3d designs of mechanical parts and assemblies' ) ;
#154 = SHAPE_DEFINITION_REPRESENTATION ( #293, #155 ) ;
#155 = ADVANCED_BREP_SHAPE_REPRESENTATION ( '11-0232-08_outokumpu', ( #11, #149 ), #156 ) ;
#156 =( GEOMETRIC_REPRESENTATION_CONTEXT ( 3 ) GLOBAL_UNCERTAINTY_ASSIGNED_CONTEXT ( ( #157 ) ) GLOBAL_UNIT_ASSIGNED_CONTEXT ( ( #160, #159, #158 ) ) REPRESENTATION_CONTEXT ( 'NONE', 'WORKASPACE' ) );
#157 = UNCERTAINTY_MEASURE_WITH_UNIT (LENGTH_MEASURE( 1.000000000000000100E-005 ), #160, 'distance_accuracy_value', 'NONE');
#158 =( NAMED_UNIT ( * ) SI_UNIT ( $, .STERADIAN. ) SOLID_ANGLE_UNIT ( ) );
#159 =( NAMED_UNIT ( * ) PLANE_ANGLE_UNIT ( ) SI_UNIT ( $, .RADIAN. ) );
#160 =( LENGTH_UNIT ( ) NAMED_UNIT ( * ) SI_UNIT ( .MILLI., .METRE. ) );
#161 = CARTESIAN_POINT ( 'NONE',  ( 3.029205720135871200E-015, -24.73615877200684200, -15.49999999999999600 ) ) ;
#162 = DIRECTION ( 'NONE',  ( 0.0000000000000000000, 0.7071067811865489100, -0.7071067811865462400 ) ) ;
#163 = VECTOR ( 'NONE', #162, 1000.000000000000000 ) ;
#164 = CARTESIAN_POINT ( 'NONE',  ( 0.0000000000000000000, 23.90149999999999900, -14.66534122799316000 ) ) ;
#165 = LINE ( 'NONE', #164, #163 ) ;
#166 = DIRECTION ( 'NONE',  ( 0.0000000000000000000, -1.000000000000000000, 9.876183864091557800E-017 ) ) ;
#167 = DIRECTION ( 'NONE',  ( -0.0000000000000000000, 9.876183864091557800E-017, 1.000000000000000000 ) ) ;
#168 = AXIS2_PLACEMENT_3D ( 'NONE', #268, #167, #166 ) ;
#169 = PERSON_AND_ORGANIZATION_ROLE ( 'design_supplier' ) ;
#170 = PERSON_AND_ORGANIZATION ( #145, #144 ) ;
#171 = CC_DESIGN_PERSON_AND_ORGANIZATION_ASSIGNMENT ( #173, #172, ( #185 ) ) ;
#172 = PERSON_AND_ORGANIZATION_ROLE ( 'creator' ) ;
#173 = PERSON_AND_ORGANIZATION ( #145, #144 ) ;
#174 = CC_DESIGN_APPROVAL ( #182, ( #185 ) ) ;
#175 = APPROVAL_DATE_TIME ( #176, #182 ) ;
#176 = DATE_AND_TIME ( #177, #178 ) ;
#177 = CALENDAR_DATE ( 2015, 11, 8 ) ;
#178 = LOCAL_TIME ( 16, 8, 9.000000000000000000, #179 ) ;
#179 = COORDINATED_UNIVERSAL_TIME_OFFSET ( 1, 0, .AHEAD. ) ;
#180 = APPROVAL_PERSON_ORGANIZATION ( #184, #182, #181 ) ;
#181 = APPROVAL_ROLE ( '' ) ;
#182 = APPROVAL ( #183, 'UNSPECIFIED' ) ;
#183 = APPROVAL_STATUS ( 'not_yet_approved' ) ;
#184 = PERSON_AND_ORGANIZATION ( #145, #144 ) ;
#185 = PRODUCT_DEFINITION_FORMATION_WITH_SPECIFIED_SOURCE ( 'ANY', '', #146, .NOT_KNOWN. ) ;
#186 = CC_DESIGN_DATE_AND_TIME_ASSIGNMENT ( #188, #187, ( #206 ) ) ;
#187 = DATE_TIME_ROLE ( 'creation_date' ) ;
#188 = DATE_AND_TIME ( #189, #190 ) ;
#189 = CALENDAR_DATE ( 2015, 11, 8 ) ;
#190 = LOCAL_TIME ( 16, 8, 9.000000000000000000, #191 ) ;
#191 = COORDINATED_UNIVERSAL_TIME_OFFSET ( 1, 0, .AHEAD. ) ;
#192 = CC_DESIGN_PERSON_AND_ORGANIZATION_ASSIGNMENT ( #194, #193, ( #206 ) ) ;
#193 = PERSON_AND_ORGANIZATION_ROLE ( 'creator' ) ;
#194 = PERSON_AND_ORGANIZATION ( #145, #144 ) ;
#195 = CC_DESIGN_APPROVAL ( #203, ( #206 ) ) ;
#196 = APPROVAL_DATE_TIME ( #197, #203 ) ;
#197 = DATE_AND_TIME ( #198, #199 ) ;
#198 = CALENDAR_DATE ( 2015, 11, 8 ) ;
#199 = LOCAL_TIME ( 16, 8, 9.000000000000000000, #200 ) ;
#200 = COORDINATED_UNIVERSAL_TIME_OFFSET ( 1, 0, .AHEAD. ) ;
#201 = APPROVAL_PERSON_ORGANIZATION ( #205, #203, #202 ) ;
#202 = APPROVAL_ROLE ( '' ) ;
#203 = APPROVAL ( #204, 'UNSPECIFIED' ) ;
#204 = APPROVAL_STATUS ( 'not_yet_approved' ) ;
#205 = PERSON_AND_ORGANIZATION ( #145, #144 ) ;
#206 = PRODUCT_DEFINITION ( 'UNKNOWN', '', #185, #207 ) ;
#207 = DESIGN_CONTEXT ( 'detailed design', #209, 'design' ) ;
#208 = APPLICATION_PROTOCOL_DEFINITION ( 'international standard', 'config_control_design', 1994, #209 ) ;
#209 = APPLICATION_CONTEXT ( 'configuration controlled 3d designs of mechanical parts and assemblies' ) ;
#210 = CC_DESIGN_PERSON_AND_ORGANIZATION_ASSIGNMENT ( #143, #211, ( #146 ) ) ;
#211 = PERSON_AND_ORGANIZATION_ROLE ( 'design_owner' ) ;
#212 = FACE_BOUND ( 'NONE', #43, .T. ) ;
#213 = DIRECTION ( 'NONE',  ( 0.0000000000000000000, 1.000000000000000000, -7.257801711092639400E-017 ) ) ;
#214 = DIRECTION ( 'NONE',  ( 0.0000000000000000000, -9.876183864091557800E-017, -1.000000000000000000 ) ) ;
#215 = CARTESIAN_POINT ( 'NONE',  ( 0.0000000000000000000, -1.448376063973027100E-015, -14.66534122799316000 ) ) ;
#216 = AXIS2_PLACEMENT_3D ( 'NONE', #215, #214, #213 ) ;
#217 = FACE_OUTER_BOUND ( 'NONE', #65, .T. ) ;
#218 = CONICAL_SURFACE ( 'NONE', #216, 23.90149999999999900, 0.7853981633974503900 ) ;
#219 = DIRECTION ( 'NONE',  ( 0.0000000000000000000, 1.000000000000000000, -9.876183864091557800E-017 ) ) ;
#220 = DIRECTION ( 'NONE',  ( 0.0000000000000000000, -9.876183864091557800E-017, -1.000000000000000000 ) ) ;
#221 = AXIS2_PLACEMENT_3D ( 'NONE', #223, #220, #219 ) ;
#222 = FACE_OUTER_BOUND ( 'NONE', #66, .T. ) ;
#223 = CARTESIAN_POINT ( 'NONE',  ( 0.0000000000000000000, -1.530808498934191700E-015, 15.50000000000000400 ) ) ;
#224 = PLANE ( 'NONE',  #221 ) ;
#225 = FACE_OUTER_BOUND ( 'NONE', #56, .T. ) ;
#226 = DIRECTION ( 'NONE',  ( 0.0000000000000000000, -1.000000000000000000, 1.217349807703022600E-016 ) ) ;
#227 = DIRECTION ( 'NONE',  ( -0.0000000000000000000, 9.876183864091557800E-017, 1.000000000000000000 ) ) ;
#228 = CARTESIAN_POINT ( 'NONE',  ( 0.0000000000000000000, 1.530808498934191700E-015, 15.50000000000000400 ) ) ;
#229 = AXIS2_PLACEMENT_3D ( 'NONE', #228, #227, #226 ) ;
#230 = CIRCLE ( 'NONE', #229, 28.49999999999999600 ) ;
#231 = DIRECTION ( 'NONE',  ( 0.0000000000000000000, -1.000000000000000000, 9.876183864091557800E-017 ) ) ;
#232 = DIRECTION ( 'NONE',  ( -0.0000000000000000000, 9.876183864091557800E-017, 1.000000000000000000 ) ) ;
#233 = CARTESIAN_POINT ( 'NONE',  ( 0.0000000000000000000, 0.0000000000000000000, 0.0000000000000000000 ) ) ;
#234 = AXIS2_PLACEMENT_3D ( 'NONE', #233, #232, #231 ) ;
#235 = CYLINDRICAL_SURFACE ( 'NONE', #234, 28.49999999999999600 ) ;
#236 = FACE_OUTER_BOUND ( 'NONE', #45, .T. ) ;
#237 = DIRECTION ( 'NONE',  ( 0.0000000000000000000, -1.000000000000000000, 1.217349807703022600E-016 ) ) ;
#238 = DIRECTION ( 'NONE',  ( -0.0000000000000000000, 9.876183864091557800E-017, 1.000000000000000000 ) ) ;
#239 = CARTESIAN_POINT ( 'NONE',  ( 0.0000000000000000000, -1.530808498934190900E-015, -15.49999999999999600 ) ) ;
#240 = AXIS2_PLACEMENT_3D ( 'NONE', #239, #238, #237 ) ;
#241 = CIRCLE ( 'NONE', #240, 28.49999999999999600 ) ;
#242 = DIRECTION ( 'NONE',  ( -0.0000000000000000000, 9.876183864091557800E-017, 1.000000000000000000 ) ) ;
#243 = VECTOR ( 'NONE', #242, 1000.000000000000000 ) ;
#244 = CARTESIAN_POINT ( 'NONE',  ( 3.490128108393774400E-015, 28.49999999999999600, -2.814712401266093600E-015 ) ) ;
#245 = CARTESIAN_POINT ( 'NONE',  ( 0.0000000000000000000, -1.448376063973027100E-015, -14.66534122799316000 ) ) ;
#246 = CIRCLE ( 'NONE', #142, 23.90149999999999900 ) ;
#247 = DIRECTION ( 'NONE',  ( 0.0000000000000000000, -1.000000000000000000, 9.876183864091557800E-017 ) ) ;
#248 = DIRECTION ( 'NONE',  ( -0.0000000000000000000, 9.876183864091557800E-017, 1.000000000000000000 ) ) ;
#249 = AXIS2_PLACEMENT_3D ( 'NONE', #304, #248, #247 ) ;
#250 = DIRECTION ( 'NONE',  ( 0.0000000000000000000, 1.000000000000000000, -7.257801711092639400E-017 ) ) ;
#251 = DIRECTION ( 'NONE',  ( 0.0000000000000000000, -9.876183864091557800E-017, -1.000000000000000000 ) ) ;
#252 = AXIS2_PLACEMENT_3D ( 'NONE', #136, #251, #250 ) ;
#253 = LINE ( 'NONE', #244, #243 ) ;
#254 = CARTESIAN_POINT ( 'NONE',  ( 3.490128108393774400E-015, 28.49999999999999600, 15.50000000000000000 ) ) ;
#255 = CARTESIAN_POINT ( 'NONE',  ( 3.490128108393774400E-015, 28.49999999999999600, -15.50000000000000000 ) ) ;
#256 = DIRECTION ( 'NONE',  ( 0.0000000000000000000, -1.000000000000000000, 1.217349807703022600E-016 ) ) ;
#257 = DIRECTION ( 'NONE',  ( -0.0000000000000000000, 9.876183864091557800E-017, 1.000000000000000000 ) ) ;
#258 = CARTESIAN_POINT ( 'NONE',  ( 0.0000000000000000000, -1.530808498934190900E-015, -15.49999999999999600 ) ) ;
#259 = AXIS2_PLACEMENT_3D ( 'NONE', #258, #257, #256 ) ;
#260 = CIRCLE ( 'NONE', #259, 28.49999999999999600 ) ;
#261 = CYLINDRICAL_SURFACE ( 'NONE', #168, 23.90149999999999900 ) ;
#262 = FACE_OUTER_BOUND ( 'NONE', #116, .T. ) ;
#263 = DIRECTION ( 'NONE',  ( 0.0000000000000000000, -1.000000000000000000, 7.257801711092639400E-017 ) ) ;
#264 = DIRECTION ( 'NONE',  ( -0.0000000000000000000, 9.876183864091557800E-017, 1.000000000000000000 ) ) ;
#265 = CARTESIAN_POINT ( 'NONE',  ( 0.0000000000000000000, 9.876183864091558000E-016, 10.00000000000000000 ) ) ;
#266 = AXIS2_PLACEMENT_3D ( 'NONE', #265, #264, #263 ) ;
#267 = CIRCLE ( 'NONE', #266, 23.90149999999999900 ) ;
#268 = CARTESIAN_POINT ( 'NONE',  ( 0.0000000000000000000, 0.0000000000000000000, 0.0000000000000000000 ) ) ;
#269 = CARTESIAN_POINT ( 'NONE',  ( 0.0000000000000000000, -23.90149999999999900, 10.00000000000000200 ) ) ;
#270 = DIRECTION ( 'NONE',  ( -0.0000000000000000000, 9.876183864091557800E-017, 1.000000000000000000 ) ) ;
#271 = VECTOR ( 'NONE', #270, 1000.000000000000000 ) ;
#272 = CARTESIAN_POINT ( 'NONE',  ( 2.926992876588555000E-015, 23.90149999999999900, -2.360556086275843400E-015 ) ) ;
#273 = LINE ( 'NONE', #272, #271 ) ;
#274 = DIRECTION ( 'NONE',  ( -0.0000000000000000000, 9.876183864091557800E-017, 1.000000000000000000 ) ) ;
#275 = VECTOR ( 'NONE', #274, 1000.000000000000000 ) ;
#276 = CARTESIAN_POINT ( 'NONE',  ( 0.0000000000000000000, -23.90149999999999900, 2.360556086275843400E-015 ) ) ;
#277 = LINE ( 'NONE', #276, #275 ) ;
#278 = DIRECTION ( 'NONE',  ( 0.0000000000000000000, -1.000000000000000000, 7.257801711092639400E-017 ) ) ;
#279 = DIRECTION ( 'NONE',  ( -0.0000000000000000000, 9.876183864091557800E-017, 1.000000000000000000 ) ) ;
#280 = CARTESIAN_POINT ( 'NONE',  ( 0.0000000000000000000, 9.876183864091558000E-016, 10.00000000000000000 ) ) ;
#281 = AXIS2_PLACEMENT_3D ( 'NONE', #280, #279, #278 ) ;
#282 = CIRCLE ( 'NONE', #281, 23.90149999999999900 ) ;
#283 = DIRECTION ( 'NONE',  ( 0.0000000000000000000, -1.000000000000000000, 7.012905649441176600E-017 ) ) ;
#284 = DIRECTION ( 'NONE',  ( -0.0000000000000000000, 9.876183864091557800E-017, 1.000000000000000000 ) ) ;
#285 = AXIS2_PLACEMENT_3D ( 'NONE', #292, #284, #283 ) ;
#286 = CIRCLE ( 'NONE', #285, 24.73615877200684200 ) ;
#287 = DIRECTION ( 'NONE',  ( 0.0000000000000000000, -1.000000000000000000, 9.876183864091557800E-017 ) ) ;
#288 = DIRECTION ( 'NONE',  ( -0.0000000000000000000, 9.876183864091557800E-017, 1.000000000000000000 ) ) ;
#289 = CARTESIAN_POINT ( 'NONE',  ( 0.0000000000000000000, 28.49999999999999600, -15.50000000000000000 ) ) ;
#290 = AXIS2_PLACEMENT_3D ( 'NONE', #289, #288, #287 ) ;
#291 = PLANE ( 'NONE',  #290 ) ;
#292 = CARTESIAN_POINT ( 'NONE',  ( 0.0000000000000000000, -1.530808498934191100E-015, -15.49999999999999800 ) ) ;
#293 = PRODUCT_DEFINITION_SHAPE ( 'NONE', 'NONE',  #206 ) ;
#294 = PRODUCT_RELATED_PRODUCT_CATEGORY ( 'detail', '', ( #146 ) ) ;
#295 = CC_DESIGN_SECURITY_CLASSIFICATION ( #133, ( #185 ) ) ;
#296 = CC_DESIGN_APPROVAL ( #121, ( #133 ) ) ;
#297 = APPROVAL_DATE_TIME ( #298, #121 ) ;
#298 = DATE_AND_TIME ( #299, #300 ) ;
#299 = CALENDAR_DATE ( 2015, 11, 8 ) ;
#300 = LOCAL_TIME ( 16, 8, 9.000000000000000000, #301 ) ;
#301 = COORDINATED_UNIVERSAL_TIME_OFFSET ( 1, 0, .AHEAD. ) ;
#302 = APPROVAL_PERSON_ORGANIZATION ( #123, #121, #303 ) ;
#303 = APPROVAL_ROLE ( '' ) ;
#304 = CARTESIAN_POINT ( 'NONE',  ( 0.0000000000000000000, 0.0000000000000000000, 0.0000000000000000000 ) ) ;
#305 = CYLINDRICAL_SURFACE ( 'NONE', #249, 23.90149999999999900 ) ;
ENDSEC;
END-ISO-10303-21;
