ISO-10303-21;
HEADER;
FILE_DESCRIPTION (( 'STEP AP203' ),
    '1' );
FILE_NAME ('3D_R245_76.1_17386140.STEP',
    '2024-08-06T09:32:47',
    ( '' ),
    ( '' ),
    'SwSTEP 2.0',
    'SolidWorks 2024',
    '' );
FILE_SCHEMA (( 'CONFIG_CONTROL_DESIGN' ));
ENDSEC;

DATA;
#1 = APPROVAL_DATE_TIME ( #90, #108 ) ;
#2 = EDGE_CURVE ( 'NONE', #137, #73, #106, .T. ) ;
#3 = DIRECTION ( 'NONE',  ( 0.000000000000000000, 1.000000000000000000, 0.000000000000000000 ) ) ;
#4 = CIRCLE ( 'NONE', #183, 38.50000000000000000 ) ;
#5 = ORIENTED_EDGE ( 'NONE', *, *, #76, .F. ) ;
#6 = CYLINDRICAL_SURFACE ( 'NONE', #83, 88.50000000000000000 ) ;
#7 = DIRECTION ( 'NONE',  ( 0.000000000000000000, 1.000000000000000000, 0.000000000000000000 ) ) ;
#8 = CARTESIAN_POINT ( 'NONE',  ( 0.000000000000000000, 4.000000000000000000, 0.000000000000000000 ) ) ;
#9 = DIRECTION ( 'NONE',  ( -0.000000000000000000, -1.000000000000000000, -0.000000000000000000 ) ) ;
#10 = APPROVAL ( #223, 'UNSPECIFIED' ) ;
#11 = DIRECTION ( 'NONE',  ( 0.000000000000000000, 0.000000000000000000, -1.000000000000000000 ) ) ;
#12 = DESIGN_CONTEXT ( 'detailed design', #57, 'design' ) ;
#13 = FACE_BOUND ( 'NONE', #30, .T. ) ;
#14 = EDGE_CURVE ( 'NONE', #73, #236, #217, .T. ) ;
#15 = CARTESIAN_POINT ( 'NONE',  ( 0.000000000000000000, 4.000000000000000000, 0.000000000000000000 ) ) ;
#16 = ADVANCED_BREP_SHAPE_REPRESENTATION ( '3D_R245_76.1_17386140', ( #32, #239 ), #244 ) ;
#17 = PERSON_AND_ORGANIZATION_ROLE ( 'classification_officer' ) ;
#18 = ORIENTED_EDGE ( 'NONE', *, *, #2, .F. ) ;
#19 = SECURITY_CLASSIFICATION ( '', '', #74 ) ;
#20 = COORDINATED_UNIVERSAL_TIME_OFFSET ( 1, 0, .AHEAD. ) ;
#21 = APPROVAL_ROLE ( '' ) ;
#22 = PERSON_AND_ORGANIZATION ( #180, #86 ) ;
#23 = AXIS2_PLACEMENT_3D ( 'NONE', #156, #7, #121 ) ;
#24 = FACE_OUTER_BOUND ( 'NONE', #92, .T. ) ;
#25 = DIRECTION ( 'NONE',  ( 0.000000000000000000, 1.000000000000000000, 0.000000000000000000 ) ) ;
#26 = AXIS2_PLACEMENT_3D ( 'NONE', #79, #45, #198 ) ;
#27 = EDGE_LOOP ( 'NONE', ( #99, #154 ) ) ;
#28 = PRODUCT_RELATED_PRODUCT_CATEGORY ( 'detail', '', ( #124 ) ) ;
#29 = CARTESIAN_POINT ( 'NONE',  ( 0.000000000000000000, 4.000000000000000000, -88.50000000000000000 ) ) ;
#30 = EDGE_LOOP ( 'NONE', ( #211, #123 ) ) ;
#31 = CYLINDRICAL_SURFACE ( 'NONE', #222, 38.50000000000000000 ) ;
#32 = MANIFOLD_SOLID_BREP ( 'Aufsatz-Linear austragen1', #135 ) ;
#33 = LINE ( 'NONE', #107, #54 ) ;
#34 = FACE_OUTER_BOUND ( 'NONE', #186, .T. ) ;
#35 = UNCERTAINTY_MEASURE_WITH_UNIT (LENGTH_MEASURE( 1.000000000000000082E-05 ), #87, 'distance_accuracy_value', 'NONE');
#36 = PLANE ( 'NONE',  #71 ) ;
#37 = CALENDAR_DATE ( 2024, 6, 8 ) ;
#38 = MECHANICAL_CONTEXT ( 'NONE', #218, 'mechanical' ) ;
#39 = VECTOR ( 'NONE', #48, 1000.000000000000000 ) ;
#40 = EDGE_CURVE ( 'NONE', #159, #139, #130, .T. ) ;
#41 = PERSON_AND_ORGANIZATION ( #180, #86 ) ;
#42 = PERSON_AND_ORGANIZATION_ROLE ( 'creator' ) ;
#43 = AXIS2_PLACEMENT_3D ( 'NONE', #173, #3, #215 ) ;
#44 = ORIENTED_EDGE ( 'NONE', *, *, #240, .F. ) ;
#45 = DIRECTION ( 'NONE',  ( 0.000000000000000000, 1.000000000000000000, 0.000000000000000000 ) ) ;
#46 = CARTESIAN_POINT ( 'NONE',  ( 0.000000000000000000, 0.000000000000000000, 0.000000000000000000 ) ) ;
#47 = CC_DESIGN_APPROVAL ( #67, ( #19 ) ) ;
#48 = DIRECTION ( 'NONE',  ( -0.000000000000000000, -1.000000000000000000, -0.000000000000000000 ) ) ;
#49 = ORIENTED_EDGE ( 'NONE', *, *, #76, .T. ) ;
#50 = DIRECTION ( 'NONE',  ( 0.000000000000000000, 0.000000000000000000, 1.000000000000000000 ) ) ;
#51 = APPROVAL_PERSON_ORGANIZATION ( #150, #67, #190 ) ;
#52 = CARTESIAN_POINT ( 'NONE',  ( 0.000000000000000000, 0.000000000000000000, -38.50000000000000000 ) ) ;
#53 = CARTESIAN_POINT ( 'NONE',  ( 4.714890176717309515E-15, 4.000000000000000000, 38.50000000000000000 ) ) ;
#54 = VECTOR ( 'NONE', #85, 1000.000000000000000 ) ;
#55 = CALENDAR_DATE ( 2024, 6, 8 ) ;
#56 = COORDINATED_UNIVERSAL_TIME_OFFSET ( 1, 0, .AHEAD. ) ;
#57 = APPLICATION_CONTEXT ( 'configuration controlled 3d designs of mechanical parts and assemblies' ) ;
#58 = ORIENTED_EDGE ( 'NONE', *, *, #151, .T. ) ;
#59 = CARTESIAN_POINT ( 'NONE',  ( 0.000000000000000000, 0.000000000000000000, 0.000000000000000000 ) ) ;
#60 = ORIENTED_EDGE ( 'NONE', *, *, #112, .F. ) ;
#61 = CIRCLE ( 'NONE', #208, 88.50000000000000000 ) ;
#62 = DIRECTION ( 'NONE',  ( 0.000000000000000000, 0.000000000000000000, 1.000000000000000000 ) ) ;
#63 = ORIENTED_EDGE ( 'NONE', *, *, #14, .T. ) ;
#64 = EDGE_CURVE ( 'NONE', #139, #159, #234, .T. ) ;
#65 = AXIS2_PLACEMENT_3D ( 'NONE', #8, #174, #62 ) ;
#66 = DIRECTION ( 'NONE',  ( 0.000000000000000000, 0.000000000000000000, 1.000000000000000000 ) ) ;
#67 = APPROVAL ( #188, 'UNSPECIFIED' ) ;
#68 = FACE_OUTER_BOUND ( 'NONE', #149, .T. ) ;
#69 = CARTESIAN_POINT ( 'NONE',  ( 0.000000000000000000, 4.000000000000000000, 0.000000000000000000 ) ) ;
#70 = DIRECTION ( 'NONE',  ( 0.000000000000000000, 1.000000000000000000, 0.000000000000000000 ) ) ;
#71 = AXIS2_PLACEMENT_3D ( 'NONE', #15, #144, #143 ) ;
#72 = CALENDAR_DATE ( 2024, 6, 8 ) ;
#73 = VERTEX_POINT ( 'NONE', #84 ) ;
#74 = SECURITY_CLASSIFICATION_LEVEL ( 'unclassified' ) ;
#75 = AXIS2_PLACEMENT_3D ( 'NONE', #146, #243, #128 ) ;
#76 = EDGE_CURVE ( 'NONE', #197, #236, #101, .T. ) ;
#77 = ORIENTED_EDGE ( 'NONE', *, *, #145, .T. ) ;
#78 = CC_DESIGN_SECURITY_CLASSIFICATION ( #19, ( #227 ) ) ;
#79 = CARTESIAN_POINT ( 'NONE',  ( 0.000000000000000000, 4.000000000000000000, 0.000000000000000000 ) ) ;
#80 = ADVANCED_FACE ( 'NONE', ( #160 ), #6, .T. ) ;
#81 = ORIENTED_EDGE ( 'NONE', *, *, #145, .F. ) ;
#82 = EDGE_LOOP ( 'NONE', ( #18, #122, #49, #103 ) ) ;
#83 = AXIS2_PLACEMENT_3D ( 'NONE', #118, #233, #192 ) ;
#84 = CARTESIAN_POINT ( 'NONE',  ( 0.000000000000000000, 4.000000000000000000, -88.50000000000000000 ) ) ;
#85 = DIRECTION ( 'NONE',  ( -0.000000000000000000, -1.000000000000000000, -0.000000000000000000 ) ) ;
#86 = ORGANIZATION ( 'UNSPECIFIED', 'UNSPECIFIED', '' ) ;
#87 =( LENGTH_UNIT ( ) NAMED_UNIT ( * ) SI_UNIT ( .MILLI., .METRE. ) );
#88 = DIRECTION ( 'NONE',  ( -0.000000000000000000, -1.000000000000000000, -0.000000000000000000 ) ) ;
#89 = ADVANCED_FACE ( 'NONE', ( #24, #172 ), #120, .F. ) ;
#90 = DATE_AND_TIME ( #225, #170 ) ;
#91 = CIRCLE ( 'NONE', #196, 88.50000000000000000 ) ;
#92 = EDGE_LOOP ( 'NONE', ( #44, #5 ) ) ;
#93 = CALENDAR_DATE ( 2024, 6, 8 ) ;
#94 = SHAPE_DEFINITION_REPRESENTATION ( #181, #16 ) ;
#95 = CC_DESIGN_PERSON_AND_ORGANIZATION_ASSIGNMENT ( #210, #17, ( #19 ) ) ;
#96 = COORDINATED_UNIVERSAL_TIME_OFFSET ( 1, 0, .AHEAD. ) ;
#97 = VECTOR ( 'NONE', #9, 1000.000000000000000 ) ;
#98 = PERSON_AND_ORGANIZATION ( #180, #86 ) ;
#99 = ORIENTED_EDGE ( 'NONE', *, *, #224, .T. ) ;
#100 = DIRECTION ( 'NONE',  ( 0.000000000000000000, -0.000000000000000000, 1.000000000000000000 ) ) ;
#101 = CIRCLE ( 'NONE', #23, 88.50000000000000000 ) ;
#102 = EDGE_LOOP ( 'NONE', ( #81, #214, #58, #60 ) ) ;
#103 = ORIENTED_EDGE ( 'NONE', *, *, #14, .F. ) ;
#104 = EDGE_CURVE ( 'NONE', #73, #137, #61, .T. ) ;
#105 = ORIENTED_EDGE ( 'NONE', *, *, #104, .F. ) ;
#106 = CIRCLE ( 'NONE', #65, 88.50000000000000000 ) ;
#107 = CARTESIAN_POINT ( 'NONE',  ( 1.083812417245407481E-14, 4.000000000000000000, 88.50000000000000000 ) ) ;
#108 = APPROVAL ( #228, 'UNSPECIFIED' ) ;
#109 = CC_DESIGN_APPROVAL ( #10, ( #171 ) ) ;
#110 = DIRECTION ( 'NONE',  ( -0.000000000000000000, -1.000000000000000000, -0.000000000000000000 ) ) ;
#111 = FACE_OUTER_BOUND ( 'NONE', #235, .T. ) ;
#112 = EDGE_CURVE ( 'NONE', #158, #175, #191, .T. ) ;
#113 = DATE_TIME_ROLE ( 'classification_date' ) ;
#114 = APPROVAL_PERSON_ORGANIZATION ( #132, #108, #21 ) ;
#115 = APPROVAL_ROLE ( '' ) ;
#116 = CC_DESIGN_DATE_AND_TIME_ASSIGNMENT ( #117, #113, ( #19 ) ) ;
#117 = DATE_AND_TIME ( #37, #134 ) ;
#118 = CARTESIAN_POINT ( 'NONE',  ( 0.000000000000000000, 4.000000000000000000, 0.000000000000000000 ) ) ;
#119 = ADVANCED_FACE ( 'NONE', ( #131 ), #31, .F. ) ;
#120 = PLANE ( 'NONE',  #155 ) ;
#121 = DIRECTION ( 'NONE',  ( 0.000000000000000000, 0.000000000000000000, 1.000000000000000000 ) ) ;
#122 = ORIENTED_EDGE ( 'NONE', *, *, #216, .T. ) ;
#123 = ORIENTED_EDGE ( 'NONE', *, *, #40, .F. ) ;
#124 = PRODUCT ( '3D_R245_76.1_17386140', '3D_R245_76.1_17386140', '', ( #38 ) ) ;
#125 =( NAMED_UNIT ( * ) PLANE_ANGLE_UNIT ( ) SI_UNIT ( $, .RADIAN. ) );
#126 = DIRECTION ( 'NONE',  ( 0.000000000000000000, 0.000000000000000000, -1.000000000000000000 ) ) ;
#127 = ADVANCED_FACE ( 'NONE', ( #111 ), #129, .T. ) ;
#128 = DIRECTION ( 'NONE',  ( 0.000000000000000000, 0.000000000000000000, -1.000000000000000000 ) ) ;
#129 = CYLINDRICAL_SURFACE ( 'NONE', #75, 88.50000000000000000 ) ;
#130 = CIRCLE ( 'NONE', #43, 38.50000000000000000 ) ;
#131 = FACE_OUTER_BOUND ( 'NONE', #102, .T. ) ;
#132 = PERSON_AND_ORGANIZATION ( #180, #86 ) ;
#133 = DATE_AND_TIME ( #72, #187 ) ;
#134 = LOCAL_TIME ( 11, 32, 47.00000000000000000, #169 ) ;
#135 = CLOSED_SHELL ( 'NONE', ( #136, #80, #231, #89, #127, #119 ) ) ;
#136 = ADVANCED_FACE ( 'NONE', ( #34 ), #184, .F. ) ;
#137 = VERTEX_POINT ( 'NONE', #221 ) ;
#138 = DIRECTION ( 'NONE',  ( 0.000000000000000000, 1.000000000000000000, 0.000000000000000000 ) ) ;
#139 = VERTEX_POINT ( 'NONE', #147 ) ;
#140 = ORIENTED_EDGE ( 'NONE', *, *, #224, .F. ) ;
#141 = ORIENTED_EDGE ( 'NONE', *, *, #216, .F. ) ;
#142 = CC_DESIGN_PERSON_AND_ORGANIZATION_ASSIGNMENT ( #226, #152, ( #124 ) ) ;
#143 = DIRECTION ( 'NONE',  ( 0.000000000000000000, -0.000000000000000000, 1.000000000000000000 ) ) ;
#144 = DIRECTION ( 'NONE',  ( 0.000000000000000000, 1.000000000000000000, 0.000000000000000000 ) ) ;
#145 = EDGE_CURVE ( 'NONE', #159, #158, #202, .T. ) ;
#146 = CARTESIAN_POINT ( 'NONE',  ( 0.000000000000000000, 4.000000000000000000, 0.000000000000000000 ) ) ;
#147 = CARTESIAN_POINT ( 'NONE',  ( 0.000000000000000000, 4.000000000000000000, -38.50000000000000000 ) ) ;
#148 = COORDINATED_UNIVERSAL_TIME_OFFSET ( 1, 0, .AHEAD. ) ;
#149 = EDGE_LOOP ( 'NONE', ( #230, #193 ) ) ;
#150 = PERSON_AND_ORGANIZATION ( #180, #86 ) ;
#151 = EDGE_CURVE ( 'NONE', #139, #175, #219, .T. ) ;
#152 = PERSON_AND_ORGANIZATION_ROLE ( 'design_owner' ) ;
#153 = LOCAL_TIME ( 11, 32, 47.00000000000000000, #56 ) ;
#154 = ORIENTED_EDGE ( 'NONE', *, *, #112, .T. ) ;
#155 = AXIS2_PLACEMENT_3D ( 'NONE', #59, #25, #100 ) ;
#156 = CARTESIAN_POINT ( 'NONE',  ( 0.000000000000000000, 0.000000000000000000, 0.000000000000000000 ) ) ;
#157 = CC_DESIGN_PERSON_AND_ORGANIZATION_ASSIGNMENT ( #41, #206, ( #227 ) ) ;
#158 = VERTEX_POINT ( 'NONE', #241 ) ;
#159 = VERTEX_POINT ( 'NONE', #53 ) ;
#160 = FACE_OUTER_BOUND ( 'NONE', #82, .T. ) ;
#161 = CARTESIAN_POINT ( 'NONE',  ( 0.000000000000000000, 0.000000000000000000, -88.50000000000000000 ) ) ;
#162 = APPLICATION_PROTOCOL_DEFINITION ( 'international standard', 'config_control_design', 1994, #218 ) ;
#163 = CARTESIAN_POINT ( 'NONE',  ( 0.000000000000000000, 0.000000000000000000, 0.000000000000000000 ) ) ;
#164 = CARTESIAN_POINT ( 'NONE',  ( 1.083812417245407481E-14, 0.000000000000000000, 88.50000000000000000 ) ) ;
#165 = DIRECTION ( 'NONE',  ( 0.000000000000000000, 0.000000000000000000, 1.000000000000000000 ) ) ;
#166 = APPROVAL_DATE_TIME ( #209, #10 ) ;
#167 = ORIENTED_EDGE ( 'NONE', *, *, #64, .T. ) ;
#168 = DATE_AND_TIME ( #93, #229 ) ;
#169 = COORDINATED_UNIVERSAL_TIME_OFFSET ( 1, 0, .AHEAD. ) ;
#170 = LOCAL_TIME ( 11, 32, 47.00000000000000000, #96 ) ;
#171 = PRODUCT_DEFINITION ( 'UNKNOWN', '', #227, #12 ) ;
#172 = FACE_BOUND ( 'NONE', #27, .T. ) ;
#173 = CARTESIAN_POINT ( 'NONE',  ( 0.000000000000000000, 4.000000000000000000, 0.000000000000000000 ) ) ;
#174 = DIRECTION ( 'NONE',  ( 0.000000000000000000, 1.000000000000000000, 0.000000000000000000 ) ) ;
#175 = VERTEX_POINT ( 'NONE', #52 ) ;
#176 = ORIENTED_EDGE ( 'NONE', *, *, #151, .F. ) ;
#177 = AXIS2_PLACEMENT_3D ( 'NONE', #200, #205, #126 ) ;
#178 = CARTESIAN_POINT ( 'NONE',  ( 4.714890176717309515E-15, 4.000000000000000000, 38.50000000000000000 ) ) ;
#179 = DIRECTION ( 'NONE',  ( 0.000000000000000000, 1.000000000000000000, 0.000000000000000000 ) ) ;
#180 = PERSON ( 'UNSPECIFIED', 'UNSPECIFIED', 'UNSPECIFIED', ('UNSPECIFIED'), ('UNSPECIFIED'), ('UNSPECIFIED') ) ;
#181 = PRODUCT_DEFINITION_SHAPE ( 'NONE', 'NONE',  #171 ) ;
#182 = DIRECTION ( 'NONE',  ( 0.000000000000000000, 0.000000000000000000, 1.000000000000000000 ) ) ;
#183 = AXIS2_PLACEMENT_3D ( 'NONE', #163, #179, #66 ) ;
#184 = CYLINDRICAL_SURFACE ( 'NONE', #177, 38.50000000000000000 ) ;
#185 = DATE_TIME_ROLE ( 'creation_date' ) ;
#186 = EDGE_LOOP ( 'NONE', ( #167, #77, #140, #176 ) ) ;
#187 = LOCAL_TIME ( 11, 32, 47.00000000000000000, #20 ) ;
#188 = APPROVAL_STATUS ( 'not_yet_approved' ) ;
#189 = APPROVAL_DATE_TIME ( #133, #67 ) ;
#190 = APPROVAL_ROLE ( '' ) ;
#191 = CIRCLE ( 'NONE', #204, 38.50000000000000000 ) ;
#192 = DIRECTION ( 'NONE',  ( 0.000000000000000000, 0.000000000000000000, -1.000000000000000000 ) ) ;
#193 = ORIENTED_EDGE ( 'NONE', *, *, #2, .T. ) ;
#194 = CC_DESIGN_DATE_AND_TIME_ASSIGNMENT ( #168, #185, ( #171 ) ) ;
#195 = DIRECTION ( 'NONE',  ( 0.000000000000000000, 1.000000000000000000, 0.000000000000000000 ) ) ;
#196 = AXIS2_PLACEMENT_3D ( 'NONE', #201, #70, #50 ) ;
#197 = VERTEX_POINT ( 'NONE', #164 ) ;
#198 = DIRECTION ( 'NONE',  ( 0.000000000000000000, 0.000000000000000000, 1.000000000000000000 ) ) ;
#199 = APPROVAL_PERSON_ORGANIZATION ( #22, #10, #115 ) ;
#200 = CARTESIAN_POINT ( 'NONE',  ( 0.000000000000000000, 4.000000000000000000, 0.000000000000000000 ) ) ;
#201 = CARTESIAN_POINT ( 'NONE',  ( 0.000000000000000000, 0.000000000000000000, 0.000000000000000000 ) ) ;
#202 = LINE ( 'NONE', #178, #203 ) ;
#203 = VECTOR ( 'NONE', #110, 1000.000000000000000 ) ;
#204 = AXIS2_PLACEMENT_3D ( 'NONE', #46, #195, #165 ) ;
#205 = DIRECTION ( 'NONE',  ( -0.000000000000000000, -1.000000000000000000, -0.000000000000000000 ) ) ;
#206 = PERSON_AND_ORGANIZATION_ROLE ( 'design_supplier' ) ;
#207 = PERSON_AND_ORGANIZATION_ROLE ( 'creator' ) ;
#208 = AXIS2_PLACEMENT_3D ( 'NONE', #232, #138, #213 ) ;
#209 = DATE_AND_TIME ( #55, #153 ) ;
#210 = PERSON_AND_ORGANIZATION ( #180, #86 ) ;
#211 = ORIENTED_EDGE ( 'NONE', *, *, #64, .F. ) ;
#212 = CC_DESIGN_PERSON_AND_ORGANIZATION_ASSIGNMENT ( #248, #42, ( #171 ) ) ;
#213 = DIRECTION ( 'NONE',  ( 0.000000000000000000, 0.000000000000000000, 1.000000000000000000 ) ) ;
#214 = ORIENTED_EDGE ( 'NONE', *, *, #40, .T. ) ;
#215 = DIRECTION ( 'NONE',  ( 0.000000000000000000, 0.000000000000000000, 1.000000000000000000 ) ) ;
#216 = EDGE_CURVE ( 'NONE', #137, #197, #33, .T. ) ;
#217 = LINE ( 'NONE', #29, #39 ) ;
#218 = APPLICATION_CONTEXT ( 'configuration controlled 3d designs of mechanical parts and assemblies' ) ;
#219 = LINE ( 'NONE', #220, #97 ) ;
#220 = CARTESIAN_POINT ( 'NONE',  ( 0.000000000000000000, 4.000000000000000000, -38.50000000000000000 ) ) ;
#221 = CARTESIAN_POINT ( 'NONE',  ( 1.083812417245407481E-14, 4.000000000000000000, 88.50000000000000000 ) ) ;
#222 = AXIS2_PLACEMENT_3D ( 'NONE', #69, #88, #11 ) ;
#223 = APPROVAL_STATUS ( 'not_yet_approved' ) ;
#224 = EDGE_CURVE ( 'NONE', #175, #158, #4, .T. ) ;
#225 = CALENDAR_DATE ( 2024, 6, 8 ) ;
#226 = PERSON_AND_ORGANIZATION ( #180, #86 ) ;
#227 = PRODUCT_DEFINITION_FORMATION_WITH_SPECIFIED_SOURCE ( 'ANY', '', #124, .NOT_KNOWN. ) ;
#228 = APPROVAL_STATUS ( 'not_yet_approved' ) ;
#229 = LOCAL_TIME ( 11, 32, 47.00000000000000000, #148 ) ;
#230 = ORIENTED_EDGE ( 'NONE', *, *, #104, .T. ) ;
#231 = ADVANCED_FACE ( 'NONE', ( #68, #13 ), #36, .T. ) ;
#232 = CARTESIAN_POINT ( 'NONE',  ( 0.000000000000000000, 4.000000000000000000, 0.000000000000000000 ) ) ;
#233 = DIRECTION ( 'NONE',  ( -0.000000000000000000, -1.000000000000000000, -0.000000000000000000 ) ) ;
#234 = CIRCLE ( 'NONE', #26, 38.50000000000000000 ) ;
#235 = EDGE_LOOP ( 'NONE', ( #141, #105, #63, #245 ) ) ;
#236 = VERTEX_POINT ( 'NONE', #161 ) ;
#237 =( NAMED_UNIT ( * ) SI_UNIT ( $, .STERADIAN. ) SOLID_ANGLE_UNIT ( ) );
#238 = CARTESIAN_POINT ( 'NONE',  ( 0.000000000000000000, 0.000000000000000000, 0.000000000000000000 ) ) ;
#239 = AXIS2_PLACEMENT_3D ( 'NONE', #238, #182, #242 ) ;
#240 = EDGE_CURVE ( 'NONE', #236, #197, #91, .T. ) ;
#241 = CARTESIAN_POINT ( 'NONE',  ( 4.714890176717309515E-15, 0.000000000000000000, 38.50000000000000000 ) ) ;
#242 = DIRECTION ( 'NONE',  ( 1.000000000000000000, 0.000000000000000000, 0.000000000000000000 ) ) ;
#243 = DIRECTION ( 'NONE',  ( -0.000000000000000000, -1.000000000000000000, -0.000000000000000000 ) ) ;
#244 =( GEOMETRIC_REPRESENTATION_CONTEXT ( 3 ) GLOBAL_UNCERTAINTY_ASSIGNED_CONTEXT ( ( #35 ) ) GLOBAL_UNIT_ASSIGNED_CONTEXT ( ( #87, #125, #237 ) ) REPRESENTATION_CONTEXT ( 'NONE', 'WORKASPACE' ) );
#245 = ORIENTED_EDGE ( 'NONE', *, *, #240, .T. ) ;
#246 = APPLICATION_PROTOCOL_DEFINITION ( 'international standard', 'config_control_design', 1994, #57 ) ;
#247 = CC_DESIGN_PERSON_AND_ORGANIZATION_ASSIGNMENT ( #98, #207, ( #227 ) ) ;
#248 = PERSON_AND_ORGANIZATION ( #180, #86 ) ;
#249 = CC_DESIGN_APPROVAL ( #108, ( #227 ) ) ;
ENDSEC;
END-ISO-10303-21;
