ISO-10303-21;
HEADER;
/* Generated by software containing ST-Developer
 * from STEP Tools, Inc. (www.steptools.com) 
 */

FILE_DESCRIPTION(
/* description */ (''),
/* implementation_level */ '2;1');

FILE_NAME(
/* name */ 
'C:\\Users\\cad\\Desktop\\Zeichnungen neu von Ralph\\3D_Kupplung_R666-
E\\3D_R666-E-DN10-DN25_17113125.stp',
/* time_stamp */ '2021-06-17T08:37:58+02:00',
/* author */ ('cad'),
/* organization */ (''),
/* preprocessor_version */ 'ST-DEVELOPER v18.1',
/* originating_system */ 'Autodesk Inventor 2022',
/* authorisation */ '');

FILE_SCHEMA (('AUTOMOTIVE_DESIGN { 1 0 10303 214 3 1 1 }'));
ENDSEC;

DATA;
#10=MECHANICAL_DESIGN_GEOMETRIC_PRESENTATION_REPRESENTATION('',(#13),#556);
#11=SHAPE_REPRESENTATION_RELATIONSHIP('SRR','None',#563,#12);
#12=ADVANCED_BREP_SHAPE_REPRESENTATION('',(#14),#555);
#13=STYLED_ITEM('',(#572),#14);
#14=MANIFOLD_SOLID_BREP('Volumenk\X\F6rper1',#300);
#15=FACE_BOUND('',#78,.T.);
#16=FACE_BOUND('',#81,.T.);
#17=FACE_BOUND('',#88,.T.);
#18=TOROIDAL_SURFACE('',#334,13.05,0.8);
#19=CYLINDRICAL_SURFACE('',#330,12.25);
#20=CYLINDRICAL_SURFACE('',#345,7.475);
#21=CYLINDRICAL_SURFACE('',#352,14.75);
#22=CIRCLE('',#327,11.95);
#23=CIRCLE('',#328,12.25);
#24=CIRCLE('',#329,12.25);
#25=CIRCLE('',#331,12.25);
#26=CIRCLE('',#332,12.25);
#27=CIRCLE('',#333,12.25);
#28=CIRCLE('',#335,0.8);
#29=CIRCLE('',#336,13.05);
#30=CIRCLE('',#338,14.45);
#31=CIRCLE('',#340,8.575);
#32=CIRCLE('',#341,7.475);
#33=CIRCLE('',#342,7.475);
#34=CIRCLE('',#344,11.95);
#35=CIRCLE('',#346,7.475);
#36=CIRCLE('',#347,7.475);
#37=CIRCLE('',#350,14.75);
#38=CIRCLE('',#351,14.75);
#39=CIRCLE('',#353,14.75);
#40=CIRCLE('',#354,14.75);
#41=CIRCLE('',#356,14.45);
#42=CIRCLE('',#358,9.5);
#43=CONICAL_SURFACE('',#326,12.1,0.785398163397456);
#44=CONICAL_SURFACE('',#339,8.025,0.785398163397446);
#45=CONICAL_SURFACE('',#348,12.1,0.785398163397456);
#46=CONICAL_SURFACE('',#349,14.6,0.785398163397447);
#47=CONICAL_SURFACE('',#355,14.6,0.785398163397449);
#48=CONICAL_SURFACE('',#359,8.01994779249959,0.785398163397449);
#49=(
BOUNDED_CURVE()
B_SPLINE_CURVE(2,(#467,#468,#469),.UNSPECIFIED.,.F.,.F.)
B_SPLINE_CURVE_WITH_KNOTS((3,3),(0.,0.0781566513556837),.UNSPECIFIED.)
CURVE()
GEOMETRIC_REPRESENTATION_ITEM()
RATIONAL_B_SPLINE_CURVE((1.,1.0004449202733,1.))
REPRESENTATION_ITEM('')
);
#50=(
BOUNDED_CURVE()
B_SPLINE_CURVE(2,(#473,#474,#475),.UNSPECIFIED.,.F.,.F.)
B_SPLINE_CURVE_WITH_KNOTS((3,3),(0.,0.0781566513556837),.UNSPECIFIED.)
CURVE()
GEOMETRIC_REPRESENTATION_ITEM()
RATIONAL_B_SPLINE_CURVE((1.,1.00044492027295,1.))
REPRESENTATION_ITEM('')
);
#51=(
BOUNDED_CURVE()
B_SPLINE_CURVE(2,(#486,#487,#488),.UNSPECIFIED.,.F.,.F.)
B_SPLINE_CURVE_WITH_KNOTS((3,3),(0.,0.0781566513556837),.UNSPECIFIED.)
CURVE()
GEOMETRIC_REPRESENTATION_ITEM()
RATIONAL_B_SPLINE_CURVE((1.,1.00044492027287,1.))
REPRESENTATION_ITEM('')
);
#52=(
BOUNDED_CURVE()
B_SPLINE_CURVE(2,(#492,#493,#494),.UNSPECIFIED.,.F.,.F.)
B_SPLINE_CURVE_WITH_KNOTS((3,3),(0.,0.0781566513556837),.UNSPECIFIED.)
CURVE()
GEOMETRIC_REPRESENTATION_ITEM()
RATIONAL_B_SPLINE_CURVE((1.,1.00044492027287,1.))
REPRESENTATION_ITEM('')
);
#53=FACE_OUTER_BOUND('',#70,.T.);
#54=FACE_OUTER_BOUND('',#71,.T.);
#55=FACE_OUTER_BOUND('',#72,.T.);
#56=FACE_OUTER_BOUND('',#73,.T.);
#57=FACE_OUTER_BOUND('',#74,.T.);
#58=FACE_OUTER_BOUND('',#75,.T.);
#59=FACE_OUTER_BOUND('',#76,.T.);
#60=FACE_OUTER_BOUND('',#77,.T.);
#61=FACE_OUTER_BOUND('',#79,.T.);
#62=FACE_OUTER_BOUND('',#80,.T.);
#63=FACE_OUTER_BOUND('',#82,.T.);
#64=FACE_OUTER_BOUND('',#83,.T.);
#65=FACE_OUTER_BOUND('',#84,.T.);
#66=FACE_OUTER_BOUND('',#85,.T.);
#67=FACE_OUTER_BOUND('',#86,.T.);
#68=FACE_OUTER_BOUND('',#87,.T.);
#69=FACE_OUTER_BOUND('',#89,.T.);
#70=EDGE_LOOP('',(#192,#193));
#71=EDGE_LOOP('',(#194,#195,#196,#197,#198,#199));
#72=EDGE_LOOP('',(#200,#201));
#73=EDGE_LOOP('',(#202,#203,#204,#205,#206,#207));
#74=EDGE_LOOP('',(#208,#209,#210,#211,#212));
#75=EDGE_LOOP('',(#213,#214,#215,#216,#217,#218,#219,#220,#221,#222,#223,
#224,#225));
#76=EDGE_LOOP('',(#226,#227,#228,#229,#230));
#77=EDGE_LOOP('',(#231));
#78=EDGE_LOOP('',(#232));
#79=EDGE_LOOP('',(#233,#234,#235,#236,#237));
#80=EDGE_LOOP('',(#238,#239,#240,#241));
#81=EDGE_LOOP('',(#242));
#82=EDGE_LOOP('',(#243,#244,#245,#246,#247,#248));
#83=EDGE_LOOP('',(#249,#250,#251,#252));
#84=EDGE_LOOP('',(#253,#254,#255,#256,#257));
#85=EDGE_LOOP('',(#258,#259,#260,#261,#262,#263));
#86=EDGE_LOOP('',(#264,#265,#266,#267,#268));
#87=EDGE_LOOP('',(#269));
#88=EDGE_LOOP('',(#270));
#89=EDGE_LOOP('',(#271,#272,#273,#274,#275));
#90=LINE('',#462,#105);
#91=LINE('',#465,#106);
#92=LINE('',#471,#107);
#93=LINE('',#476,#108);
#94=LINE('',#481,#109);
#95=LINE('',#484,#110);
#96=LINE('',#490,#111);
#97=LINE('',#495,#112);
#98=LINE('',#505,#113);
#99=LINE('',#519,#114);
#100=LINE('',#527,#115);
#101=LINE('',#537,#116);
#102=LINE('',#543,#117);
#103=LINE('',#547,#118);
#104=LINE('',#552,#119);
#105=VECTOR('',#366,10.);
#106=VECTOR('',#369,10.);
#107=VECTOR('',#370,10.);
#108=VECTOR('',#371,10.);
#109=VECTOR('',#376,10.);
#110=VECTOR('',#379,10.);
#111=VECTOR('',#380,10.);
#112=VECTOR('',#381,10.);
#113=VECTOR('',#394,12.25);
#114=VECTOR('',#413,8.025);
#115=VECTOR('',#424,7.475);
#116=VECTOR('',#437,14.6);
#117=VECTOR('',#444,14.75);
#118=VECTOR('',#449,14.6);
#119=VECTOR('',#456,8.01994779249959);
#120=ELLIPSE('',#321,17.3241161390704,12.25);
#121=ELLIPSE('',#324,17.3241161390704,12.25);
#122=VERTEX_POINT('',#459);
#123=VERTEX_POINT('',#460);
#124=VERTEX_POINT('',#464);
#125=VERTEX_POINT('',#466);
#126=VERTEX_POINT('',#470);
#127=VERTEX_POINT('',#472);
#128=VERTEX_POINT('',#478);
#129=VERTEX_POINT('',#479);
#130=VERTEX_POINT('',#483);
#131=VERTEX_POINT('',#485);
#132=VERTEX_POINT('',#489);
#133=VERTEX_POINT('',#491);
#134=VERTEX_POINT('',#498);
#135=VERTEX_POINT('',#502);
#136=VERTEX_POINT('',#503);
#137=VERTEX_POINT('',#509);
#138=VERTEX_POINT('',#513);
#139=VERTEX_POINT('',#516);
#140=VERTEX_POINT('',#518);
#141=VERTEX_POINT('',#520);
#142=VERTEX_POINT('',#526);
#143=VERTEX_POINT('',#528);
#144=VERTEX_POINT('',#533);
#145=VERTEX_POINT('',#534);
#146=VERTEX_POINT('',#539);
#147=VERTEX_POINT('',#540);
#148=VERTEX_POINT('',#545);
#149=VERTEX_POINT('',#549);
#150=EDGE_CURVE('',#122,#123,#120,.T.);
#151=EDGE_CURVE('',#123,#122,#90,.T.);
#152=EDGE_CURVE('',#124,#122,#91,.T.);
#153=EDGE_CURVE('',#125,#124,#49,.T.);
#154=EDGE_CURVE('',#126,#125,#92,.T.);
#155=EDGE_CURVE('',#127,#126,#50,.T.);
#156=EDGE_CURVE('',#123,#127,#93,.T.);
#157=EDGE_CURVE('',#128,#129,#121,.T.);
#158=EDGE_CURVE('',#129,#128,#94,.T.);
#159=EDGE_CURVE('',#130,#128,#95,.T.);
#160=EDGE_CURVE('',#131,#130,#51,.T.);
#161=EDGE_CURVE('',#132,#131,#96,.T.);
#162=EDGE_CURVE('',#133,#132,#52,.T.);
#163=EDGE_CURVE('',#129,#133,#97,.T.);
#164=EDGE_CURVE('',#126,#131,#22,.T.);
#165=EDGE_CURVE('',#130,#134,#23,.T.);
#166=EDGE_CURVE('',#134,#127,#24,.T.);
#167=EDGE_CURVE('',#135,#136,#25,.T.);
#168=EDGE_CURVE('',#135,#134,#98,.T.);
#169=EDGE_CURVE('',#124,#133,#26,.T.);
#170=EDGE_CURVE('',#136,#135,#27,.T.);
#171=EDGE_CURVE('',#136,#137,#28,.T.);
#172=EDGE_CURVE('',#137,#137,#29,.T.);
#173=EDGE_CURVE('',#138,#138,#30,.T.);
#174=EDGE_CURVE('',#139,#139,#31,.T.);
#175=EDGE_CURVE('',#139,#140,#99,.T.);
#176=EDGE_CURVE('',#140,#141,#32,.T.);
#177=EDGE_CURVE('',#141,#140,#33,.T.);
#178=EDGE_CURVE('',#132,#125,#34,.T.);
#179=EDGE_CURVE('',#141,#142,#100,.T.);
#180=EDGE_CURVE('',#142,#143,#35,.T.);
#181=EDGE_CURVE('',#143,#142,#36,.T.);
#182=EDGE_CURVE('',#144,#145,#37,.T.);
#183=EDGE_CURVE('',#145,#144,#38,.T.);
#184=EDGE_CURVE('',#144,#138,#101,.T.);
#185=EDGE_CURVE('',#146,#147,#39,.T.);
#186=EDGE_CURVE('',#147,#146,#40,.T.);
#187=EDGE_CURVE('',#147,#145,#102,.T.);
#188=EDGE_CURVE('',#148,#148,#41,.T.);
#189=EDGE_CURVE('',#148,#146,#103,.T.);
#190=EDGE_CURVE('',#149,#149,#42,.T.);
#191=EDGE_CURVE('',#149,#143,#104,.T.);
#192=ORIENTED_EDGE('',*,*,#150,.F.);
#193=ORIENTED_EDGE('',*,*,#151,.F.);
#194=ORIENTED_EDGE('',*,*,#152,.F.);
#195=ORIENTED_EDGE('',*,*,#153,.F.);
#196=ORIENTED_EDGE('',*,*,#154,.F.);
#197=ORIENTED_EDGE('',*,*,#155,.F.);
#198=ORIENTED_EDGE('',*,*,#156,.F.);
#199=ORIENTED_EDGE('',*,*,#151,.T.);
#200=ORIENTED_EDGE('',*,*,#157,.F.);
#201=ORIENTED_EDGE('',*,*,#158,.F.);
#202=ORIENTED_EDGE('',*,*,#159,.F.);
#203=ORIENTED_EDGE('',*,*,#160,.F.);
#204=ORIENTED_EDGE('',*,*,#161,.F.);
#205=ORIENTED_EDGE('',*,*,#162,.F.);
#206=ORIENTED_EDGE('',*,*,#163,.F.);
#207=ORIENTED_EDGE('',*,*,#158,.T.);
#208=ORIENTED_EDGE('',*,*,#155,.T.);
#209=ORIENTED_EDGE('',*,*,#164,.T.);
#210=ORIENTED_EDGE('',*,*,#160,.T.);
#211=ORIENTED_EDGE('',*,*,#165,.T.);
#212=ORIENTED_EDGE('',*,*,#166,.T.);
#213=ORIENTED_EDGE('',*,*,#167,.F.);
#214=ORIENTED_EDGE('',*,*,#168,.T.);
#215=ORIENTED_EDGE('',*,*,#165,.F.);
#216=ORIENTED_EDGE('',*,*,#159,.T.);
#217=ORIENTED_EDGE('',*,*,#157,.T.);
#218=ORIENTED_EDGE('',*,*,#163,.T.);
#219=ORIENTED_EDGE('',*,*,#169,.F.);
#220=ORIENTED_EDGE('',*,*,#152,.T.);
#221=ORIENTED_EDGE('',*,*,#150,.T.);
#222=ORIENTED_EDGE('',*,*,#156,.T.);
#223=ORIENTED_EDGE('',*,*,#166,.F.);
#224=ORIENTED_EDGE('',*,*,#168,.F.);
#225=ORIENTED_EDGE('',*,*,#170,.F.);
#226=ORIENTED_EDGE('',*,*,#167,.T.);
#227=ORIENTED_EDGE('',*,*,#171,.T.);
#228=ORIENTED_EDGE('',*,*,#172,.T.);
#229=ORIENTED_EDGE('',*,*,#171,.F.);
#230=ORIENTED_EDGE('',*,*,#170,.T.);
#231=ORIENTED_EDGE('',*,*,#173,.F.);
#232=ORIENTED_EDGE('',*,*,#172,.F.);
#233=ORIENTED_EDGE('',*,*,#174,.T.);
#234=ORIENTED_EDGE('',*,*,#175,.T.);
#235=ORIENTED_EDGE('',*,*,#176,.T.);
#236=ORIENTED_EDGE('',*,*,#177,.T.);
#237=ORIENTED_EDGE('',*,*,#175,.F.);
#238=ORIENTED_EDGE('',*,*,#154,.T.);
#239=ORIENTED_EDGE('',*,*,#178,.F.);
#240=ORIENTED_EDGE('',*,*,#161,.T.);
#241=ORIENTED_EDGE('',*,*,#164,.F.);
#242=ORIENTED_EDGE('',*,*,#174,.F.);
#243=ORIENTED_EDGE('',*,*,#176,.F.);
#244=ORIENTED_EDGE('',*,*,#177,.F.);
#245=ORIENTED_EDGE('',*,*,#179,.T.);
#246=ORIENTED_EDGE('',*,*,#180,.T.);
#247=ORIENTED_EDGE('',*,*,#181,.T.);
#248=ORIENTED_EDGE('',*,*,#179,.F.);
#249=ORIENTED_EDGE('',*,*,#153,.T.);
#250=ORIENTED_EDGE('',*,*,#169,.T.);
#251=ORIENTED_EDGE('',*,*,#162,.T.);
#252=ORIENTED_EDGE('',*,*,#178,.T.);
#253=ORIENTED_EDGE('',*,*,#182,.T.);
#254=ORIENTED_EDGE('',*,*,#183,.T.);
#255=ORIENTED_EDGE('',*,*,#184,.T.);
#256=ORIENTED_EDGE('',*,*,#173,.T.);
#257=ORIENTED_EDGE('',*,*,#184,.F.);
#258=ORIENTED_EDGE('',*,*,#185,.F.);
#259=ORIENTED_EDGE('',*,*,#186,.F.);
#260=ORIENTED_EDGE('',*,*,#187,.T.);
#261=ORIENTED_EDGE('',*,*,#182,.F.);
#262=ORIENTED_EDGE('',*,*,#183,.F.);
#263=ORIENTED_EDGE('',*,*,#187,.F.);
#264=ORIENTED_EDGE('',*,*,#188,.T.);
#265=ORIENTED_EDGE('',*,*,#189,.T.);
#266=ORIENTED_EDGE('',*,*,#185,.T.);
#267=ORIENTED_EDGE('',*,*,#186,.T.);
#268=ORIENTED_EDGE('',*,*,#189,.F.);
#269=ORIENTED_EDGE('',*,*,#188,.F.);
#270=ORIENTED_EDGE('',*,*,#190,.T.);
#271=ORIENTED_EDGE('',*,*,#190,.F.);
#272=ORIENTED_EDGE('',*,*,#191,.T.);
#273=ORIENTED_EDGE('',*,*,#180,.F.);
#274=ORIENTED_EDGE('',*,*,#181,.F.);
#275=ORIENTED_EDGE('',*,*,#191,.F.);
#276=PLANE('',#320);
#277=PLANE('',#322);
#278=PLANE('',#323);
#279=PLANE('',#325);
#280=PLANE('',#337);
#281=PLANE('',#343);
#282=PLANE('',#357);
#283=ADVANCED_FACE('',(#53),#276,.F.);
#284=ADVANCED_FACE('',(#54),#277,.F.);
#285=ADVANCED_FACE('',(#55),#278,.F.);
#286=ADVANCED_FACE('',(#56),#279,.F.);
#287=ADVANCED_FACE('',(#57),#43,.T.);
#288=ADVANCED_FACE('',(#58),#19,.T.);
#289=ADVANCED_FACE('',(#59),#18,.F.);
#290=ADVANCED_FACE('',(#60,#15),#280,.T.);
#291=ADVANCED_FACE('',(#61),#44,.F.);
#292=ADVANCED_FACE('',(#62,#16),#281,.T.);
#293=ADVANCED_FACE('',(#63),#20,.F.);
#294=ADVANCED_FACE('',(#64),#45,.T.);
#295=ADVANCED_FACE('',(#65),#46,.T.);
#296=ADVANCED_FACE('',(#66),#21,.T.);
#297=ADVANCED_FACE('',(#67),#47,.T.);
#298=ADVANCED_FACE('',(#68,#17),#282,.T.);
#299=ADVANCED_FACE('',(#69),#48,.F.);
#300=CLOSED_SHELL('',(#283,#284,#285,#286,#287,#288,#289,#290,#291,#292,
#293,#294,#295,#296,#297,#298,#299));
#301=DERIVED_UNIT_ELEMENT(#303,1.);
#302=DERIVED_UNIT_ELEMENT(#558,-3.);
#303=(
MASS_UNIT()
NAMED_UNIT(*)
SI_UNIT($,.GRAM.)
);
#304=DERIVED_UNIT((#301,#302));
#305=MEASURE_REPRESENTATION_ITEM('density measure',
POSITIVE_RATIO_MEASURE(1.),#304);
#306=PROPERTY_DEFINITION_REPRESENTATION(#311,#308);
#307=PROPERTY_DEFINITION_REPRESENTATION(#312,#309);
#308=REPRESENTATION('material name',(#310),#555);
#309=REPRESENTATION('density',(#305),#555);
#310=DESCRIPTIVE_REPRESENTATION_ITEM('Generisch','Generisch');
#311=PROPERTY_DEFINITION('material property','material name',#565);
#312=PROPERTY_DEFINITION('material property','density of part',#565);
#313=DATE_TIME_ROLE('creation_date');
#314=APPLIED_DATE_AND_TIME_ASSIGNMENT(#315,#313,(#565));
#315=DATE_AND_TIME(#316,#317);
#316=CALENDAR_DATE(2021,17,6);
#317=LOCAL_TIME(0,0,0.,#318);
#318=COORDINATED_UNIVERSAL_TIME_OFFSET(0,0,.BEHIND.);
#319=AXIS2_PLACEMENT_3D('placement',#457,#360,#361);
#320=AXIS2_PLACEMENT_3D('',#458,#362,#363);
#321=AXIS2_PLACEMENT_3D('',#461,#364,#365);
#322=AXIS2_PLACEMENT_3D('',#463,#367,#368);
#323=AXIS2_PLACEMENT_3D('',#477,#372,#373);
#324=AXIS2_PLACEMENT_3D('',#480,#374,#375);
#325=AXIS2_PLACEMENT_3D('',#482,#377,#378);
#326=AXIS2_PLACEMENT_3D('',#496,#382,#383);
#327=AXIS2_PLACEMENT_3D('',#497,#384,#385);
#328=AXIS2_PLACEMENT_3D('',#499,#386,#387);
#329=AXIS2_PLACEMENT_3D('',#500,#388,#389);
#330=AXIS2_PLACEMENT_3D('',#501,#390,#391);
#331=AXIS2_PLACEMENT_3D('',#504,#392,#393);
#332=AXIS2_PLACEMENT_3D('',#506,#395,#396);
#333=AXIS2_PLACEMENT_3D('',#507,#397,#398);
#334=AXIS2_PLACEMENT_3D('',#508,#399,#400);
#335=AXIS2_PLACEMENT_3D('',#510,#401,#402);
#336=AXIS2_PLACEMENT_3D('',#511,#403,#404);
#337=AXIS2_PLACEMENT_3D('',#512,#405,#406);
#338=AXIS2_PLACEMENT_3D('',#514,#407,#408);
#339=AXIS2_PLACEMENT_3D('',#515,#409,#410);
#340=AXIS2_PLACEMENT_3D('',#517,#411,#412);
#341=AXIS2_PLACEMENT_3D('',#521,#414,#415);
#342=AXIS2_PLACEMENT_3D('',#522,#416,#417);
#343=AXIS2_PLACEMENT_3D('',#523,#418,#419);
#344=AXIS2_PLACEMENT_3D('',#524,#420,#421);
#345=AXIS2_PLACEMENT_3D('',#525,#422,#423);
#346=AXIS2_PLACEMENT_3D('',#529,#425,#426);
#347=AXIS2_PLACEMENT_3D('',#530,#427,#428);
#348=AXIS2_PLACEMENT_3D('',#531,#429,#430);
#349=AXIS2_PLACEMENT_3D('',#532,#431,#432);
#350=AXIS2_PLACEMENT_3D('',#535,#433,#434);
#351=AXIS2_PLACEMENT_3D('',#536,#435,#436);
#352=AXIS2_PLACEMENT_3D('',#538,#438,#439);
#353=AXIS2_PLACEMENT_3D('',#541,#440,#441);
#354=AXIS2_PLACEMENT_3D('',#542,#442,#443);
#355=AXIS2_PLACEMENT_3D('',#544,#445,#446);
#356=AXIS2_PLACEMENT_3D('',#546,#447,#448);
#357=AXIS2_PLACEMENT_3D('',#548,#450,#451);
#358=AXIS2_PLACEMENT_3D('',#550,#452,#453);
#359=AXIS2_PLACEMENT_3D('',#551,#454,#455);
#360=DIRECTION('axis',(0.,0.,1.));
#361=DIRECTION('refdir',(1.,0.,0.));
#362=DIRECTION('center_axis',(0.707106781186548,3.91589497599628E-17,-0.707106781186548));
#363=DIRECTION('ref_axis',(-0.707106781186548,-1.62201680788633E-17,-0.707106781186548));
#364=DIRECTION('center_axis',(0.707106781186548,3.91589497599628E-17,-0.707106781186548));
#365=DIRECTION('ref_axis',(0.707106781186547,0.,0.707106781186547));
#366=DIRECTION('',(0.,1.,5.53791178388261E-17));
#367=DIRECTION('center_axis',(0.,5.53791178388261E-17,-1.));
#368=DIRECTION('ref_axis',(0.,1.,5.53791178388261E-17));
#369=DIRECTION('',(1.,0.,0.));
#370=DIRECTION('',(0.,1.,5.53791178388261E-17));
#371=DIRECTION('',(-1.,0.,0.));
#372=DIRECTION('center_axis',(0.707106781186548,0.,0.707106781186548));
#373=DIRECTION('ref_axis',(0.707106781186548,0.,-0.707106781186548));
#374=DIRECTION('center_axis',(0.707106781186548,0.,0.707106781186548));
#375=DIRECTION('ref_axis',(-0.707106781186547,0.,0.707106781186547));
#376=DIRECTION('',(0.,-1.,0.));
#377=DIRECTION('center_axis',(0.,0.,1.));
#378=DIRECTION('ref_axis',(0.,-1.,0.));
#379=DIRECTION('',(1.,0.,0.));
#380=DIRECTION('',(0.,-1.,0.));
#381=DIRECTION('',(-1.,0.,0.));
#382=DIRECTION('center_axis',(1.,0.,0.));
#383=DIRECTION('ref_axis',(0.,-1.,0.));
#384=DIRECTION('center_axis',(1.,0.,0.));
#385=DIRECTION('ref_axis',(0.,-1.,0.));
#386=DIRECTION('center_axis',(-1.,0.,0.));
#387=DIRECTION('ref_axis',(0.,-1.,0.));
#388=DIRECTION('center_axis',(-1.,0.,0.));
#389=DIRECTION('ref_axis',(0.,-1.,0.));
#390=DIRECTION('center_axis',(1.,0.,0.));
#391=DIRECTION('ref_axis',(0.,1.,0.));
#392=DIRECTION('center_axis',(1.,0.,0.));
#393=DIRECTION('ref_axis',(0.,-1.,1.83697019872103E-16));
#394=DIRECTION('',(-1.,0.,0.));
#395=DIRECTION('center_axis',(-1.,0.,0.));
#396=DIRECTION('ref_axis',(0.,-1.,0.));
#397=DIRECTION('center_axis',(1.,0.,0.));
#398=DIRECTION('ref_axis',(0.,-1.,1.83697019872103E-16));
#399=DIRECTION('center_axis',(1.,0.,0.));
#400=DIRECTION('ref_axis',(0.,0.,-1.));
#401=DIRECTION('center_axis',(0.,-1.,-1.22464679914735E-16));
#402=DIRECTION('ref_axis',(0.,-1.22464679914735E-16,1.));
#403=DIRECTION('center_axis',(-1.,0.,0.));
#404=DIRECTION('ref_axis',(0.,-1.,1.83697019872103E-16));
#405=DIRECTION('center_axis',(-1.,0.,0.));
#406=DIRECTION('ref_axis',(0.,0.,1.));
#407=DIRECTION('center_axis',(1.,0.,0.));
#408=DIRECTION('ref_axis',(0.,-1.,0.));
#409=DIRECTION('center_axis',(-1.,0.,0.));
#410=DIRECTION('ref_axis',(0.,0.,-1.));
#411=DIRECTION('center_axis',(-1.,0.,0.));
#412=DIRECTION('ref_axis',(0.,0.,-1.));
#413=DIRECTION('',(0.707106781186549,-8.65956056235491E-17,-0.707106781186546));
#414=DIRECTION('center_axis',(1.,0.,0.));
#415=DIRECTION('ref_axis',(0.,0.,-1.));
#416=DIRECTION('center_axis',(1.,0.,0.));
#417=DIRECTION('ref_axis',(0.,0.,-1.));
#418=DIRECTION('center_axis',(-1.,0.,0.));
#419=DIRECTION('ref_axis',(0.,0.,1.));
#420=DIRECTION('center_axis',(1.,0.,0.));
#421=DIRECTION('ref_axis',(0.,-1.,0.));
#422=DIRECTION('center_axis',(-1.,0.,0.));
#423=DIRECTION('ref_axis',(0.,0.,1.));
#424=DIRECTION('',(1.,0.,0.));
#425=DIRECTION('center_axis',(1.,0.,0.));
#426=DIRECTION('ref_axis',(0.,0.,1.));
#427=DIRECTION('center_axis',(1.,0.,0.));
#428=DIRECTION('ref_axis',(0.,0.,1.));
#429=DIRECTION('center_axis',(1.,0.,0.));
#430=DIRECTION('ref_axis',(0.,1.,1.22464679914735E-16));
#431=DIRECTION('center_axis',(1.,0.,0.));
#432=DIRECTION('ref_axis',(0.,-1.,0.));
#433=DIRECTION('center_axis',(-1.,0.,0.));
#434=DIRECTION('ref_axis',(0.,-1.,0.));
#435=DIRECTION('center_axis',(-1.,0.,0.));
#436=DIRECTION('ref_axis',(0.,-1.,0.));
#437=DIRECTION('',(-0.707106781186548,-0.707106781186547,-8.65956056235492E-17));
#438=DIRECTION('center_axis',(1.,0.,0.));
#439=DIRECTION('ref_axis',(0.,1.,0.));
#440=DIRECTION('center_axis',(1.,0.,0.));
#441=DIRECTION('ref_axis',(0.,-1.,0.));
#442=DIRECTION('center_axis',(1.,0.,0.));
#443=DIRECTION('ref_axis',(0.,-1.,0.));
#444=DIRECTION('',(-1.,0.,0.));
#445=DIRECTION('center_axis',(-1.,0.,0.));
#446=DIRECTION('ref_axis',(0.,-1.,0.));
#447=DIRECTION('center_axis',(-1.,0.,0.));
#448=DIRECTION('ref_axis',(0.,-1.,0.));
#449=DIRECTION('',(-0.707106781186547,0.707106781186548,8.65956056235494E-17));
#450=DIRECTION('center_axis',(1.,0.,0.));
#451=DIRECTION('ref_axis',(0.,0.,-1.));
#452=DIRECTION('center_axis',(-1.,0.,0.));
#453=DIRECTION('ref_axis',(0.,1.,0.));
#454=DIRECTION('center_axis',(1.,0.,0.));
#455=DIRECTION('ref_axis',(0.,1.,0.));
#456=DIRECTION('',(-0.707106781186547,0.707106781186548,-8.65956056235494E-17));
#457=CARTESIAN_POINT('',(0.,0.,0.));
#458=CARTESIAN_POINT('Origin',(-4.73419689271856,-4.50082830322145E-15,
14.2658031072814));
#459=CARTESIAN_POINT('',(-8.,5.39096466321196,11.));
#460=CARTESIAN_POINT('',(-8.,-5.39096466321196,11.));
#461=CARTESIAN_POINT('Origin',(-19.,0.,0.));
#462=CARTESIAN_POINT('',(-8.,20.0476834581641,11.));
#463=CARTESIAN_POINT('Origin',(-17.,-20.0476834581641,11.));
#464=CARTESIAN_POINT('',(-16.7,5.39096466321196,11.));
#465=CARTESIAN_POINT('',(-10.,5.39096466321196,11.));
#466=CARTESIAN_POINT('',(-17.,4.669314724882,11.));
#467=CARTESIAN_POINT('Ctrl Pts',(-17.,4.66931472488201,11.));
#468=CARTESIAN_POINT('Ctrl Pts',(-16.8607598891217,5.02566665723917,11.));
#469=CARTESIAN_POINT('Ctrl Pts',(-16.7,5.39096466321196,11.));
#470=CARTESIAN_POINT('',(-17.,-4.669314724882,11.));
#471=CARTESIAN_POINT('',(-17.,-3.89884172908207,11.));
#472=CARTESIAN_POINT('',(-16.7,-5.39096466321196,11.));
#473=CARTESIAN_POINT('Ctrl Pts',(-16.7,-5.39096466321196,11.));
#474=CARTESIAN_POINT('Ctrl Pts',(-16.8607598891217,-5.02566665723915,11.));
#475=CARTESIAN_POINT('Ctrl Pts',(-17.,-4.66931472488201,11.));
#476=CARTESIAN_POINT('',(-10.,-5.39096466321196,11.));
#477=CARTESIAN_POINT('Origin',(-4.4045259165892,-4.44089209850063E-15,-14.5954740834108));
#478=CARTESIAN_POINT('',(-8.,-5.39096466321196,-11.));
#479=CARTESIAN_POINT('',(-8.,5.39096466321196,-11.));
#480=CARTESIAN_POINT('Origin',(-19.,0.,0.));
#481=CARTESIAN_POINT('',(-8.,-20.0476834581641,-11.));
#482=CARTESIAN_POINT('Origin',(-17.,20.0476834581641,-11.));
#483=CARTESIAN_POINT('',(-16.7,-5.39096466321196,-11.));
#484=CARTESIAN_POINT('',(-10.,-5.39096466321196,-11.));
#485=CARTESIAN_POINT('',(-17.,-4.66931472488201,-11.));
#486=CARTESIAN_POINT('Ctrl Pts',(-17.,-4.66931472488201,-11.));
#487=CARTESIAN_POINT('Ctrl Pts',(-16.8607598891217,-5.02566665723916,-11.));
#488=CARTESIAN_POINT('Ctrl Pts',(-16.7,-5.39096466321196,-11.));
#489=CARTESIAN_POINT('',(-17.,4.66931472488201,-11.));
#490=CARTESIAN_POINT('',(-17.,16.1488417290821,-11.));
#491=CARTESIAN_POINT('',(-16.7,5.39096466321196,-11.));
#492=CARTESIAN_POINT('Ctrl Pts',(-16.7,5.39096466321196,-11.));
#493=CARTESIAN_POINT('Ctrl Pts',(-16.8607598891217,5.02566665723916,-11.));
#494=CARTESIAN_POINT('Ctrl Pts',(-17.,4.66931472488201,-11.));
#495=CARTESIAN_POINT('',(-10.,5.39096466321196,-11.));
#496=CARTESIAN_POINT('Origin',(-16.85,0.,0.));
#497=CARTESIAN_POINT('Origin',(-17.,0.,0.));
#498=CARTESIAN_POINT('',(-16.7,-12.25,-1.50019232895551E-15));
#499=CARTESIAN_POINT('Origin',(-16.7,0.,0.));
#500=CARTESIAN_POINT('Origin',(-16.7,0.,0.));
#501=CARTESIAN_POINT('Origin',(-10.,0.,0.));
#502=CARTESIAN_POINT('',(-3.8,-12.25,-1.50019232895551E-15));
#503=CARTESIAN_POINT('',(-3.8,-1.50019232895551E-15,12.25));
#504=CARTESIAN_POINT('Origin',(-3.8,0.,0.));
#505=CARTESIAN_POINT('',(-10.,-12.25,-1.50019232895551E-15));
#506=CARTESIAN_POINT('Origin',(-16.7,0.,0.));
#507=CARTESIAN_POINT('Origin',(-3.8,0.,0.));
#508=CARTESIAN_POINT('Origin',(-3.8,0.,0.));
#509=CARTESIAN_POINT('',(-3.,-1.5981640728873E-15,13.05));
#510=CARTESIAN_POINT('Origin',(-3.8,-1.5981640728873E-15,13.05));
#511=CARTESIAN_POINT('Origin',(-3.,0.,0.));
#512=CARTESIAN_POINT('Origin',(-3.,14.75,0.));
#513=CARTESIAN_POINT('',(-3.,14.45,1.76961462476793E-15));
#514=CARTESIAN_POINT('Origin',(-3.,0.,0.));
#515=CARTESIAN_POINT('Origin',(-16.45,0.,0.));
#516=CARTESIAN_POINT('',(-17.,1.05013463026886E-15,8.575));
#517=CARTESIAN_POINT('Origin',(-17.,0.,0.));
#518=CARTESIAN_POINT('',(-15.9,-9.15423482362646E-16,7.475));
#519=CARTESIAN_POINT('',(-16.45,9.82779056315751E-16,8.025));
#520=CARTESIAN_POINT('',(-15.9,-9.15423482362646E-16,-7.475));
#521=CARTESIAN_POINT('Origin',(-15.9,0.,0.));
#522=CARTESIAN_POINT('Origin',(-15.9,0.,0.));
#523=CARTESIAN_POINT('Origin',(-17.,12.25,0.));
#524=CARTESIAN_POINT('Origin',(-17.,0.,0.));
#525=CARTESIAN_POINT('Origin',(28.0499722530436,0.,0.));
#526=CARTESIAN_POINT('',(-2.025,9.15423482362646E-16,-7.475));
#527=CARTESIAN_POINT('',(28.0499722530436,-9.15423482362646E-16,-7.475));
#528=CARTESIAN_POINT('',(-2.025,-7.475,9.15423482362646E-16));
#529=CARTESIAN_POINT('Origin',(-2.025,0.,0.));
#530=CARTESIAN_POINT('Origin',(-2.025,0.,0.));
#531=CARTESIAN_POINT('Origin',(-16.85,0.,0.));
#532=CARTESIAN_POINT('Origin',(-2.85,0.,0.));
#533=CARTESIAN_POINT('',(-2.7,14.75,-1.80635402874235E-15));
#534=CARTESIAN_POINT('',(-2.7,-14.75,-1.80635402874235E-15));
#535=CARTESIAN_POINT('Origin',(-2.7,0.,0.));
#536=CARTESIAN_POINT('Origin',(-2.7,0.,0.));
#537=CARTESIAN_POINT('',(-2.85,14.6,1.78798432675514E-15));
#538=CARTESIAN_POINT('Origin',(-1.5,0.,0.));
#539=CARTESIAN_POINT('',(-0.3,14.75,1.80635402874235E-15));
#540=CARTESIAN_POINT('',(-0.3,-14.75,-1.80635402874235E-15));
#541=CARTESIAN_POINT('Origin',(-0.3,0.,0.));
#542=CARTESIAN_POINT('Origin',(-0.3,0.,0.));
#543=CARTESIAN_POINT('',(-1.5,-14.75,-1.80635402874235E-15));
#544=CARTESIAN_POINT('Origin',(-0.15,0.,0.));
#545=CARTESIAN_POINT('',(0.,14.45,-1.76961462476793E-15));
#546=CARTESIAN_POINT('Origin',(0.,0.,0.));
#547=CARTESIAN_POINT('',(-0.15,14.6,1.78798432675514E-15));
#548=CARTESIAN_POINT('Origin',(0.,0.,0.));
#549=CARTESIAN_POINT('',(8.32667268468867E-16,-9.5,1.16341445918999E-15));
#550=CARTESIAN_POINT('Origin',(0.,0.,0.));
#551=CARTESIAN_POINT('Origin',(-1.48005220750041,0.,0.));
#552=CARTESIAN_POINT('',(-1.48005220750041,-8.01994779249959,9.8216033934135E-16));
#553=UNCERTAINTY_MEASURE_WITH_UNIT(LENGTH_MEASURE(0.01),#557,
'DISTANCE_ACCURACY_VALUE',
'Maximum model space distance between geometric entities at asserted c
onnectivities');
#554=UNCERTAINTY_MEASURE_WITH_UNIT(LENGTH_MEASURE(0.01),#557,
'DISTANCE_ACCURACY_VALUE',
'Maximum model space distance between geometric entities at asserted c
onnectivities');
#555=(
GEOMETRIC_REPRESENTATION_CONTEXT(3)
GLOBAL_UNCERTAINTY_ASSIGNED_CONTEXT((#553))
GLOBAL_UNIT_ASSIGNED_CONTEXT((#557,#559,#560))
REPRESENTATION_CONTEXT('','3D')
);
#556=(
GEOMETRIC_REPRESENTATION_CONTEXT(3)
GLOBAL_UNCERTAINTY_ASSIGNED_CONTEXT((#554))
GLOBAL_UNIT_ASSIGNED_CONTEXT((#557,#559,#560))
REPRESENTATION_CONTEXT('','3D')
);
#557=(
LENGTH_UNIT()
NAMED_UNIT(*)
SI_UNIT(.MILLI.,.METRE.)
);
#558=(
LENGTH_UNIT()
NAMED_UNIT(*)
SI_UNIT(.CENTI.,.METRE.)
);
#559=(
NAMED_UNIT(*)
PLANE_ANGLE_UNIT()
SI_UNIT($,.RADIAN.)
);
#560=(
NAMED_UNIT(*)
SI_UNIT($,.STERADIAN.)
SOLID_ANGLE_UNIT()
);
#561=SHAPE_DEFINITION_REPRESENTATION(#562,#563);
#562=PRODUCT_DEFINITION_SHAPE('',$,#565);
#563=SHAPE_REPRESENTATION('',(#319),#555);
#564=PRODUCT_DEFINITION_CONTEXT('part definition',#569,'design');
#565=PRODUCT_DEFINITION('3D_R666-E-DN10-DN25_17113125',
'3D_R666-E-DN10-DN25_17113125',#566,#564);
#566=PRODUCT_DEFINITION_FORMATION('',$,#571);
#567=PRODUCT_RELATED_PRODUCT_CATEGORY('3D_R666-E-DN10-DN25_17113125',
'3D_R666-E-DN10-DN25_17113125',(#571));
#568=APPLICATION_PROTOCOL_DEFINITION('international standard',
'automotive_design',2009,#569);
#569=APPLICATION_CONTEXT(
'Core Data for Automotive Mechanical Design Process');
#570=PRODUCT_CONTEXT('part definition',#569,'mechanical');
#571=PRODUCT('3D_R666-E-DN10-DN25_17113125',
'3D_R666-E-DN10-DN25_17113125',$,(#570));
#572=PRESENTATION_STYLE_ASSIGNMENT((#573));
#573=SURFACE_STYLE_USAGE(.BOTH.,#576);
#574=SURFACE_STYLE_RENDERING_WITH_PROPERTIES($,#580,(#575));
#575=SURFACE_STYLE_TRANSPARENT(0.);
#576=SURFACE_SIDE_STYLE('',(#577,#574));
#577=SURFACE_STYLE_FILL_AREA(#578);
#578=FILL_AREA_STYLE('',(#579));
#579=FILL_AREA_STYLE_COLOUR('',#580);
#580=COLOUR_RGB('',0.749019607843137,0.749019607843137,0.749019607843137);
ENDSEC;
END-ISO-10303-21;
