ISO-10303-21;
HEADER;
/* Generated by software containing ST-Developer
 * from STEP Tools, Inc. (www.steptools.com) 
 */

FILE_DESCRIPTION(
/* description */ (''),
/* implementation_level */ '2;1');

FILE_NAME(
/* name */ 
'C:\\Users\\cad\\Desktop\\Zeichnungen neu von Ralph\\3D_Kupplung_R666-
SG\\3D_R666-SG-26.9-DN25_17113742.stp',
/* time_stamp */ '2021-06-22T13:26:28+02:00',
/* author */ ('cad'),
/* organization */ (''),
/* preprocessor_version */ 'ST-DEVELOPER v18.1',
/* originating_system */ 'Autodesk Inventor 2022',
/* authorisation */ '');

FILE_SCHEMA (('AUTOMOTIVE_DESIGN { 1 0 10303 214 3 1 1 }'));
ENDSEC;

DATA;
#10=MECHANICAL_DESIGN_GEOMETRIC_PRESENTATION_REPRESENTATION('',(#13),#438);
#11=SHAPE_REPRESENTATION_RELATIONSHIP('SRR','None',#445,#12);
#12=ADVANCED_BREP_SHAPE_REPRESENTATION('',(#14),#437);
#13=STYLED_ITEM('',(#454),#14);
#14=MANIFOLD_SOLID_BREP('Volumenk\X\F6rper1',#230);
#15=CONICAL_SURFACE('',#267,15.275,0.785398163397449);
#16=CONICAL_SURFACE('',#269,13.3,0.785398163397452);
#17=CONICAL_SURFACE('',#273,11.6,0.785398163397448);
#18=CONICAL_SURFACE('',#278,15.55,0.785398163397446);
#19=CONICAL_SURFACE('',#285,11.975,0.785398163397448);
#20=FACE_BOUND('',#65,.T.);
#21=FACE_BOUND('',#71,.T.);
#22=FACE_BOUND('',#76,.T.);
#23=PLANE('',#258);
#24=PLANE('',#271);
#25=PLANE('',#282);
#26=LINE('',#380,#35);
#27=LINE('',#398,#36);
#28=LINE('',#402,#37);
#29=LINE('',#405,#38);
#30=LINE('',#412,#39);
#31=LINE('',#419,#40);
#32=LINE('',#424,#41);
#33=LINE('',#432,#42);
#34=LINE('',#434,#43);
#35=VECTOR('',#300,13.45);
#36=VECTOR('',#323,14.);
#37=VECTOR('',#328,15.275);
#38=VECTOR('',#331,13.3);
#39=VECTOR('',#340,11.6);
#40=VECTOR('',#349,11.45);
#41=VECTOR('',#354,15.55);
#42=VECTOR('',#365,16.55);
#43=VECTOR('',#368,11.975);
#44=CYLINDRICAL_SURFACE('',#255,13.45);
#45=CYLINDRICAL_SURFACE('',#266,14.);
#46=CYLINDRICAL_SURFACE('',#276,11.45);
#47=CYLINDRICAL_SURFACE('',#284,16.55);
#48=FACE_OUTER_BOUND('',#62,.T.);
#49=FACE_OUTER_BOUND('',#63,.T.);
#50=FACE_OUTER_BOUND('',#64,.T.);
#51=FACE_OUTER_BOUND('',#66,.T.);
#52=FACE_OUTER_BOUND('',#67,.T.);
#53=FACE_OUTER_BOUND('',#68,.T.);
#54=FACE_OUTER_BOUND('',#69,.T.);
#55=FACE_OUTER_BOUND('',#70,.T.);
#56=FACE_OUTER_BOUND('',#72,.T.);
#57=FACE_OUTER_BOUND('',#73,.T.);
#58=FACE_OUTER_BOUND('',#74,.T.);
#59=FACE_OUTER_BOUND('',#75,.T.);
#60=FACE_OUTER_BOUND('',#77,.T.);
#61=FACE_OUTER_BOUND('',#78,.T.);
#62=EDGE_LOOP('',(#152,#153,#154,#155,#156));
#63=EDGE_LOOP('',(#157,#158,#159,#160,#161,#162));
#64=EDGE_LOOP('',(#163));
#65=EDGE_LOOP('',(#164));
#66=EDGE_LOOP('',(#165,#166,#167,#168,#169,#170));
#67=EDGE_LOOP('',(#171,#172,#173,#174,#175));
#68=EDGE_LOOP('',(#176,#177,#178,#179,#180));
#69=EDGE_LOOP('',(#181,#182,#183,#184,#185));
#70=EDGE_LOOP('',(#186));
#71=EDGE_LOOP('',(#187));
#72=EDGE_LOOP('',(#188,#189,#190,#191,#192));
#73=EDGE_LOOP('',(#193,#194,#195,#196,#197));
#74=EDGE_LOOP('',(#198,#199,#200,#201,#202));
#75=EDGE_LOOP('',(#203));
#76=EDGE_LOOP('',(#204));
#77=EDGE_LOOP('',(#205,#206,#207,#208,#209));
#78=EDGE_LOOP('',(#210,#211,#212,#213));
#79=CIRCLE('',#251,13.45);
#80=CIRCLE('',#252,0.4);
#81=CIRCLE('',#253,13.85);
#82=CIRCLE('',#254,13.45);
#83=CIRCLE('',#256,13.45);
#84=CIRCLE('',#257,13.45);
#85=CIRCLE('',#259,14.);
#86=CIRCLE('',#261,14.);
#87=CIRCLE('',#262,0.4);
#88=CIRCLE('',#263,14.1171572875254);
#89=CIRCLE('',#264,14.1171572875254);
#90=CIRCLE('',#265,14.);
#91=CIRCLE('',#268,16.55);
#92=CIRCLE('',#270,13.15);
#93=CIRCLE('',#272,11.75);
#94=CIRCLE('',#274,11.45);
#95=CIRCLE('',#275,11.45);
#96=CIRCLE('',#277,11.45);
#97=CIRCLE('',#279,14.55);
#98=CIRCLE('',#280,16.55);
#99=CIRCLE('',#281,16.55);
#100=CIRCLE('',#283,12.5);
#101=VERTEX_POINT('',#371);
#102=VERTEX_POINT('',#372);
#103=VERTEX_POINT('',#374);
#104=VERTEX_POINT('',#379);
#105=VERTEX_POINT('',#381);
#106=VERTEX_POINT('',#385);
#107=VERTEX_POINT('',#388);
#108=VERTEX_POINT('',#389);
#109=VERTEX_POINT('',#391);
#110=VERTEX_POINT('',#393);
#111=VERTEX_POINT('',#400);
#112=VERTEX_POINT('',#404);
#113=VERTEX_POINT('',#408);
#114=VERTEX_POINT('',#411);
#115=VERTEX_POINT('',#413);
#116=VERTEX_POINT('',#417);
#117=VERTEX_POINT('',#421);
#118=VERTEX_POINT('',#423);
#119=VERTEX_POINT('',#425);
#120=VERTEX_POINT('',#429);
#121=EDGE_CURVE('',#101,#102,#79,.T.);
#122=EDGE_CURVE('',#102,#103,#80,.T.);
#123=EDGE_CURVE('',#103,#103,#81,.T.);
#124=EDGE_CURVE('',#102,#101,#82,.T.);
#125=EDGE_CURVE('',#101,#104,#26,.T.);
#126=EDGE_CURVE('',#105,#104,#83,.T.);
#127=EDGE_CURVE('',#104,#105,#84,.T.);
#128=EDGE_CURVE('',#106,#106,#85,.T.);
#129=EDGE_CURVE('',#107,#108,#86,.T.);
#130=EDGE_CURVE('',#108,#109,#87,.T.);
#131=EDGE_CURVE('',#109,#110,#88,.T.);
#132=EDGE_CURVE('',#110,#109,#89,.T.);
#133=EDGE_CURVE('',#108,#107,#90,.T.);
#134=EDGE_CURVE('',#107,#106,#27,.T.);
#135=EDGE_CURVE('',#111,#111,#91,.T.);
#136=EDGE_CURVE('',#111,#110,#28,.T.);
#137=EDGE_CURVE('',#105,#112,#29,.T.);
#138=EDGE_CURVE('',#112,#112,#92,.T.);
#139=EDGE_CURVE('',#113,#113,#93,.T.);
#140=EDGE_CURVE('',#113,#114,#30,.T.);
#141=EDGE_CURVE('',#114,#115,#94,.T.);
#142=EDGE_CURVE('',#115,#114,#95,.T.);
#143=EDGE_CURVE('',#116,#116,#96,.T.);
#144=EDGE_CURVE('',#116,#115,#31,.T.);
#145=EDGE_CURVE('',#117,#117,#97,.T.);
#146=EDGE_CURVE('',#117,#118,#32,.T.);
#147=EDGE_CURVE('',#118,#119,#98,.T.);
#148=EDGE_CURVE('',#119,#118,#99,.T.);
#149=EDGE_CURVE('',#120,#120,#100,.T.);
#150=EDGE_CURVE('',#119,#111,#33,.T.);
#151=EDGE_CURVE('',#120,#116,#34,.T.);
#152=ORIENTED_EDGE('',*,*,#121,.T.);
#153=ORIENTED_EDGE('',*,*,#122,.T.);
#154=ORIENTED_EDGE('',*,*,#123,.T.);
#155=ORIENTED_EDGE('',*,*,#122,.F.);
#156=ORIENTED_EDGE('',*,*,#124,.T.);
#157=ORIENTED_EDGE('',*,*,#121,.F.);
#158=ORIENTED_EDGE('',*,*,#125,.T.);
#159=ORIENTED_EDGE('',*,*,#126,.F.);
#160=ORIENTED_EDGE('',*,*,#127,.F.);
#161=ORIENTED_EDGE('',*,*,#125,.F.);
#162=ORIENTED_EDGE('',*,*,#124,.F.);
#163=ORIENTED_EDGE('',*,*,#128,.F.);
#164=ORIENTED_EDGE('',*,*,#123,.F.);
#165=ORIENTED_EDGE('',*,*,#129,.T.);
#166=ORIENTED_EDGE('',*,*,#130,.T.);
#167=ORIENTED_EDGE('',*,*,#131,.T.);
#168=ORIENTED_EDGE('',*,*,#132,.T.);
#169=ORIENTED_EDGE('',*,*,#130,.F.);
#170=ORIENTED_EDGE('',*,*,#133,.T.);
#171=ORIENTED_EDGE('',*,*,#129,.F.);
#172=ORIENTED_EDGE('',*,*,#134,.T.);
#173=ORIENTED_EDGE('',*,*,#128,.T.);
#174=ORIENTED_EDGE('',*,*,#134,.F.);
#175=ORIENTED_EDGE('',*,*,#133,.F.);
#176=ORIENTED_EDGE('',*,*,#135,.F.);
#177=ORIENTED_EDGE('',*,*,#136,.T.);
#178=ORIENTED_EDGE('',*,*,#131,.F.);
#179=ORIENTED_EDGE('',*,*,#132,.F.);
#180=ORIENTED_EDGE('',*,*,#136,.F.);
#181=ORIENTED_EDGE('',*,*,#126,.T.);
#182=ORIENTED_EDGE('',*,*,#127,.T.);
#183=ORIENTED_EDGE('',*,*,#137,.T.);
#184=ORIENTED_EDGE('',*,*,#138,.T.);
#185=ORIENTED_EDGE('',*,*,#137,.F.);
#186=ORIENTED_EDGE('',*,*,#138,.F.);
#187=ORIENTED_EDGE('',*,*,#139,.F.);
#188=ORIENTED_EDGE('',*,*,#139,.T.);
#189=ORIENTED_EDGE('',*,*,#140,.T.);
#190=ORIENTED_EDGE('',*,*,#141,.T.);
#191=ORIENTED_EDGE('',*,*,#142,.T.);
#192=ORIENTED_EDGE('',*,*,#140,.F.);
#193=ORIENTED_EDGE('',*,*,#143,.T.);
#194=ORIENTED_EDGE('',*,*,#144,.T.);
#195=ORIENTED_EDGE('',*,*,#141,.F.);
#196=ORIENTED_EDGE('',*,*,#142,.F.);
#197=ORIENTED_EDGE('',*,*,#144,.F.);
#198=ORIENTED_EDGE('',*,*,#145,.T.);
#199=ORIENTED_EDGE('',*,*,#146,.T.);
#200=ORIENTED_EDGE('',*,*,#147,.T.);
#201=ORIENTED_EDGE('',*,*,#148,.T.);
#202=ORIENTED_EDGE('',*,*,#146,.F.);
#203=ORIENTED_EDGE('',*,*,#145,.F.);
#204=ORIENTED_EDGE('',*,*,#149,.F.);
#205=ORIENTED_EDGE('',*,*,#147,.F.);
#206=ORIENTED_EDGE('',*,*,#148,.F.);
#207=ORIENTED_EDGE('',*,*,#150,.T.);
#208=ORIENTED_EDGE('',*,*,#135,.T.);
#209=ORIENTED_EDGE('',*,*,#150,.F.);
#210=ORIENTED_EDGE('',*,*,#149,.T.);
#211=ORIENTED_EDGE('',*,*,#151,.T.);
#212=ORIENTED_EDGE('',*,*,#143,.F.);
#213=ORIENTED_EDGE('',*,*,#151,.F.);
#214=TOROIDAL_SURFACE('',#250,13.85,0.4);
#215=TOROIDAL_SURFACE('',#260,14.4,0.4);
#216=ADVANCED_FACE('',(#48),#214,.F.);
#217=ADVANCED_FACE('',(#49),#44,.T.);
#218=ADVANCED_FACE('',(#50,#20),#23,.T.);
#219=ADVANCED_FACE('',(#51),#215,.F.);
#220=ADVANCED_FACE('',(#52),#45,.T.);
#221=ADVANCED_FACE('',(#53),#15,.T.);
#222=ADVANCED_FACE('',(#54),#16,.T.);
#223=ADVANCED_FACE('',(#55,#21),#24,.T.);
#224=ADVANCED_FACE('',(#56),#17,.F.);
#225=ADVANCED_FACE('',(#57),#46,.F.);
#226=ADVANCED_FACE('',(#58),#18,.T.);
#227=ADVANCED_FACE('',(#59,#22),#25,.T.);
#228=ADVANCED_FACE('',(#60),#47,.T.);
#229=ADVANCED_FACE('',(#61),#19,.F.);
#230=CLOSED_SHELL('',(#216,#217,#218,#219,#220,#221,#222,#223,#224,#225,
#226,#227,#228,#229));
#231=DERIVED_UNIT_ELEMENT(#233,1.);
#232=DERIVED_UNIT_ELEMENT(#440,-3.);
#233=(
MASS_UNIT()
NAMED_UNIT(*)
SI_UNIT($,.GRAM.)
);
#234=DERIVED_UNIT((#231,#232));
#235=MEASURE_REPRESENTATION_ITEM('density measure',
POSITIVE_RATIO_MEASURE(1.),#234);
#236=PROPERTY_DEFINITION_REPRESENTATION(#241,#238);
#237=PROPERTY_DEFINITION_REPRESENTATION(#242,#239);
#238=REPRESENTATION('material name',(#240),#437);
#239=REPRESENTATION('density',(#235),#437);
#240=DESCRIPTIVE_REPRESENTATION_ITEM('Generisch','Generisch');
#241=PROPERTY_DEFINITION('material property','material name',#447);
#242=PROPERTY_DEFINITION('material property','density of part',#447);
#243=DATE_TIME_ROLE('creation_date');
#244=APPLIED_DATE_AND_TIME_ASSIGNMENT(#245,#243,(#447));
#245=DATE_AND_TIME(#246,#247);
#246=CALENDAR_DATE(2021,22,6);
#247=LOCAL_TIME(0,0,0.,#248);
#248=COORDINATED_UNIVERSAL_TIME_OFFSET(0,0,.BEHIND.);
#249=AXIS2_PLACEMENT_3D('placement',#369,#286,#287);
#250=AXIS2_PLACEMENT_3D('',#370,#288,#289);
#251=AXIS2_PLACEMENT_3D('',#373,#290,#291);
#252=AXIS2_PLACEMENT_3D('',#375,#292,#293);
#253=AXIS2_PLACEMENT_3D('',#376,#294,#295);
#254=AXIS2_PLACEMENT_3D('',#377,#296,#297);
#255=AXIS2_PLACEMENT_3D('',#378,#298,#299);
#256=AXIS2_PLACEMENT_3D('',#382,#301,#302);
#257=AXIS2_PLACEMENT_3D('',#383,#303,#304);
#258=AXIS2_PLACEMENT_3D('',#384,#305,#306);
#259=AXIS2_PLACEMENT_3D('',#386,#307,#308);
#260=AXIS2_PLACEMENT_3D('',#387,#309,#310);
#261=AXIS2_PLACEMENT_3D('',#390,#311,#312);
#262=AXIS2_PLACEMENT_3D('',#392,#313,#314);
#263=AXIS2_PLACEMENT_3D('',#394,#315,#316);
#264=AXIS2_PLACEMENT_3D('',#395,#317,#318);
#265=AXIS2_PLACEMENT_3D('',#396,#319,#320);
#266=AXIS2_PLACEMENT_3D('',#397,#321,#322);
#267=AXIS2_PLACEMENT_3D('',#399,#324,#325);
#268=AXIS2_PLACEMENT_3D('',#401,#326,#327);
#269=AXIS2_PLACEMENT_3D('',#403,#329,#330);
#270=AXIS2_PLACEMENT_3D('',#406,#332,#333);
#271=AXIS2_PLACEMENT_3D('',#407,#334,#335);
#272=AXIS2_PLACEMENT_3D('',#409,#336,#337);
#273=AXIS2_PLACEMENT_3D('',#410,#338,#339);
#274=AXIS2_PLACEMENT_3D('',#414,#341,#342);
#275=AXIS2_PLACEMENT_3D('',#415,#343,#344);
#276=AXIS2_PLACEMENT_3D('',#416,#345,#346);
#277=AXIS2_PLACEMENT_3D('',#418,#347,#348);
#278=AXIS2_PLACEMENT_3D('',#420,#350,#351);
#279=AXIS2_PLACEMENT_3D('',#422,#352,#353);
#280=AXIS2_PLACEMENT_3D('',#426,#355,#356);
#281=AXIS2_PLACEMENT_3D('',#427,#357,#358);
#282=AXIS2_PLACEMENT_3D('',#428,#359,#360);
#283=AXIS2_PLACEMENT_3D('',#430,#361,#362);
#284=AXIS2_PLACEMENT_3D('',#431,#363,#364);
#285=AXIS2_PLACEMENT_3D('',#433,#366,#367);
#286=DIRECTION('axis',(0.,0.,1.));
#287=DIRECTION('refdir',(1.,0.,0.));
#288=DIRECTION('center_axis',(1.,0.,0.));
#289=DIRECTION('ref_axis',(0.,0.,-1.));
#290=DIRECTION('center_axis',(1.,0.,0.));
#291=DIRECTION('ref_axis',(0.,-1.,1.83697019872103E-16));
#292=DIRECTION('center_axis',(0.,-1.,-1.22464679914735E-16));
#293=DIRECTION('ref_axis',(0.,-1.22464679914735E-16,1.));
#294=DIRECTION('center_axis',(-1.,0.,0.));
#295=DIRECTION('ref_axis',(0.,-1.,1.83697019872103E-16));
#296=DIRECTION('center_axis',(1.,0.,0.));
#297=DIRECTION('ref_axis',(0.,-1.,1.83697019872103E-16));
#298=DIRECTION('center_axis',(1.,0.,0.));
#299=DIRECTION('ref_axis',(0.,1.,0.));
#300=DIRECTION('',(-1.,0.,0.));
#301=DIRECTION('center_axis',(-1.,0.,0.));
#302=DIRECTION('ref_axis',(0.,-1.,0.));
#303=DIRECTION('center_axis',(-1.,0.,0.));
#304=DIRECTION('ref_axis',(0.,-1.,0.));
#305=DIRECTION('center_axis',(-1.,0.,0.));
#306=DIRECTION('ref_axis',(0.,0.,1.));
#307=DIRECTION('center_axis',(1.,0.,0.));
#308=DIRECTION('ref_axis',(0.,0.,-1.));
#309=DIRECTION('center_axis',(1.,0.,0.));
#310=DIRECTION('ref_axis',(0.,0.,-1.));
#311=DIRECTION('center_axis',(1.,0.,0.));
#312=DIRECTION('ref_axis',(0.,-1.,1.83697019872103E-16));
#313=DIRECTION('center_axis',(0.,-1.,-1.22464679914735E-16));
#314=DIRECTION('ref_axis',(0.,-1.22464679914735E-16,1.));
#315=DIRECTION('center_axis',(-1.,0.,0.));
#316=DIRECTION('ref_axis',(0.,-1.,3.06161699786838E-17));
#317=DIRECTION('center_axis',(-1.,0.,0.));
#318=DIRECTION('ref_axis',(0.,-1.,3.06161699786838E-17));
#319=DIRECTION('center_axis',(1.,0.,0.));
#320=DIRECTION('ref_axis',(0.,-1.,1.83697019872103E-16));
#321=DIRECTION('center_axis',(1.,0.,0.));
#322=DIRECTION('ref_axis',(0.,1.,0.));
#323=DIRECTION('',(-1.,0.,0.));
#324=DIRECTION('center_axis',(1.,0.,0.));
#325=DIRECTION('ref_axis',(0.,1.,0.));
#326=DIRECTION('center_axis',(1.,0.,0.));
#327=DIRECTION('ref_axis',(0.,0.,-1.));
#328=DIRECTION('',(-0.707106781186547,0.707106781186548,8.65956056235494E-17));
#329=DIRECTION('center_axis',(1.,0.,0.));
#330=DIRECTION('ref_axis',(0.,-1.,0.));
#331=DIRECTION('',(-0.707106781186545,-0.70710678118655,-8.65956056235497E-17));
#332=DIRECTION('center_axis',(1.,0.,0.));
#333=DIRECTION('ref_axis',(0.,-1.,0.));
#334=DIRECTION('center_axis',(-1.,0.,0.));
#335=DIRECTION('ref_axis',(0.,0.,1.));
#336=DIRECTION('center_axis',(-1.,0.,0.));
#337=DIRECTION('ref_axis',(0.,-1.,0.));
#338=DIRECTION('center_axis',(-1.,0.,0.));
#339=DIRECTION('ref_axis',(0.,-1.,0.));
#340=DIRECTION('',(0.707106781186547,-0.707106781186547,8.65956056235493E-17));
#341=DIRECTION('center_axis',(1.,0.,0.));
#342=DIRECTION('ref_axis',(0.,-1.,0.));
#343=DIRECTION('center_axis',(1.,0.,0.));
#344=DIRECTION('ref_axis',(0.,-1.,0.));
#345=DIRECTION('center_axis',(1.,0.,0.));
#346=DIRECTION('ref_axis',(0.,1.,0.));
#347=DIRECTION('center_axis',(1.,0.,0.));
#348=DIRECTION('ref_axis',(0.,0.,-1.));
#349=DIRECTION('',(-1.,0.,0.));
#350=DIRECTION('center_axis',(-1.,0.,0.));
#351=DIRECTION('ref_axis',(0.,-1.,0.));
#352=DIRECTION('center_axis',(-1.,0.,0.));
#353=DIRECTION('ref_axis',(0.,-1.,0.));
#354=DIRECTION('',(-0.707106781186549,0.707106781186546,8.65956056235492E-17));
#355=DIRECTION('center_axis',(1.,0.,0.));
#356=DIRECTION('ref_axis',(0.,-1.,0.));
#357=DIRECTION('center_axis',(1.,0.,0.));
#358=DIRECTION('ref_axis',(0.,-1.,0.));
#359=DIRECTION('center_axis',(1.,0.,0.));
#360=DIRECTION('ref_axis',(0.,0.,-1.));
#361=DIRECTION('center_axis',(1.,0.,0.));
#362=DIRECTION('ref_axis',(0.,0.,-1.));
#363=DIRECTION('center_axis',(1.,0.,0.));
#364=DIRECTION('ref_axis',(0.,1.,0.));
#365=DIRECTION('',(-1.,0.,0.));
#366=DIRECTION('center_axis',(1.,0.,0.));
#367=DIRECTION('ref_axis',(0.,1.,0.));
#368=DIRECTION('',(-0.707106781186548,0.707106781186547,8.65956056235493E-17));
#369=CARTESIAN_POINT('',(0.,0.,0.));
#370=CARTESIAN_POINT('Origin',(-18.4,0.,0.));
#371=CARTESIAN_POINT('',(-18.4,-13.45,-1.64714994485319E-15));
#372=CARTESIAN_POINT('',(-18.4,-1.64714994485319E-15,13.45));
#373=CARTESIAN_POINT('Origin',(-18.4,0.,0.));
#374=CARTESIAN_POINT('',(-18.,-1.69613581681908E-15,13.85));
#375=CARTESIAN_POINT('Origin',(-18.4,-1.69613581681908E-15,13.85));
#376=CARTESIAN_POINT('Origin',(-18.,0.,0.));
#377=CARTESIAN_POINT('Origin',(-18.4,0.,0.));
#378=CARTESIAN_POINT('Origin',(-22.5,0.,0.));
#379=CARTESIAN_POINT('',(-26.7,-13.45,-1.64714994485319E-15));
#380=CARTESIAN_POINT('',(-22.5,-13.45,-1.64714994485319E-15));
#381=CARTESIAN_POINT('',(-26.7,13.45,-1.64714994485319E-15));
#382=CARTESIAN_POINT('Origin',(-26.7,0.,0.));
#383=CARTESIAN_POINT('Origin',(-26.7,0.,0.));
#384=CARTESIAN_POINT('Origin',(-18.,14.,0.));
#385=CARTESIAN_POINT('',(-18.,-14.,-1.71450551880629E-15));
#386=CARTESIAN_POINT('Origin',(-18.,0.,0.));
#387=CARTESIAN_POINT('Origin',(-11.2156854249492,0.,0.));
#388=CARTESIAN_POINT('',(-11.2156854249492,-14.,-1.71450551880629E-15));
#389=CARTESIAN_POINT('',(-11.2156854249492,-1.71450551880629E-15,14.));
#390=CARTESIAN_POINT('Origin',(-11.2156854249492,0.,0.));
#391=CARTESIAN_POINT('',(-10.9328427124746,-1.72885314852277E-15,14.1171572875254));
#392=CARTESIAN_POINT('Origin',(-11.2156854249492,-1.76349139077219E-15,
14.4));
#393=CARTESIAN_POINT('',(-10.9328427124746,-14.1171572875254,-1.72885314852277E-15));
#394=CARTESIAN_POINT('Origin',(-10.9328427124746,0.,-2.16106643565346E-15));
#395=CARTESIAN_POINT('Origin',(-10.9328427124746,0.,-2.16106643565346E-15));
#396=CARTESIAN_POINT('Origin',(-11.2156854249492,0.,0.));
#397=CARTESIAN_POINT('Origin',(-14.525,0.,0.));
#398=CARTESIAN_POINT('',(-14.525,-14.,-1.71450551880629E-15));
#399=CARTESIAN_POINT('Origin',(-9.77500000000001,0.,0.));
#400=CARTESIAN_POINT('',(-8.50000000000001,-16.55,-2.02679045258887E-15));
#401=CARTESIAN_POINT('Origin',(-8.50000000000001,0.,0.));
#402=CARTESIAN_POINT('',(-9.77500000000001,-15.275,-1.87064798569758E-15));
#403=CARTESIAN_POINT('Origin',(-26.85,0.,0.));
#404=CARTESIAN_POINT('',(-27.,13.15,1.61041054087877E-15));
#405=CARTESIAN_POINT('',(-26.85,13.3,1.62878024286598E-15));
#406=CARTESIAN_POINT('Origin',(-27.,0.,0.));
#407=CARTESIAN_POINT('Origin',(-27.,13.45,0.));
#408=CARTESIAN_POINT('',(-27.,11.75,-1.43895998899814E-15));
#409=CARTESIAN_POINT('Origin',(-27.,0.,0.));
#410=CARTESIAN_POINT('Origin',(-26.85,0.,0.));
#411=CARTESIAN_POINT('',(-26.7,11.45,1.40222058502372E-15));
#412=CARTESIAN_POINT('',(-26.85,11.6,-1.42059028701093E-15));
#413=CARTESIAN_POINT('',(-26.7,-11.45,-1.40222058502372E-15));
#414=CARTESIAN_POINT('Origin',(-26.7,0.,0.));
#415=CARTESIAN_POINT('Origin',(-26.7,0.,0.));
#416=CARTESIAN_POINT('Origin',(-14.025,0.,0.));
#417=CARTESIAN_POINT('',(-1.05000000000001,-11.45,-1.40222058502372E-15));
#418=CARTESIAN_POINT('Origin',(-1.05000000000001,0.,0.));
#419=CARTESIAN_POINT('',(-14.025,-11.45,-1.40222058502372E-15));
#420=CARTESIAN_POINT('Origin',(-1.00000000000001,0.,0.));
#421=CARTESIAN_POINT('',(-6.66133814775094E-15,14.55,-1.7818610927594E-15));
#422=CARTESIAN_POINT('Origin',(-6.66133814775094E-15,0.,0.));
#423=CARTESIAN_POINT('',(-2.00000000000001,16.55,2.02679045258887E-15));
#424=CARTESIAN_POINT('',(-1.00000000000001,15.55,1.90432577267414E-15));
#425=CARTESIAN_POINT('',(-2.00000000000001,-16.55,-2.02679045258887E-15));
#426=CARTESIAN_POINT('Origin',(-2.00000000000001,0.,0.));
#427=CARTESIAN_POINT('Origin',(-2.00000000000001,0.,0.));
#428=CARTESIAN_POINT('Origin',(-6.66133814775094E-15,12.5,0.));
#429=CARTESIAN_POINT('',(-6.52256026967279E-15,-12.5,-1.53080849893419E-15));
#430=CARTESIAN_POINT('Origin',(-6.66133814775094E-15,0.,0.));
#431=CARTESIAN_POINT('Origin',(-4.25000000000001,0.,0.));
#432=CARTESIAN_POINT('',(-4.25000000000001,-16.55,-2.02679045258887E-15));
#433=CARTESIAN_POINT('Origin',(-0.525000000000007,0.,0.));
#434=CARTESIAN_POINT('',(-0.525000000000007,-11.975,-1.46651454197896E-15));
#435=UNCERTAINTY_MEASURE_WITH_UNIT(LENGTH_MEASURE(0.01),#439,
'DISTANCE_ACCURACY_VALUE',
'Maximum model space distance between geometric entities at asserted c
onnectivities');
#436=UNCERTAINTY_MEASURE_WITH_UNIT(LENGTH_MEASURE(0.01),#439,
'DISTANCE_ACCURACY_VALUE',
'Maximum model space distance between geometric entities at asserted c
onnectivities');
#437=(
GEOMETRIC_REPRESENTATION_CONTEXT(3)
GLOBAL_UNCERTAINTY_ASSIGNED_CONTEXT((#435))
GLOBAL_UNIT_ASSIGNED_CONTEXT((#439,#441,#442))
REPRESENTATION_CONTEXT('','3D')
);
#438=(
GEOMETRIC_REPRESENTATION_CONTEXT(3)
GLOBAL_UNCERTAINTY_ASSIGNED_CONTEXT((#436))
GLOBAL_UNIT_ASSIGNED_CONTEXT((#439,#441,#442))
REPRESENTATION_CONTEXT('','3D')
);
#439=(
LENGTH_UNIT()
NAMED_UNIT(*)
SI_UNIT(.MILLI.,.METRE.)
);
#440=(
LENGTH_UNIT()
NAMED_UNIT(*)
SI_UNIT(.CENTI.,.METRE.)
);
#441=(
NAMED_UNIT(*)
PLANE_ANGLE_UNIT()
SI_UNIT($,.RADIAN.)
);
#442=(
NAMED_UNIT(*)
SI_UNIT($,.STERADIAN.)
SOLID_ANGLE_UNIT()
);
#443=SHAPE_DEFINITION_REPRESENTATION(#444,#445);
#444=PRODUCT_DEFINITION_SHAPE('',$,#447);
#445=SHAPE_REPRESENTATION('',(#249),#437);
#446=PRODUCT_DEFINITION_CONTEXT('part definition',#451,'design');
#447=PRODUCT_DEFINITION('3D_R666-SG-26.9-DN25_17113742',
'3D_R666-SG-26.9-DN25_17113742',#448,#446);
#448=PRODUCT_DEFINITION_FORMATION('',$,#453);
#449=PRODUCT_RELATED_PRODUCT_CATEGORY('3D_R666-SG-26.9-DN25_17113742',
'3D_R666-SG-26.9-DN25_17113742',(#453));
#450=APPLICATION_PROTOCOL_DEFINITION('international standard',
'automotive_design',2009,#451);
#451=APPLICATION_CONTEXT(
'Core Data for Automotive Mechanical Design Process');
#452=PRODUCT_CONTEXT('part definition',#451,'mechanical');
#453=PRODUCT('3D_R666-SG-26.9-DN25_17113742',
'3D_R666-SG-26.9-DN25_17113742',$,(#452));
#454=PRESENTATION_STYLE_ASSIGNMENT((#455));
#455=SURFACE_STYLE_USAGE(.BOTH.,#458);
#456=SURFACE_STYLE_RENDERING_WITH_PROPERTIES($,#462,(#457));
#457=SURFACE_STYLE_TRANSPARENT(0.);
#458=SURFACE_SIDE_STYLE('',(#459,#456));
#459=SURFACE_STYLE_FILL_AREA(#460);
#460=FILL_AREA_STYLE('',(#461));
#461=FILL_AREA_STYLE_COLOUR('',#462);
#462=COLOUR_RGB('',0.749019607843137,0.749019607843137,0.749019607843137);
ENDSEC;
END-ISO-10303-21;
