ISO-10303-21;
HEADER;
FILE_DESCRIPTION (( 'STEP AP203' ),
    '1' );
FILE_NAME ('3D_M-2030P_30_174774030.STEP',
    '2024-09-10T06:57:24',
    ( '' ),
    ( '' ),
    'SwSTEP 2.0',
    'SolidWorks 2024',
    '' );
FILE_SCHEMA (( 'CONFIG_CONTROL_DESIGN' ));
ENDSEC;

DATA;
#1 = ORIENTED_EDGE ( 'NONE', *, *, #63, .T. ) ;
#2 = VERTEX_POINT ( 'NONE', #126 ) ;
#3 = ADVANCED_FACE ( 'NONE', ( #29 ), #244, .T. ) ;
#4 = CARTESIAN_POINT ( 'NONE',  ( -12.99999999999998401, 0.000000000000000000, 0.000000000000000000 ) ) ;
#5 = DIRECTION ( 'NONE',  ( -1.000000000000000000, -0.000000000000000000, -0.000000000000000000 ) ) ;
#6 = VECTOR ( 'NONE', #202, 1000.000000000000000 ) ;
#7 = DIRECTION ( 'NONE',  ( -1.000000000000000000, -0.000000000000000000, -0.000000000000000000 ) ) ;
#8 = APPROVAL_STATUS ( 'not_yet_approved' ) ;
#9 = APPLICATION_CONTEXT ( 'configuration controlled 3d designs of mechanical parts and assemblies' ) ;
#10 = DIRECTION ( 'NONE',  ( 0.000000000000000000, 0.000000000000000000, 1.000000000000000000 ) ) ;
#11 = SHAPE_DEFINITION_REPRESENTATION ( #27, #229 ) ;
#12 = VERTEX_POINT ( 'NONE', #84 ) ;
#13 = PLANE ( 'NONE',  #253 ) ;
#14 = EDGE_CURVE ( 'NONE', #12, #30, #243, .T. ) ;
#15 =( NAMED_UNIT ( * ) SI_UNIT ( $, .STERADIAN. ) SOLID_ANGLE_UNIT ( ) );
#16 = PRODUCT_DEFINITION_FORMATION_WITH_SPECIFIED_SOURCE ( 'ANY', '', #236, .NOT_KNOWN. ) ;
#17 = LOCAL_TIME ( 8, 57, 24.00000000000000000, #187 ) ;
#18 = PLANE ( 'NONE',  #207 ) ;
#19 = AXIS2_PLACEMENT_3D ( 'NONE', #163, #43, #227 ) ;
#20 = PERSON_AND_ORGANIZATION ( #110, #89 ) ;
#21 = CARTESIAN_POINT ( 'NONE',  ( -2.999999999999988898, 3.061616997868379098E-15, 24.99999999999996803 ) ) ;
#22 = COORDINATED_UNIVERSAL_TIME_OFFSET ( 1, 0, .AHEAD. ) ;
#23 = UNCERTAINTY_MEASURE_WITH_UNIT (LENGTH_MEASURE( 1.000000000000000082E-05 ), #156, 'distance_accuracy_value', 'NONE');
#24 = EDGE_CURVE ( 'NONE', #28, #127, #118, .T. ) ;
#25 = ORIENTED_EDGE ( 'NONE', *, *, #49, .F. ) ;
#26 = ORIENTED_EDGE ( 'NONE', *, *, #221, .T. ) ;
#27 = PRODUCT_DEFINITION_SHAPE ( 'NONE', 'NONE',  #97 ) ;
#28 = VERTEX_POINT ( 'NONE', #52 ) ;
#29 = FACE_OUTER_BOUND ( 'NONE', #197, .T. ) ;
#30 = VERTEX_POINT ( 'NONE', #230 ) ;
#31 = ORIENTED_EDGE ( 'NONE', *, *, #58, .T. ) ;
#32 = CARTESIAN_POINT ( 'NONE',  ( -2.999999999999988898, 3.061616997868379098E-15, 24.99999999999996803 ) ) ;
#33 = PRODUCT_RELATED_PRODUCT_CATEGORY ( 'detail', '', ( #236 ) ) ;
#34 = SECURITY_CLASSIFICATION_LEVEL ( 'unclassified' ) ;
#35 = CC_DESIGN_PERSON_AND_ORGANIZATION_ASSIGNMENT ( #138, #57, ( #97 ) ) ;
#36 = CARTESIAN_POINT ( 'NONE',  ( -2.999999999999988898, 0.000000000000000000, -24.99999999999996803 ) ) ;
#37 = CARTESIAN_POINT ( 'NONE',  ( 0.000000000000000000, 0.000000000000000000, 0.000000000000000000 ) ) ;
#38 = DIRECTION ( 'NONE',  ( 0.000000000000000000, 0.000000000000000000, -1.000000000000000000 ) ) ;
#39 = CALENDAR_DATE ( 2024, 10, 9 ) ;
#40 = DATE_AND_TIME ( #158, #41 ) ;
#41 = LOCAL_TIME ( 8, 57, 24.00000000000000000, #216 ) ;
#42 = ORIENTED_EDGE ( 'NONE', *, *, #49, .T. ) ;
#43 = DIRECTION ( 'NONE',  ( 1.000000000000000000, 0.000000000000000000, 0.000000000000000000 ) ) ;
#44 = APPROVAL_DATE_TIME ( #66, #134 ) ;
#45 = EDGE_LOOP ( 'NONE', ( #121, #239 ) ) ;
#46 = DIRECTION ( 'NONE',  ( 0.000000000000000000, 0.000000000000000000, 1.000000000000000000 ) ) ;
#47 = APPROVAL_PERSON_ORGANIZATION ( #136, #90, #215 ) ;
#48 = CC_DESIGN_APPROVAL ( #134, ( #101 ) ) ;
#49 = EDGE_CURVE ( 'NONE', #30, #200, #246, .T. ) ;
#50 = CARTESIAN_POINT ( 'NONE',  ( -108.2865231617622612, 0.000000000000000000, 20.49999999999996447 ) ) ;
#51 = CONICAL_SURFACE ( 'NONE', #19, 24.99999999999996803, 0.3490658503988631756 ) ;
#52 = CARTESIAN_POINT ( 'NONE',  ( -2.999999999999988898, 2.510525938252070143E-15, -20.49999999999996447 ) ) ;
#53 = CYLINDRICAL_SURFACE ( 'NONE', #92, 20.49999999999996447 ) ;
#54 = APPLICATION_PROTOCOL_DEFINITION ( 'international standard', 'config_control_design', 1994, #9 ) ;
#55 = CC_DESIGN_PERSON_AND_ORGANIZATION_ASSIGNMENT ( #224, #182, ( #16 ) ) ;
#56 = CIRCLE ( 'NONE', #201, 20.49999999999996447 ) ;
#57 = PERSON_AND_ORGANIZATION_ROLE ( 'creator' ) ;
#58 = EDGE_CURVE ( 'NONE', #176, #2, #56, .T. ) ;
#59 = APPROVAL_PERSON_ORGANIZATION ( #128, #134, #185 ) ;
#60 = AXIS2_PLACEMENT_3D ( 'NONE', #135, #91, #87 ) ;
#61 = AXIS2_PLACEMENT_3D ( 'NONE', #116, #88, #190 ) ;
#62 = EDGE_LOOP ( 'NONE', ( #146, #139, #26, #177 ) ) ;
#63 = EDGE_CURVE ( 'NONE', #2, #28, #130, .T. ) ;
#64 = ORIENTED_EDGE ( 'NONE', *, *, #102, .F. ) ;
#65 = EDGE_LOOP ( 'NONE', ( #64, #184, #186, #42 ) ) ;
#66 = DATE_AND_TIME ( #83, #17 ) ;
#67 = DIRECTION ( 'NONE',  ( -1.000000000000000000, -0.000000000000000000, -0.000000000000000000 ) ) ;
#68 = ORIENTED_EDGE ( 'NONE', *, *, #221, .F. ) ;
#69 = CARTESIAN_POINT ( 'NONE',  ( -2.999999999999988898, 0.000000000000000000, 0.000000000000000000 ) ) ;
#70 = PERSON_AND_ORGANIZATION ( #110, #89 ) ;
#71 = APPROVAL_PERSON_ORGANIZATION ( #235, #238, #195 ) ;
#72 = FACE_OUTER_BOUND ( 'NONE', #103, .T. ) ;
#73 = DIRECTION ( 'NONE',  ( -1.000000000000000000, -0.000000000000000000, -0.000000000000000000 ) ) ;
#74 = APPLICATION_PROTOCOL_DEFINITION ( 'international standard', 'config_control_design', 1994, #248 ) ;
#75 = DATE_TIME_ROLE ( 'creation_date' ) ;
#76 = CC_DESIGN_DATE_AND_TIME_ASSIGNMENT ( #151, #100, ( #101 ) ) ;
#77 = CIRCLE ( 'NONE', #152, 20.49999999999996447 ) ;
#78 = DIRECTION ( 'NONE',  ( 0.000000000000000000, 0.000000000000000000, 1.000000000000000000 ) ) ;
#79 = CC_DESIGN_SECURITY_CLASSIFICATION ( #101, ( #16 ) ) ;
#80 = LINE ( 'NONE', #50, #6 ) ;
#81 = DIRECTION ( 'NONE',  ( -1.000000000000000000, -0.000000000000000000, -0.000000000000000000 ) ) ;
#82 = AXIS2_PLACEMENT_3D ( 'NONE', #173, #169, #192 ) ;
#83 = CALENDAR_DATE ( 2024, 10, 9 ) ;
#84 = CARTESIAN_POINT ( 'NONE',  ( -12.99999999999998401, 0.000000000000000000, -21.36029765733797703 ) ) ;
#85 = ORIENTED_EDGE ( 'NONE', *, *, #63, .F. ) ;
#86 = CARTESIAN_POINT ( 'NONE',  ( 3.252606517456513302E-15, 20.49999999999996447, 0.000000000000000000 ) ) ;
#87 = DIRECTION ( 'NONE',  ( 1.000000000000000000, 0.000000000000000000, 0.000000000000000000 ) ) ;
#88 = DIRECTION ( 'NONE',  ( 1.000000000000000000, 0.000000000000000000, 0.000000000000000000 ) ) ;
#89 = ORGANIZATION ( 'UNSPECIFIED', 'UNSPECIFIED', '' ) ;
#90 = APPROVAL ( #132, 'UNSPECIFIED' ) ;
#91 = DIRECTION ( 'NONE',  ( 0.000000000000000000, 0.000000000000000000, 1.000000000000000000 ) ) ;
#92 = AXIS2_PLACEMENT_3D ( 'NONE', #155, #133, #252 ) ;
#93 = CARTESIAN_POINT ( 'NONE',  ( -12.99999999999999112, -3.315318599521195210E-14, 0.000000000000000000 ) ) ;
#94 = DESIGN_CONTEXT ( 'detailed design', #248, 'design' ) ;
#95 = CALENDAR_DATE ( 2024, 10, 9 ) ;
#96 = AXIS2_PLACEMENT_3D ( 'NONE', #69, #249, #107 ) ;
#97 = PRODUCT_DEFINITION ( 'UNKNOWN', '', #16, #94 ) ;
#98 = ORIENTED_EDGE ( 'NONE', *, *, #24, .T. ) ;
#99 = CARTESIAN_POINT ( 'NONE',  ( -108.2865231617622612, 0.000000000000000000, 0.000000000000000000 ) ) ;
#100 = DATE_TIME_ROLE ( 'classification_date' ) ;
#101 = SECURITY_CLASSIFICATION ( '', '', #34 ) ;
#102 = EDGE_CURVE ( 'NONE', #237, #200, #178, .T. ) ;
#103 = EDGE_LOOP ( 'NONE', ( #85, #223, #222, #125 ) ) ;
#104 = CIRCLE ( 'NONE', #251, 21.36029765733797703 ) ;
#105 = PLANE ( 'NONE',  #106 ) ;
#106 = AXIS2_PLACEMENT_3D ( 'NONE', #233, #119, #153 ) ;
#107 = DIRECTION ( 'NONE',  ( 0.000000000000000000, 0.000000000000000000, 1.000000000000000000 ) ) ;
#108 = PERSON_AND_ORGANIZATION_ROLE ( 'design_supplier' ) ;
#109 = FACE_OUTER_BOUND ( 'NONE', #62, .T. ) ;
#110 = PERSON ( 'UNSPECIFIED', 'UNSPECIFIED', 'UNSPECIFIED', ('UNSPECIFIED'), ('UNSPECIFIED'), ('UNSPECIFIED') ) ;
#111 = APPROVAL_DATE_TIME ( #255, #238 ) ;
#112 = ADVANCED_FACE ( 'NONE', ( #109 ), #51, .T. ) ;
#113 = CARTESIAN_POINT ( 'NONE',  ( -12.99999999999998401, 2.838749506678872237E-15, 21.36029765733797703 ) ) ;
#114 = DIRECTION ( 'NONE',  ( 0.000000000000000000, 0.000000000000000000, 1.000000000000000000 ) ) ;
#115 = EDGE_CURVE ( 'NONE', #176, #127, #80, .T. ) ;
#116 = CARTESIAN_POINT ( 'NONE',  ( -2.999999999999988898, 0.000000000000000000, 0.000000000000000000 ) ) ;
#117 = FACE_OUTER_BOUND ( 'NONE', #141, .T. ) ;
#118 = CIRCLE ( 'NONE', #96, 20.49999999999996447 ) ;
#119 = DIRECTION ( 'NONE',  ( -1.000000000000000000, 0.000000000000000000, -0.000000000000000000 ) ) ;
#120 = APPROVAL_STATUS ( 'not_yet_approved' ) ;
#121 = ORIENTED_EDGE ( 'NONE', *, *, #157, .T. ) ;
#122 = ORIENTED_EDGE ( 'NONE', *, *, #58, .F. ) ;
#123 = CC_DESIGN_DATE_AND_TIME_ASSIGNMENT ( #40, #75, ( #97 ) ) ;
#124 = VECTOR ( 'NONE', #225, 1000.000000000000000 ) ;
#125 = ORIENTED_EDGE ( 'NONE', *, *, #24, .F. ) ;
#126 = CARTESIAN_POINT ( 'NONE',  ( 0.000000000000000000, 2.510525938252070143E-15, -20.49999999999996447 ) ) ;
#127 = VERTEX_POINT ( 'NONE', #129 ) ;
#128 = PERSON_AND_ORGANIZATION ( #110, #89 ) ;
#129 = CARTESIAN_POINT ( 'NONE',  ( -2.999999999999988898, 0.000000000000000000, 20.49999999999996447 ) ) ;
#130 = LINE ( 'NONE', #142, #124 ) ;
#131 = CC_DESIGN_PERSON_AND_ORGANIZATION_ASSIGNMENT ( #20, #231, ( #236 ) ) ;
#132 = APPROVAL_STATUS ( 'not_yet_approved' ) ;
#133 = DIRECTION ( 'NONE',  ( -1.000000000000000000, -0.000000000000000000, -0.000000000000000000 ) ) ;
#134 = APPROVAL ( #8, 'UNSPECIFIED' ) ;
#135 = CARTESIAN_POINT ( 'NONE',  ( 0.000000000000000000, 0.000000000000000000, 0.000000000000000000 ) ) ;
#136 = PERSON_AND_ORGANIZATION ( #110, #89 ) ;
#137 = VECTOR ( 'NONE', #168, 1000.000000000000000 ) ;
#138 = PERSON_AND_ORGANIZATION ( #110, #89 ) ;
#139 = ORIENTED_EDGE ( 'NONE', *, *, #102, .T. ) ;
#140 = LOCAL_TIME ( 8, 57, 24.00000000000000000, #145 ) ;
#141 = EDGE_LOOP ( 'NONE', ( #122, #144 ) ) ;
#142 = CARTESIAN_POINT ( 'NONE',  ( -108.2865231617622612, 2.510525938252070143E-15, -20.49999999999996447 ) ) ;
#143 = PERSON_AND_ORGANIZATION_ROLE ( 'classification_officer' ) ;
#144 = ORIENTED_EDGE ( 'NONE', *, *, #247, .F. ) ;
#145 = COORDINATED_UNIVERSAL_TIME_OFFSET ( 1, 0, .AHEAD. ) ;
#146 = ORIENTED_EDGE ( 'NONE', *, *, #149, .F. ) ;
#147 = CARTESIAN_POINT ( 'NONE',  ( 0.000000000000000000, 0.000000000000000000, 0.000000000000000000 ) ) ;
#148 = AXIS2_PLACEMENT_3D ( 'NONE', #99, #7, #242 ) ;
#149 = EDGE_CURVE ( 'NONE', #237, #12, #160, .T. ) ;
#150 = DIRECTION ( 'NONE',  ( 0.000000000000000000, 0.000000000000000000, 1.000000000000000000 ) ) ;
#151 = DATE_AND_TIME ( #205, #140 ) ;
#152 = AXIS2_PLACEMENT_3D ( 'NONE', #161, #166, #241 ) ;
#153 = DIRECTION ( 'NONE',  ( -0.000000000000000000, 0.000000000000000000, 1.000000000000000000 ) ) ;
#154 = FACE_OUTER_BOUND ( 'NONE', #65, .T. ) ;
#155 = CARTESIAN_POINT ( 'NONE',  ( -108.2865231617622612, 0.000000000000000000, 0.000000000000000000 ) ) ;
#156 =( LENGTH_UNIT ( ) NAMED_UNIT ( * ) SI_UNIT ( .MILLI., .METRE. ) );
#157 = EDGE_CURVE ( 'NONE', #12, #237, #104, .T. ) ;
#158 = CALENDAR_DATE ( 2024, 10, 9 ) ;
#159 =( GEOMETRIC_REPRESENTATION_CONTEXT ( 3 ) GLOBAL_UNCERTAINTY_ASSIGNED_CONTEXT ( ( #23 ) ) GLOBAL_UNIT_ASSIGNED_CONTEXT ( ( #156, #189, #15 ) ) REPRESENTATION_CONTEXT ( 'NONE', 'WORKASPACE' ) );
#160 = CIRCLE ( 'NONE', #218, 21.36029765733797703 ) ;
#161 = CARTESIAN_POINT ( 'NONE',  ( -2.999999999999988898, 0.000000000000000000, 0.000000000000000000 ) ) ;
#162 = FACE_OUTER_BOUND ( 'NONE', #180, .T. ) ;
#163 = CARTESIAN_POINT ( 'NONE',  ( -2.999999999999988898, 0.000000000000000000, 0.000000000000000000 ) ) ;
#164 = EDGE_CURVE ( 'NONE', #127, #28, #77, .T. ) ;
#165 = ADVANCED_FACE ( 'NONE', ( #162, #226 ), #105, .F. ) ;
#166 = DIRECTION ( 'NONE',  ( -1.000000000000000000, -0.000000000000000000, -0.000000000000000000 ) ) ;
#167 = AXIS2_PLACEMENT_3D ( 'NONE', #203, #5, #10 ) ;
#168 = DIRECTION ( 'NONE',  ( 0.9396926207859093161, 0.000000000000000000, -0.3420201433256661594 ) ) ;
#169 = DIRECTION ( 'NONE',  ( -1.000000000000000000, -0.000000000000000000, -0.000000000000000000 ) ) ;
#170 = CC_DESIGN_APPROVAL ( #238, ( #16 ) ) ;
#171 = DIRECTION ( 'NONE',  ( 1.000000000000000000, 0.000000000000000000, 0.000000000000000000 ) ) ;
#172 = VECTOR ( 'NONE', #208, 1000.000000000000000 ) ;
#173 = CARTESIAN_POINT ( 'NONE',  ( -2.999999999999988898, 0.000000000000000000, 0.000000000000000000 ) ) ;
#174 = ADVANCED_FACE ( 'NONE', ( #154 ), #220, .T. ) ;
#175 = DIRECTION ( 'NONE',  ( -1.000000000000000000, 0.000000000000000000, -0.000000000000000000 ) ) ;
#176 = VERTEX_POINT ( 'NONE', #254 ) ;
#177 = ORIENTED_EDGE ( 'NONE', *, *, #14, .F. ) ;
#178 = LINE ( 'NONE', #32, #172 ) ;
#179 = EDGE_LOOP ( 'NONE', ( #199, #98 ) ) ;
#180 = EDGE_LOOP ( 'NONE', ( #25, #68 ) ) ;
#181 = ADVANCED_FACE ( 'NONE', ( #211 ), #13, .F. ) ;
#182 = PERSON_AND_ORGANIZATION_ROLE ( 'creator' ) ;
#183 = AXIS2_PLACEMENT_3D ( 'NONE', #37, #73, #114 ) ;
#184 = ORIENTED_EDGE ( 'NONE', *, *, #157, .F. ) ;
#185 = APPROVAL_ROLE ( '' ) ;
#186 = ORIENTED_EDGE ( 'NONE', *, *, #14, .T. ) ;
#187 = COORDINATED_UNIVERSAL_TIME_OFFSET ( 1, 0, .AHEAD. ) ;
#188 = APPROVAL_DATE_TIME ( #209, #90 ) ;
#189 =( NAMED_UNIT ( * ) PLANE_ANGLE_UNIT ( ) SI_UNIT ( $, .RADIAN. ) );
#190 = DIRECTION ( 'NONE',  ( 0.000000000000000000, 0.000000000000000000, -1.000000000000000000 ) ) ;
#191 = LOCAL_TIME ( 8, 57, 24.00000000000000000, #194 ) ;
#192 = DIRECTION ( 'NONE',  ( 0.000000000000000000, 0.000000000000000000, 1.000000000000000000 ) ) ;
#193 = CC_DESIGN_PERSON_AND_ORGANIZATION_ASSIGNMENT ( #245, #143, ( #101 ) ) ;
#194 = COORDINATED_UNIVERSAL_TIME_OFFSET ( 1, 0, .AHEAD. ) ;
#195 = APPROVAL_ROLE ( '' ) ;
#196 = ORIENTED_EDGE ( 'NONE', *, *, #115, .F. ) ;
#197 = EDGE_LOOP ( 'NONE', ( #31, #1, #219, #196 ) ) ;
#198 = CIRCLE ( 'NONE', #183, 20.49999999999996447 ) ;
#199 = ORIENTED_EDGE ( 'NONE', *, *, #164, .T. ) ;
#200 = VERTEX_POINT ( 'NONE', #21 ) ;
#201 = AXIS2_PLACEMENT_3D ( 'NONE', #147, #81, #150 ) ;
#202 = DIRECTION ( 'NONE',  ( -1.000000000000000000, -0.000000000000000000, -0.000000000000000000 ) ) ;
#203 = CARTESIAN_POINT ( 'NONE',  ( -2.999999999999988898, 0.000000000000000000, 0.000000000000000000 ) ) ;
#204 = DIRECTION ( 'NONE',  ( -1.000000000000000000, -0.000000000000000000, -0.000000000000000000 ) ) ;
#205 = CALENDAR_DATE ( 2024, 10, 9 ) ;
#206 = CARTESIAN_POINT ( 'NONE',  ( -12.99999999999998401, 0.000000000000000000, 0.000000000000000000 ) ) ;
#207 = AXIS2_PLACEMENT_3D ( 'NONE', #86, #175, #250 ) ;
#208 = DIRECTION ( 'NONE',  ( 0.9396926207859093161, 4.188538737676960334E-17, 0.3420201433256661594 ) ) ;
#209 = DATE_AND_TIME ( #39, #191 ) ;
#210 = MANIFOLD_SOLID_BREP ( 'Rotation1', #214 ) ;
#211 = FACE_OUTER_BOUND ( 'NONE', #45, .T. ) ;
#212 = ADVANCED_FACE ( 'NONE', ( #117 ), #18, .F. ) ;
#213 = MECHANICAL_CONTEXT ( 'NONE', #9, 'mechanical' ) ;
#214 = CLOSED_SHELL ( 'NONE', ( #3, #112, #181, #174, #165, #232, #212 ) ) ;
#215 = APPROVAL_ROLE ( '' ) ;
#216 = COORDINATED_UNIVERSAL_TIME_OFFSET ( 1, 0, .AHEAD. ) ;
#217 = LOCAL_TIME ( 8, 57, 24.00000000000000000, #22 ) ;
#218 = AXIS2_PLACEMENT_3D ( 'NONE', #4, #204, #78 ) ;
#219 = ORIENTED_EDGE ( 'NONE', *, *, #164, .F. ) ;
#220 = CONICAL_SURFACE ( 'NONE', #61, 24.99999999999996803, 0.3490658503988631756 ) ;
#221 = EDGE_CURVE ( 'NONE', #200, #30, #240, .T. ) ;
#222 = ORIENTED_EDGE ( 'NONE', *, *, #115, .T. ) ;
#223 = ORIENTED_EDGE ( 'NONE', *, *, #247, .T. ) ;
#224 = PERSON_AND_ORGANIZATION ( #110, #89 ) ;
#225 = DIRECTION ( 'NONE',  ( -1.000000000000000000, -0.000000000000000000, -0.000000000000000000 ) ) ;
#226 = FACE_BOUND ( 'NONE', #179, .T. ) ;
#227 = DIRECTION ( 'NONE',  ( 0.000000000000000000, 0.000000000000000000, -1.000000000000000000 ) ) ;
#228 = CC_DESIGN_APPROVAL ( #90, ( #97 ) ) ;
#229 = ADVANCED_BREP_SHAPE_REPRESENTATION ( '3D_M-2030P_30_174774030', ( #210, #60 ), #159 ) ;
#230 = CARTESIAN_POINT ( 'NONE',  ( -2.999999999999988898, 0.000000000000000000, -24.99999999999996803 ) ) ;
#231 = PERSON_AND_ORGANIZATION_ROLE ( 'design_owner' ) ;
#232 = ADVANCED_FACE ( 'NONE', ( #72 ), #53, .T. ) ;
#233 = CARTESIAN_POINT ( 'NONE',  ( -2.999999999999989786, 24.99999999999996803, 0.000000000000000000 ) ) ;
#234 = CC_DESIGN_PERSON_AND_ORGANIZATION_ASSIGNMENT ( #70, #108, ( #16 ) ) ;
#235 = PERSON_AND_ORGANIZATION ( #110, #89 ) ;
#236 = PRODUCT ( '3D_M-2030P_30_174774030', '3D_M-2030P_30_174774030', '', ( #213 ) ) ;
#237 = VERTEX_POINT ( 'NONE', #113 ) ;
#238 = APPROVAL ( #120, 'UNSPECIFIED' ) ;
#239 = ORIENTED_EDGE ( 'NONE', *, *, #149, .T. ) ;
#240 = CIRCLE ( 'NONE', #82, 24.99999999999996803 ) ;
#241 = DIRECTION ( 'NONE',  ( 0.000000000000000000, 0.000000000000000000, 1.000000000000000000 ) ) ;
#242 = DIRECTION ( 'NONE',  ( 0.000000000000000000, 0.000000000000000000, 1.000000000000000000 ) ) ;
#243 = LINE ( 'NONE', #36, #137 ) ;
#244 = CYLINDRICAL_SURFACE ( 'NONE', #148, 20.49999999999996447 ) ;
#245 = PERSON_AND_ORGANIZATION ( #110, #89 ) ;
#246 = CIRCLE ( 'NONE', #167, 24.99999999999996803 ) ;
#247 = EDGE_CURVE ( 'NONE', #2, #176, #198, .T. ) ;
#248 = APPLICATION_CONTEXT ( 'configuration controlled 3d designs of mechanical parts and assemblies' ) ;
#249 = DIRECTION ( 'NONE',  ( -1.000000000000000000, -0.000000000000000000, -0.000000000000000000 ) ) ;
#250 = DIRECTION ( 'NONE',  ( -0.000000000000000000, 0.000000000000000000, 1.000000000000000000 ) ) ;
#251 = AXIS2_PLACEMENT_3D ( 'NONE', #206, #67, #46 ) ;
#252 = DIRECTION ( 'NONE',  ( 0.000000000000000000, 0.000000000000000000, 1.000000000000000000 ) ) ;
#253 = AXIS2_PLACEMENT_3D ( 'NONE', #93, #171, #38 ) ;
#254 = CARTESIAN_POINT ( 'NONE',  ( 0.000000000000000000, 0.000000000000000000, 20.49999999999996447 ) ) ;
#255 = DATE_AND_TIME ( #95, #217 ) ;
ENDSEC;
END-ISO-10303-21;
