ISO-10303-21;
HEADER;
FILE_DESCRIPTION (( 'STEP AP203' ),
    '1' );
FILE_NAME ('3D_R1650_60.3x2_17351300.STEP',
    '2024-08-03T08:57:19',
    ( '' ),
    ( '' ),
    'SwSTEP 2.0',
    'SolidWorks 2024',
    '' );
FILE_SCHEMA (( 'CONFIG_CONTROL_DESIGN' ));
ENDSEC;

DATA;
#1 = AXIS2_PLACEMENT_3D ( 'NONE', #16, #253, #236 ) ;
#2 = AXIS2_PLACEMENT_3D ( 'NONE', #59, #136, #217 ) ;
#3 = EDGE_CURVE ( 'NONE', #171, #188, #38, .T. ) ;
#4 = CARTESIAN_POINT ( 'NONE',  ( -75.99999999999997158, 0.000000000000000000, -4.218847493575592960E-14 ) ) ;
#5 = CIRCLE ( 'NONE', #147, 28.14999999999999858 ) ;
#6 = VERTEX_POINT ( 'NONE', #219 ) ;
#7 = CIRCLE ( 'NONE', #187, 28.15000000000000213 ) ;
#8 = CARTESIAN_POINT ( 'NONE',  ( 0.000000000000000000, 0.000000000000000000, 0.000000000000000000 ) ) ;
#9 =( GEOMETRIC_REPRESENTATION_CONTEXT ( 3 ) GLOBAL_UNCERTAINTY_ASSIGNED_CONTEXT ( ( #15 ) ) GLOBAL_UNIT_ASSIGNED_CONTEXT ( ( #69, #209, #183 ) ) REPRESENTATION_CONTEXT ( 'NONE', 'WORKASPACE' ) );
#10 = CC_DESIGN_APPROVAL ( #103, ( #96 ) ) ;
#11 = APPROVAL ( #249, 'UNSPECIFIED' ) ;
#12 = PERSON_AND_ORGANIZATION ( #168, #99 ) ;
#13 = CC_DESIGN_PERSON_AND_ORGANIZATION_ASSIGNMENT ( #170, #167, ( #153 ) ) ;
#14 = DATE_AND_TIME ( #212, #190 ) ;
#15 = UNCERTAINTY_MEASURE_WITH_UNIT (LENGTH_MEASURE( 1.000000000000000082E-05 ), #69, 'distance_accuracy_value', 'NONE');
#16 = CARTESIAN_POINT ( 'NONE',  ( 0.000000000000000000, -3.692310099429270397E-15, 0.000000000000000000 ) ) ;
#17 = PERSON_AND_ORGANIZATION ( #168, #99 ) ;
#18 = ORIENTED_EDGE ( 'NONE', *, *, #126, .T. ) ;
#19 = DATE_AND_TIME ( #33, #135 ) ;
#20 = DIRECTION ( 'NONE',  ( 0.7071067811865507924, 0.000000000000000000, 0.7071067811865443531 ) ) ;
#21 = EDGE_LOOP ( 'NONE', ( #177, #27 ) ) ;
#22 = CC_DESIGN_APPROVAL ( #111, ( #153 ) ) ;
#23 = SECURITY_CLASSIFICATION ( '', '', #95 ) ;
#24 = DIRECTION ( 'NONE',  ( -0.7071067811865444641, 0.000000000000000000, 0.7071067811865506814 ) ) ;
#25 = DIRECTION ( 'NONE',  ( 1.000000000000000000, 0.000000000000000000, 5.551115123125782702E-16 ) ) ;
#26 = CARTESIAN_POINT ( 'NONE',  ( -73.64517126057923235, 0.000000000000000000, -73.64517126057856444 ) ) ;
#27 = ORIENTED_EDGE ( 'NONE', *, *, #32, .F. ) ;
#28 = EDGE_CURVE ( 'NONE', #158, #234, #75, .T. ) ;
#29 = ORIENTED_EDGE ( 'NONE', *, *, #32, .T. ) ;
#30 = LOCAL_TIME ( 10, 57, 19.00000000000000000, #110 ) ;
#31 = PERSON_AND_ORGANIZATION_ROLE ( 'design_owner' ) ;
#32 = EDGE_CURVE ( 'NONE', #6, #231, #7, .T. ) ;
#33 = CALENDAR_DATE ( 2024, 3, 8 ) ;
#34 = AXIS2_PLACEMENT_3D ( 'NONE', #151, #229, #215 ) ;
#35 = CIRCLE ( 'NONE', #156, 30.15000000000000213 ) ;
#36 = ORIENTED_EDGE ( 'NONE', *, *, #239, .T. ) ;
#37 = CALENDAR_DATE ( 2024, 3, 8 ) ;
#38 = CIRCLE ( 'NONE', #87, 30.14999999999999503 ) ;
#39 = FACE_OUTER_BOUND ( 'NONE', #250, .T. ) ;
#40 = APPROVAL_DATE_TIME ( #192, #11 ) ;
#41 = FACE_BOUND ( 'NONE', #185, .T. ) ;
#42 = ORIENTED_EDGE ( 'NONE', *, *, #80, .F. ) ;
#43 = CARTESIAN_POINT ( 'NONE',  ( -75.99999999999997158, 0.000000000000000000, -4.218847493575592960E-14 ) ) ;
#44 = EDGE_CURVE ( 'NONE', #234, #158, #5, .T. ) ;
#45 = LOCAL_TIME ( 10, 57, 19.00000000000000000, #244 ) ;
#46 = DIRECTION ( 'NONE',  ( 0.000000000000000000, 0.000000000000000000, 1.000000000000000000 ) ) ;
#47 = DIRECTION ( 'NONE',  ( 0.000000000000000000, 1.000000000000000000, 0.000000000000000000 ) ) ;
#48 = TOROIDAL_SURFACE ( 'NONE', #67, 75.99999999999997158, 30.14999999999999858 ) ;
#49 = PRODUCT ( '3D_R1650_60.3x2_17351300', '3D_R1650_60.3x2_17351300', '', ( #140 ) ) ;
#50 = DIRECTION ( 'NONE',  ( 0.000000000000000000, 0.000000000000000000, 1.000000000000000000 ) ) ;
#51 = CARTESIAN_POINT ( 'NONE',  ( -53.74011537017786111, 0.000000000000000000, -53.74011537017732820 ) ) ;
#52 = CC_DESIGN_PERSON_AND_ORGANIZATION_ASSIGNMENT ( #93, #56, ( #96 ) ) ;
#53 = FACE_BOUND ( 'NONE', #21, .T. ) ;
#54 = COORDINATED_UNIVERSAL_TIME_OFFSET ( 1, 0, .AHEAD. ) ;
#55 = PERSON_AND_ORGANIZATION ( #168, #99 ) ;
#56 = PERSON_AND_ORGANIZATION_ROLE ( 'creator' ) ;
#57 = CIRCLE ( 'NONE', #2, 104.1499999999999631 ) ;
#58 = ORIENTED_EDGE ( 'NONE', *, *, #235, .F. ) ;
#59 = CARTESIAN_POINT ( 'NONE',  ( 0.000000000000000000, 0.000000000000000000, 0.000000000000000000 ) ) ;
#60 = CC_DESIGN_PERSON_AND_ORGANIZATION_ASSIGNMENT ( #196, #247, ( #23 ) ) ;
#61 = ORIENTED_EDGE ( 'NONE', *, *, #63, .T. ) ;
#62 = ORIENTED_EDGE ( 'NONE', *, *, #239, .F. ) ;
#63 = EDGE_CURVE ( 'NONE', #231, #6, #84, .T. ) ;
#64 = ORIENTED_EDGE ( 'NONE', *, *, #3, .T. ) ;
#65 = DIRECTION ( 'NONE',  ( 0.7071067811865506814, 0.000000000000000000, 0.7071067811865443531 ) ) ;
#66 = DIRECTION ( 'NONE',  ( 0.000000000000000000, 0.000000000000000000, 1.000000000000000000 ) ) ;
#67 = AXIS2_PLACEMENT_3D ( 'NONE', #146, #145, #46 ) ;
#68 = FACE_OUTER_BOUND ( 'NONE', #200, .T. ) ;
#69 =( LENGTH_UNIT ( ) NAMED_UNIT ( * ) SI_UNIT ( .MILLI., .METRE. ) );
#70 = DIRECTION ( 'NONE',  ( 0.000000000000000000, 1.000000000000000000, 0.000000000000000000 ) ) ;
#71 = ORIENTED_EDGE ( 'NONE', *, *, #80, .T. ) ;
#72 = COORDINATED_UNIVERSAL_TIME_OFFSET ( 1, 0, .AHEAD. ) ;
#73 = DIRECTION ( 'NONE',  ( -5.551115123125782702E-16, 0.000000000000000000, 1.000000000000000000 ) ) ;
#74 = SHAPE_DEFINITION_REPRESENTATION ( #182, #124 ) ;
#75 = CIRCLE ( 'NONE', #122, 28.14999999999999858 ) ;
#76 = CARTESIAN_POINT ( 'NONE',  ( -53.74011537017783269, 0.000000000000000000, -53.74011537017735662 ) ) ;
#77 = COORDINATED_UNIVERSAL_TIME_OFFSET ( 1, 0, .AHEAD. ) ;
#78 = CARTESIAN_POINT ( 'NONE',  ( -75.99999999999997158, 0.000000000000000000, -6.938893903907228378E-15 ) ) ;
#79 = DIRECTION ( 'NONE',  ( -5.551115123125782702E-16, 0.000000000000000000, 1.000000000000000000 ) ) ;
#80 = EDGE_CURVE ( 'NONE', #116, #188, #246, .T. ) ;
#81 = AXIS2_PLACEMENT_3D ( 'NONE', #125, #128, #240 ) ;
#82 = EDGE_LOOP ( 'NONE', ( #166, #18, #29, #62 ) ) ;
#83 = FACE_OUTER_BOUND ( 'NONE', #152, .T. ) ;
#84 = CIRCLE ( 'NONE', #106, 28.15000000000000213 ) ;
#85 = CARTESIAN_POINT ( 'NONE',  ( -75.99999999999997158, 0.000000000000000000, -6.938893903907228378E-15 ) ) ;
#86 = ADVANCED_FACE ( 'NONE', ( #39 ), #142, .F. ) ;
#87 = AXIS2_PLACEMENT_3D ( 'NONE', #78, #201, #139 ) ;
#88 = APPLICATION_CONTEXT ( 'configuration controlled 3d designs of mechanical parts and assemblies' ) ;
#89 = CIRCLE ( 'NONE', #241, 106.1499999999999631 ) ;
#90 = ORIENTED_EDGE ( 'NONE', *, *, #3, .F. ) ;
#91 = DIRECTION ( 'NONE',  ( 0.000000000000000000, 1.000000000000000000, 0.000000000000000000 ) ) ;
#92 = CALENDAR_DATE ( 2024, 3, 8 ) ;
#93 = PERSON_AND_ORGANIZATION ( #168, #99 ) ;
#94 = ORIENTED_EDGE ( 'NONE', *, *, #126, .F. ) ;
#95 = SECURITY_CLASSIFICATION_LEVEL ( 'unclassified' ) ;
#96 = PRODUCT_DEFINITION ( 'UNKNOWN', '', #153, #115 ) ;
#97 = DIRECTION ( 'NONE',  ( 1.000000000000000000, 0.000000000000000000, 5.551115123125783688E-16 ) ) ;
#98 = EDGE_LOOP ( 'NONE', ( #102, #191, #138, #42 ) ) ;
#99 = ORGANIZATION ( 'UNSPECIFIED', 'UNSPECIFIED', '' ) ;
#100 = EDGE_LOOP ( 'NONE', ( #197, #120 ) ) ;
#101 = CIRCLE ( 'NONE', #179, 30.15000000000000213 ) ;
#102 = ORIENTED_EDGE ( 'NONE', *, *, #176, .T. ) ;
#103 = APPROVAL ( #198, 'UNSPECIFIED' ) ;
#104 = CARTESIAN_POINT ( 'NONE',  ( -45.84999999999997300, 0.000000000000000000, 9.797718192317006469E-15 ) ) ;
#105 = EDGE_CURVE ( 'NONE', #188, #171, #220, .T. ) ;
#106 = AXIS2_PLACEMENT_3D ( 'NONE', #4, #121, #134 ) ;
#107 = PLANE ( 'NONE',  #213 ) ;
#108 = DIRECTION ( 'NONE',  ( 0.7071067811865506814, 0.000000000000000000, 0.7071067811865443531 ) ) ;
#109 = CC_DESIGN_SECURITY_CLASSIFICATION ( #23, ( #153 ) ) ;
#110 = COORDINATED_UNIVERSAL_TIME_OFFSET ( 1, 0, .AHEAD. ) ;
#111 = APPROVAL ( #227, 'UNSPECIFIED' ) ;
#112 = APPROVAL_ROLE ( '' ) ;
#113 = AXIS2_PLACEMENT_3D ( 'NONE', #206, #70, #181 ) ;
#114 = APPROVAL_DATE_TIME ( #14, #103 ) ;
#115 = DESIGN_CONTEXT ( 'detailed design', #117, 'design' ) ;
#116 = VERTEX_POINT ( 'NONE', #199 ) ;
#117 = APPLICATION_CONTEXT ( 'configuration controlled 3d designs of mechanical parts and assemblies' ) ;
#118 = CARTESIAN_POINT ( 'NONE',  ( -75.99999999999997158, 0.000000000000000000, -6.938893903907228378E-15 ) ) ;
#119 = FACE_OUTER_BOUND ( 'NONE', #100, .T. ) ;
#120 = ORIENTED_EDGE ( 'NONE', *, *, #154, .F. ) ;
#121 = DIRECTION ( 'NONE',  ( -5.551115123125782702E-16, 0.000000000000000000, 1.000000000000000000 ) ) ;
#122 = AXIS2_PLACEMENT_3D ( 'NONE', #173, #248, #252 ) ;
#123 = DIRECTION ( 'NONE',  ( 0.000000000000000000, 0.000000000000000000, 1.000000000000000000 ) ) ;
#124 = ADVANCED_BREP_SHAPE_REPRESENTATION ( '3D_R1650_60.3x2_17351300', ( #148, #193 ), #9 ) ;
#125 = CARTESIAN_POINT ( 'NONE',  ( -53.74011537017786111, 0.000000000000000000, -53.74011537017732820 ) ) ;
#126 = EDGE_CURVE ( 'NONE', #234, #6, #57, .T. ) ;
#127 = DIRECTION ( 'NONE',  ( 1.000000000000000000, 0.000000000000000000, 0.000000000000000000 ) ) ;
#128 = DIRECTION ( 'NONE',  ( -0.7071067811865443531, 0.000000000000000000, 0.7071067811865506814 ) ) ;
#129 = APPROVAL_PERSON_ORGANIZATION ( #17, #111, #112 ) ;
#130 = APPROVAL_ROLE ( '' ) ;
#131 = ADVANCED_FACE ( 'NONE', ( #41, #119 ), #218, .F. ) ;
#132 = AXIS2_PLACEMENT_3D ( 'NONE', #242, #159, #123 ) ;
#133 = CALENDAR_DATE ( 2024, 3, 8 ) ;
#134 = DIRECTION ( 'NONE',  ( 1.000000000000000000, 0.000000000000000000, 5.551115123125782702E-16 ) ) ;
#135 = LOCAL_TIME ( 10, 57, 19.00000000000000000, #54 ) ;
#136 = DIRECTION ( 'NONE',  ( 0.000000000000000000, 1.000000000000000000, 0.000000000000000000 ) ) ;
#137 = DIRECTION ( 'NONE',  ( -0.7071067811865444641, 0.000000000000000000, 0.7071067811865506814 ) ) ;
#138 = ORIENTED_EDGE ( 'NONE', *, *, #105, .F. ) ;
#139 = DIRECTION ( 'NONE',  ( 1.000000000000000000, 0.000000000000000000, 5.551115123125783688E-16 ) ) ;
#140 = MECHANICAL_CONTEXT ( 'NONE', #88, 'mechanical' ) ;
#141 = CARTESIAN_POINT ( 'NONE',  ( 0.000000000000000000, 0.000000000000000000, 0.000000000000000000 ) ) ;
#142 = TOROIDAL_SURFACE ( 'NONE', #34, 75.99999999999997158, 28.15000000000000213 ) ;
#143 = AXIS2_PLACEMENT_3D ( 'NONE', #226, #91, #243 ) ;
#144 = CLOSED_SHELL ( 'NONE', ( #205, #202, #208, #216, #131, #86 ) ) ;
#145 = DIRECTION ( 'NONE',  ( 0.000000000000000000, 1.000000000000000000, 0.000000000000000000 ) ) ;
#146 = CARTESIAN_POINT ( 'NONE',  ( 0.000000000000000000, 0.000000000000000000, 0.000000000000000000 ) ) ;
#147 = AXIS2_PLACEMENT_3D ( 'NONE', #76, #137, #20 ) ;
#148 = MANIFOLD_SOLID_BREP ( 'Wandung1', #144 ) ;
#149 = CC_DESIGN_DATE_AND_TIME_ASSIGNMENT ( #150, #211, ( #96 ) ) ;
#150 = DATE_AND_TIME ( #92, #30 ) ;
#151 = CARTESIAN_POINT ( 'NONE',  ( 0.000000000000000000, 0.000000000000000000, 0.000000000000000000 ) ) ;
#152 = EDGE_LOOP ( 'NONE', ( #155, #64 ) ) ;
#153 = PRODUCT_DEFINITION_FORMATION_WITH_SPECIFIED_SOURCE ( 'ANY', '', #49, .NOT_KNOWN. ) ;
#154 = EDGE_CURVE ( 'NONE', #222, #116, #101, .T. ) ;
#155 = ORIENTED_EDGE ( 'NONE', *, *, #105, .T. ) ;
#156 = AXIS2_PLACEMENT_3D ( 'NONE', #186, #24, #65 ) ;
#157 = CC_DESIGN_DATE_AND_TIME_ASSIGNMENT ( #169, #172, ( #23 ) ) ;
#158 = VERTEX_POINT ( 'NONE', #160 ) ;
#159 = DIRECTION ( 'NONE',  ( 0.000000000000000000, 1.000000000000000000, 0.000000000000000000 ) ) ;
#160 = CARTESIAN_POINT ( 'NONE',  ( -33.83505947977642592, -3.447380739599800100E-15, -33.83505947977613459 ) ) ;
#161 = TOROIDAL_SURFACE ( 'NONE', #143, 75.99999999999997158, 30.14999999999999858 ) ;
#162 = CARTESIAN_POINT ( 'NONE',  ( -75.05938482295236724, 0.000000000000000000, -75.05938482295162828 ) ) ;
#163 = APPROVAL_PERSON_ORGANIZATION ( #214, #11, #130 ) ;
#164 = CC_DESIGN_PERSON_AND_ORGANIZATION_ASSIGNMENT ( #228, #245, ( #153 ) ) ;
#165 = CARTESIAN_POINT ( 'NONE',  ( -106.1499999999999631, 0.000000000000000000, -2.367550600013146322E-14 ) ) ;
#166 = ORIENTED_EDGE ( 'NONE', *, *, #44, .F. ) ;
#167 = PERSON_AND_ORGANIZATION_ROLE ( 'creator' ) ;
#168 = PERSON ( 'UNSPECIFIED', 'UNSPECIFIED', 'UNSPECIFIED', ('UNSPECIFIED'), ('UNSPECIFIED'), ('UNSPECIFIED') ) ;
#169 = DATE_AND_TIME ( #133, #45 ) ;
#170 = PERSON_AND_ORGANIZATION ( #168, #99 ) ;
#171 = VERTEX_POINT ( 'NONE', #165 ) ;
#172 = DATE_TIME_ROLE ( 'classification_date' ) ;
#173 = CARTESIAN_POINT ( 'NONE',  ( -53.74011537017783269, 0.000000000000000000, -53.74011537017735662 ) ) ;
#174 = APPLICATION_PROTOCOL_DEFINITION ( 'international standard', 'config_control_design', 1994, #117 ) ;
#175 = ORIENTED_EDGE ( 'NONE', *, *, #44, .T. ) ;
#176 = EDGE_CURVE ( 'NONE', #116, #222, #35, .T. ) ;
#177 = ORIENTED_EDGE ( 'NONE', *, *, #63, .F. ) ;
#178 = CC_DESIGN_PERSON_AND_ORGANIZATION_ASSIGNMENT ( #12, #31, ( #49 ) ) ;
#179 = AXIS2_PLACEMENT_3D ( 'NONE', #51, #224, #108 ) ;
#180 = DIRECTION ( 'NONE',  ( 1.000000000000000000, 0.000000000000000000, 5.551115123125782702E-16 ) ) ;
#181 = DIRECTION ( 'NONE',  ( 0.000000000000000000, 0.000000000000000000, 1.000000000000000000 ) ) ;
#182 = PRODUCT_DEFINITION_SHAPE ( 'NONE', 'NONE',  #96 ) ;
#183 =( NAMED_UNIT ( * ) SI_UNIT ( $, .STERADIAN. ) SOLID_ANGLE_UNIT ( ) );
#184 = CARTESIAN_POINT ( 'NONE',  ( -47.84999999999996589, 0.000000000000000000, -2.656208586415685130E-14 ) ) ;
#185 = EDGE_LOOP ( 'NONE', ( #195, #175 ) ) ;
#186 = CARTESIAN_POINT ( 'NONE',  ( -53.74011537017786111, 0.000000000000000000, -53.74011537017732820 ) ) ;
#187 = AXIS2_PLACEMENT_3D ( 'NONE', #43, #79, #180 ) ;
#188 = VERTEX_POINT ( 'NONE', #104 ) ;
#189 = FACE_OUTER_BOUND ( 'NONE', #82, .T. ) ;
#190 = LOCAL_TIME ( 10, 57, 19.00000000000000000, #77 ) ;
#191 = ORIENTED_EDGE ( 'NONE', *, *, #235, .T. ) ;
#192 = DATE_AND_TIME ( #37, #204 ) ;
#193 = AXIS2_PLACEMENT_3D ( 'NONE', #141, #50, #127 ) ;
#194 = APPROVAL_DATE_TIME ( #19, #111 ) ;
#195 = ORIENTED_EDGE ( 'NONE', *, *, #28, .T. ) ;
#196 = PERSON_AND_ORGANIZATION ( #168, #99 ) ;
#197 = ORIENTED_EDGE ( 'NONE', *, *, #176, .F. ) ;
#198 = APPROVAL_STATUS ( 'not_yet_approved' ) ;
#199 = CARTESIAN_POINT ( 'NONE',  ( -32.42084591740335497, -3.692310099429270397E-15, -32.42084591740302102 ) ) ;
#200 = EDGE_LOOP ( 'NONE', ( #58, #233, #71, #90 ) ) ;
#201 = DIRECTION ( 'NONE',  ( -5.551115123125782702E-16, 0.000000000000000000, 1.000000000000000000 ) ) ;
#202 = ADVANCED_FACE ( 'NONE', ( #223 ), #161, .T. ) ;
#203 = AXIS2_PLACEMENT_3D ( 'NONE', #118, #73, #97 ) ;
#204 = LOCAL_TIME ( 10, 57, 19.00000000000000000, #72 ) ;
#205 = ADVANCED_FACE ( 'NONE', ( #189 ), #225, .F. ) ;
#206 = CARTESIAN_POINT ( 'NONE',  ( 0.000000000000000000, 0.000000000000000000, 0.000000000000000000 ) ) ;
#207 = APPLICATION_PROTOCOL_DEFINITION ( 'international standard', 'config_control_design', 1994, #88 ) ;
#208 = ADVANCED_FACE ( 'NONE', ( #68 ), #48, .T. ) ;
#209 =( NAMED_UNIT ( * ) PLANE_ANGLE_UNIT ( ) SI_UNIT ( $, .RADIAN. ) );
#210 = ORIENTED_EDGE ( 'NONE', *, *, #28, .F. ) ;
#211 = DATE_TIME_ROLE ( 'creation_date' ) ;
#212 = CALENDAR_DATE ( 2024, 3, 8 ) ;
#213 = AXIS2_PLACEMENT_3D ( 'NONE', #85, #238, #25 ) ;
#214 = PERSON_AND_ORGANIZATION ( #168, #99 ) ;
#215 = DIRECTION ( 'NONE',  ( 0.000000000000000000, 0.000000000000000000, 1.000000000000000000 ) ) ;
#216 = ADVANCED_FACE ( 'NONE', ( #53, #83 ), #107, .T. ) ;
#217 = DIRECTION ( 'NONE',  ( 0.000000000000000000, 0.000000000000000000, 1.000000000000000000 ) ) ;
#218 = PLANE ( 'NONE',  #81 ) ;
#219 = CARTESIAN_POINT ( 'NONE',  ( -104.1499999999999631, 0.000000000000000000, -5.781486400735500160E-14 ) ) ;
#220 = CIRCLE ( 'NONE', #203, 30.14999999999999503 ) ;
#221 = PRODUCT_RELATED_PRODUCT_CATEGORY ( 'detail', '', ( #49 ) ) ;
#222 = VERTEX_POINT ( 'NONE', #162 ) ;
#223 = FACE_OUTER_BOUND ( 'NONE', #98, .T. ) ;
#224 = DIRECTION ( 'NONE',  ( -0.7071067811865444641, 0.000000000000000000, 0.7071067811865506814 ) ) ;
#225 = TOROIDAL_SURFACE ( 'NONE', #113, 75.99999999999997158, 28.15000000000000213 ) ;
#226 = CARTESIAN_POINT ( 'NONE',  ( 0.000000000000000000, 0.000000000000000000, 0.000000000000000000 ) ) ;
#227 = APPROVAL_STATUS ( 'not_yet_approved' ) ;
#228 = PERSON_AND_ORGANIZATION ( #168, #99 ) ;
#229 = DIRECTION ( 'NONE',  ( 0.000000000000000000, 1.000000000000000000, 0.000000000000000000 ) ) ;
#230 = CIRCLE ( 'NONE', #132, 47.84999999999996589 ) ;
#231 = VERTEX_POINT ( 'NONE', #184 ) ;
#232 = CC_DESIGN_APPROVAL ( #11, ( #23 ) ) ;
#233 = ORIENTED_EDGE ( 'NONE', *, *, #154, .T. ) ;
#234 = VERTEX_POINT ( 'NONE', #26 ) ;
#235 = EDGE_CURVE ( 'NONE', #222, #171, #89, .T. ) ;
#236 = DIRECTION ( 'NONE',  ( 0.000000000000000000, 0.000000000000000000, 1.000000000000000000 ) ) ;
#237 = APPROVAL_PERSON_ORGANIZATION ( #55, #103, #251 ) ;
#238 = DIRECTION ( 'NONE',  ( -5.551115123125782702E-16, 0.000000000000000000, 1.000000000000000000 ) ) ;
#239 = EDGE_CURVE ( 'NONE', #158, #231, #230, .T. ) ;
#240 = DIRECTION ( 'NONE',  ( 0.7071067811865506814, 0.000000000000000000, 0.7071067811865443531 ) ) ;
#241 = AXIS2_PLACEMENT_3D ( 'NONE', #8, #47, #66 ) ;
#242 = CARTESIAN_POINT ( 'NONE',  ( 0.000000000000000000, -3.447380739599799706E-15, 0.000000000000000000 ) ) ;
#243 = DIRECTION ( 'NONE',  ( 0.000000000000000000, 0.000000000000000000, 1.000000000000000000 ) ) ;
#244 = COORDINATED_UNIVERSAL_TIME_OFFSET ( 1, 0, .AHEAD. ) ;
#245 = PERSON_AND_ORGANIZATION_ROLE ( 'design_supplier' ) ;
#246 = CIRCLE ( 'NONE', #1, 45.84999999999997300 ) ;
#247 = PERSON_AND_ORGANIZATION_ROLE ( 'classification_officer' ) ;
#248 = DIRECTION ( 'NONE',  ( -0.7071067811865444641, 0.000000000000000000, 0.7071067811865506814 ) ) ;
#249 = APPROVAL_STATUS ( 'not_yet_approved' ) ;
#250 = EDGE_LOOP ( 'NONE', ( #94, #210, #36, #61 ) ) ;
#251 = APPROVAL_ROLE ( '' ) ;
#252 = DIRECTION ( 'NONE',  ( 0.7071067811865507924, 0.000000000000000000, 0.7071067811865443531 ) ) ;
#253 = DIRECTION ( 'NONE',  ( 0.000000000000000000, 1.000000000000000000, 0.000000000000000000 ) ) ;
ENDSEC;
END-ISO-10303-21;
