ISO-10303-21;
HEADER;
FILE_DESCRIPTION (( 'STEP AP203' ),
    '1' );
FILE_NAME ('3D_R169-K_33-21_17325190.STEP',
    '2024-07-11T10:18:46',
    ( '' ),
    ( '' ),
    'SwSTEP 2.0',
    'SolidWorks 2024',
    '' );
FILE_SCHEMA (( 'CONFIG_CONTROL_DESIGN' ));
ENDSEC;

DATA;
#1 = ORIENTED_EDGE ( 'NONE', *, *, #16, .F. ) ;
#2 = EDGE_CURVE ( 'NONE', #132, #206, #111, .T. ) ;
#3 = DIRECTION ( 'NONE',  ( 1.000000000000000000, 0.000000000000000000, 0.000000000000000000 ) ) ;
#4 = PRODUCT_DEFINITION_FORMATION_WITH_SPECIFIED_SOURCE ( 'ANY', '', #21, .NOT_KNOWN. ) ;
#5 = CONICAL_SURFACE ( 'NONE', #229, 10.65000000000000036, 0.2633065495691607749 ) ;
#6 = CC_DESIGN_APPROVAL ( #70, ( #239 ) ) ;
#7 = CARTESIAN_POINT ( 'NONE',  ( 0.000000000000000000, 0.000000000000000000, 0.000000000000000000 ) ) ;
#8 = ORIENTED_EDGE ( 'NONE', *, *, #172, .T. ) ;
#9 =( NAMED_UNIT ( * ) SI_UNIT ( $, .STERADIAN. ) SOLID_ANGLE_UNIT ( ) );
#10 = DIRECTION ( 'NONE',  ( 0.000000000000000000, 0.000000000000000000, -1.000000000000000000 ) ) ;
#11 = APPROVAL_PERSON_ORGANIZATION ( #189, #97, #38 ) ;
#12 = PERSON_AND_ORGANIZATION ( #48, #131 ) ;
#13 = PERSON_AND_ORGANIZATION ( #48, #131 ) ;
#14 = DIRECTION ( 'NONE',  ( 1.000000000000000000, 0.000000000000000000, 0.000000000000000000 ) ) ;
#15 = CALENDAR_DATE ( 2024, 11, 7 ) ;
#16 = EDGE_CURVE ( 'NONE', #132, #150, #98, .T. ) ;
#17 = LOCAL_TIME ( 12, 18, 46.00000000000000000, #235 ) ;
#18 = VECTOR ( 'NONE', #183, 1000.000000000000227 ) ;
#19 = MANIFOLD_SOLID_BREP ( 'Wandung2', #73 ) ;
#20 = VERTEX_POINT ( 'NONE', #105 ) ;
#21 = PRODUCT ( '3D_R169-K_33-21_17325190', '3D_R169-K_33-21_17325190', '', ( #91 ) ) ;
#22 = AXIS2_PLACEMENT_3D ( 'NONE', #121, #80, #124 ) ;
#23 = LOCAL_TIME ( 12, 18, 46.00000000000000000, #205 ) ;
#24 = ADVANCED_FACE ( 'NONE', ( #102 ), #240, .F. ) ;
#25 = CARTESIAN_POINT ( 'NONE',  ( 23.00000000000000000, 0.000000000000000000, 0.000000000000000000 ) ) ;
#26 = ORIENTED_EDGE ( 'NONE', *, *, #175, .T. ) ;
#27 = DIRECTION ( 'NONE',  ( -0.9655346471988933699, 0.000000000000000000, 0.2602745570710060519 ) ) ;
#28 = EDGE_LOOP ( 'NONE', ( #146, #231, #85, #155 ) ) ;
#29 = CONICAL_SURFACE ( 'NONE', #203, 8.718930705602213393, 0.2633065495691607749 ) ;
#30 = DIRECTION ( 'NONE',  ( 0.000000000000000000, 0.000000000000000000, 1.000000000000000000 ) ) ;
#31 = AXIS2_PLACEMENT_3D ( 'NONE', #96, #149, #67 ) ;
#32 = CC_DESIGN_DATE_AND_TIME_ASSIGNMENT ( #60, #217, ( #75 ) ) ;
#33 = PLANE ( 'NONE',  #179 ) ;
#34 = PERSON_AND_ORGANIZATION ( #48, #131 ) ;
#35 = ORIENTED_EDGE ( 'NONE', *, *, #55, .T. ) ;
#36 = FACE_OUTER_BOUND ( 'NONE', #28, .T. ) ;
#37 = EDGE_LOOP ( 'NONE', ( #191, #47 ) ) ;
#38 = APPROVAL_ROLE ( '' ) ;
#39 = APPLICATION_CONTEXT ( 'configuration controlled 3d designs of mechanical parts and assemblies' ) ;
#40 = SHAPE_DEFINITION_REPRESENTATION ( #41, #153 ) ;
#41 = PRODUCT_DEFINITION_SHAPE ( 'NONE', 'NONE',  #75 ) ;
#42 = EDGE_CURVE ( 'NONE', #160, #20, #133, .T. ) ;
#43 = CARTESIAN_POINT ( 'NONE',  ( 0.000000000000000000, 1.809857592662627845E-15, -14.77860877048567012 ) ) ;
#44 = VECTOR ( 'NONE', #127, 1000.000000000000227 ) ;
#45 = EDGE_LOOP ( 'NONE', ( #56, #193, #68, #142 ) ) ;
#46 = CARTESIAN_POINT ( 'NONE',  ( 23.00000000000000000, 0.000000000000000000, 0.000000000000000000 ) ) ;
#47 = ORIENTED_EDGE ( 'NONE', *, *, #2, .F. ) ;
#48 = PERSON ( 'UNSPECIFIED', 'UNSPECIFIED', 'UNSPECIFIED', ('UNSPECIFIED'), ('UNSPECIFIED'), ('UNSPECIFIED') ) ;
#49 = DIRECTION ( 'NONE',  ( 1.000000000000000000, 0.000000000000000000, 0.000000000000000000 ) ) ;
#50 = ORIENTED_EDGE ( 'NONE', *, *, #147, .T. ) ;
#51 = APPLICATION_CONTEXT ( 'configuration controlled 3d designs of mechanical parts and assemblies' ) ;
#52 = ADVANCED_FACE ( 'NONE', ( #214 ), #5, .T. ) ;
#53 = DIRECTION ( 'NONE',  ( -1.000000000000000000, -0.000000000000000000, -0.000000000000000000 ) ) ;
#54 = CARTESIAN_POINT ( 'NONE',  ( 0.000000000000000000, 3.095294784844934972E-15, -16.85000000000000142 ) ) ;
#55 = EDGE_CURVE ( 'NONE', #160, #107, #128, .T. ) ;
#56 = ORIENTED_EDGE ( 'NONE', *, *, #172, .F. ) ;
#57 = SECURITY_CLASSIFICATION_LEVEL ( 'unclassified' ) ;
#58 = CARTESIAN_POINT ( 'NONE',  ( 23.00000000000000000, 0.000000000000000000, 0.000000000000000000 ) ) ;
#59 = DATE_AND_TIME ( #219, #204 ) ;
#60 = DATE_AND_TIME ( #184, #23 ) ;
#61 = CC_DESIGN_DATE_AND_TIME_ASSIGNMENT ( #86, #170, ( #239 ) ) ;
#62 = VERTEX_POINT ( 'NONE', #104 ) ;
#63 = PERSON_AND_ORGANIZATION_ROLE ( 'classification_officer' ) ;
#64 = CC_DESIGN_PERSON_AND_ORGANIZATION_ASSIGNMENT ( #12, #83, ( #75 ) ) ;
#65 = AXIS2_PLACEMENT_3D ( 'NONE', #248, #3, #114 ) ;
#66 = CARTESIAN_POINT ( 'NONE',  ( 23.00000000000000000, 1.304248841091931261E-15, -10.65000000000000036 ) ) ;
#67 = DIRECTION ( 'NONE',  ( 0.000000000000000000, 0.000000000000000000, -1.000000000000000000 ) ) ;
#68 = ORIENTED_EDGE ( 'NONE', *, *, #144, .T. ) ;
#69 = DIRECTION ( 'NONE',  ( 0.000000000000000000, 0.000000000000000000, -1.000000000000000000 ) ) ;
#70 = APPROVAL ( #79, 'UNSPECIFIED' ) ;
#71 = CARTESIAN_POINT ( 'NONE',  ( 0.000000000000000000, 0.000000000000000000, 0.000000000000000000 ) ) ;
#72 = AXIS2_PLACEMENT_3D ( 'NONE', #46, #162, #74 ) ;
#73 = CLOSED_SHELL ( 'NONE', ( #129, #52, #134, #244, #181, #24 ) ) ;
#74 = DIRECTION ( 'NONE',  ( 0.000000000000000000, 0.000000000000000000, -1.000000000000000000 ) ) ;
#75 = PRODUCT_DEFINITION ( 'UNKNOWN', '', #4, #215 ) ;
#76 = CARTESIAN_POINT ( 'NONE',  ( 23.00000000000000000, 0.000000000000000000, 0.000000000000000000 ) ) ;
#77 = CARTESIAN_POINT ( 'NONE',  ( 0.000000000000000000, -1.031764928281645122E-15, 16.85000000000000142 ) ) ;
#78 = DIRECTION ( 'NONE',  ( 0.000000000000000000, 0.000000000000000000, -1.000000000000000000 ) ) ;
#79 = APPROVAL_STATUS ( 'not_yet_approved' ) ;
#80 = DIRECTION ( 'NONE',  ( 1.000000000000000000, 0.000000000000000000, 0.000000000000000000 ) ) ;
#81 = CARTESIAN_POINT ( 'NONE',  ( 23.00000000000000000, 0.000000000000000000, 0.000000000000000000 ) ) ;
#82 = AXIS2_PLACEMENT_3D ( 'NONE', #185, #14, #106 ) ;
#83 = PERSON_AND_ORGANIZATION_ROLE ( 'creator' ) ;
#84 = AXIS2_PLACEMENT_3D ( 'NONE', #71, #176, #163 ) ;
#85 = ORIENTED_EDGE ( 'NONE', *, *, #147, .F. ) ;
#86 = DATE_AND_TIME ( #15, #17 ) ;
#87 = APPROVAL_STATUS ( 'not_yet_approved' ) ;
#88 = CC_DESIGN_PERSON_AND_ORGANIZATION_ASSIGNMENT ( #220, #63, ( #239 ) ) ;
#89 = AXIS2_PLACEMENT_3D ( 'NONE', #169, #165, #228 ) ;
#90 = CC_DESIGN_APPROVAL ( #166, ( #75 ) ) ;
#91 = MECHANICAL_CONTEXT ( 'NONE', #39, 'mechanical' ) ;
#92 = APPROVAL_PERSON_ORGANIZATION ( #207, #70, #152 ) ;
#93 = CARTESIAN_POINT ( 'NONE',  ( 23.00000000000000000, 6.521244205459656303E-16, 10.65000000000000036 ) ) ;
#94 = ORIENTED_EDGE ( 'NONE', *, *, #167, .F. ) ;
#95 = FACE_BOUND ( 'NONE', #122, .T. ) ;
#96 = CARTESIAN_POINT ( 'NONE',  ( 0.000000000000000000, 0.000000000000000000, 0.000000000000000000 ) ) ;
#97 = APPROVAL ( #120, 'UNSPECIFIED' ) ;
#98 = LINE ( 'NONE', #237, #18 ) ;
#99 = CIRCLE ( 'NONE', #72, 10.65000000000000036 ) ;
#100 = AXIS2_PLACEMENT_3D ( 'NONE', #210, #246, #145 ) ;
#101 = CARTESIAN_POINT ( 'NONE',  ( 23.00000000000000000, 1.430217084926948254E-15, -8.578608770485669055 ) ) ;
#102 = FACE_OUTER_BOUND ( 'NONE', #177, .T. ) ;
#103 = APPROVAL_DATE_TIME ( #157, #166 ) ;
#104 = CARTESIAN_POINT ( 'NONE',  ( 0.000000000000000000, 0.000000000000000000, 14.77860877048567012 ) ) ;
#105 = CARTESIAN_POINT ( 'NONE',  ( 23.00000000000000000, 6.521244205459656303E-16, -10.65000000000000036 ) ) ;
#106 = DIRECTION ( 'NONE',  ( 0.000000000000000000, 0.000000000000000000, -1.000000000000000000 ) ) ;
#107 = VERTEX_POINT ( 'NONE', #77 ) ;
#108 = CARTESIAN_POINT ( 'NONE',  ( 22.47945088585798956, 0.000000000000000000, 0.000000000000000000 ) ) ;
#109 = CIRCLE ( 'NONE', #65, 8.578608770485669055 ) ;
#110 = CC_DESIGN_SECURITY_CLASSIFICATION ( #239, ( #4 ) ) ;
#111 = CIRCLE ( 'NONE', #139, 8.578608770485669055 ) ;
#112 = DIRECTION ( 'NONE',  ( -0.9655346471988933699, 3.187444032165025890E-17, -0.2602745570710060519 ) ) ;
#113 = ORIENTED_EDGE ( 'NONE', *, *, #42, .F. ) ;
#114 = DIRECTION ( 'NONE',  ( 0.000000000000000000, 0.000000000000000000, -1.000000000000000000 ) ) ;
#115 = EDGE_LOOP ( 'NONE', ( #180, #225 ) ) ;
#116 = CARTESIAN_POINT ( 'NONE',  ( 23.00000000000000000, 0.000000000000000000, 8.578608770485669055 ) ) ;
#117 =( NAMED_UNIT ( * ) PLANE_ANGLE_UNIT ( ) SI_UNIT ( $, .RADIAN. ) );
#118 = AXIS2_PLACEMENT_3D ( 'NONE', #7, #49, #69 ) ;
#119 = AXIS2_PLACEMENT_3D ( 'NONE', #25, #198, #30 ) ;
#120 = APPROVAL_STATUS ( 'not_yet_approved' ) ;
#121 = CARTESIAN_POINT ( 'NONE',  ( 0.000000000000000000, 0.000000000000000000, 0.000000000000000000 ) ) ;
#122 = EDGE_LOOP ( 'NONE', ( #50, #140 ) ) ;
#123 = COORDINATED_UNIVERSAL_TIME_OFFSET ( 1, 0, .AHEAD. ) ;
#124 = DIRECTION ( 'NONE',  ( 0.000000000000000000, 0.000000000000000000, -1.000000000000000000 ) ) ;
#125 = VERTEX_POINT ( 'NONE', #54 ) ;
#126 = COORDINATED_UNIVERSAL_TIME_OFFSET ( 1, 0, .AHEAD. ) ;
#127 = DIRECTION ( 'NONE',  ( -0.9655346471988933699, 0.000000000000000000, 0.2602745570710060519 ) ) ;
#128 = LINE ( 'NONE', #188, #44 ) ;
#129 = ADVANCED_FACE ( 'NONE', ( #36 ), #29, .F. ) ;
#130 = APPLICATION_PROTOCOL_DEFINITION ( 'international standard', 'config_control_design', 1994, #51 ) ;
#131 = ORGANIZATION ( 'UNSPECIFIED', 'UNSPECIFIED', '' ) ;
#132 = VERTEX_POINT ( 'NONE', #101 ) ;
#133 = CIRCLE ( 'NONE', #190, 10.65000000000000036 ) ;
#134 = ADVANCED_FACE ( 'NONE', ( #136, #201 ), #33, .T. ) ;
#135 = ORIENTED_EDGE ( 'NONE', *, *, #42, .T. ) ;
#136 = FACE_BOUND ( 'NONE', #37, .T. ) ;
#137 = EDGE_LOOP ( 'NONE', ( #135, #8 ) ) ;
#138 = ORIENTED_EDGE ( 'NONE', *, *, #200, .T. ) ;
#139 = AXIS2_PLACEMENT_3D ( 'NONE', #58, #202, #10 ) ;
#140 = ORIENTED_EDGE ( 'NONE', *, *, #167, .T. ) ;
#141 = CALENDAR_DATE ( 2024, 11, 7 ) ;
#142 = ORIENTED_EDGE ( 'NONE', *, *, #55, .F. ) ;
#143 = PERSON_AND_ORGANIZATION ( #48, #131 ) ;
#144 = EDGE_CURVE ( 'NONE', #125, #107, #148, .T. ) ;
#145 = DIRECTION ( 'NONE',  ( 1.000000000000000000, 0.000000000000000000, 0.000000000000000000 ) ) ;
#146 = ORIENTED_EDGE ( 'NONE', *, *, #221, .T. ) ;
#147 = EDGE_CURVE ( 'NONE', #62, #150, #173, .T. ) ;
#148 = CIRCLE ( 'NONE', #22, 16.85000000000000142 ) ;
#149 = DIRECTION ( 'NONE',  ( 1.000000000000000000, 0.000000000000000000, 0.000000000000000000 ) ) ;
#150 = VERTEX_POINT ( 'NONE', #43 ) ;
#151 = DIRECTION ( 'NONE',  ( 0.000000000000000000, 0.000000000000000000, 1.000000000000000000 ) ) ;
#152 = APPROVAL_ROLE ( '' ) ;
#153 = ADVANCED_BREP_SHAPE_REPRESENTATION ( '3D_R169-K_33-21_17325190', ( #19, #100 ), #161 ) ;
#154 = LOCAL_TIME ( 12, 18, 46.00000000000000000, #126 ) ;
#155 = ORIENTED_EDGE ( 'NONE', *, *, #175, .F. ) ;
#156 = APPROVAL_DATE_TIME ( #59, #70 ) ;
#157 = DATE_AND_TIME ( #141, #230 ) ;
#158 = EDGE_CURVE ( 'NONE', #20, #125, #174, .T. ) ;
#159 = CALENDAR_DATE ( 2024, 11, 7 ) ;
#160 = VERTEX_POINT ( 'NONE', #93 ) ;
#161 =( GEOMETRIC_REPRESENTATION_CONTEXT ( 3 ) GLOBAL_UNCERTAINTY_ASSIGNED_CONTEXT ( ( #194 ) ) GLOBAL_UNIT_ASSIGNED_CONTEXT ( ( #197, #117, #9 ) ) REPRESENTATION_CONTEXT ( 'NONE', 'WORKASPACE' ) );
#162 = DIRECTION ( 'NONE',  ( 1.000000000000000000, 0.000000000000000000, 0.000000000000000000 ) ) ;
#163 = DIRECTION ( 'NONE',  ( 0.000000000000000000, 0.000000000000000000, -1.000000000000000000 ) ) ;
#164 = APPLICATION_PROTOCOL_DEFINITION ( 'international standard', 'config_control_design', 1994, #39 ) ;
#165 = DIRECTION ( 'NONE',  ( -1.000000000000000000, -0.000000000000000000, -0.000000000000000000 ) ) ;
#166 = APPROVAL ( #87, 'UNSPECIFIED' ) ;
#167 = EDGE_CURVE ( 'NONE', #150, #62, #209, .T. ) ;
#168 = DATE_AND_TIME ( #159, #154 ) ;
#169 = CARTESIAN_POINT ( 'NONE',  ( 22.47945088585798956, 0.000000000000000000, 0.000000000000000000 ) ) ;
#170 = DATE_TIME_ROLE ( 'classification_date' ) ;
#171 = PRODUCT_RELATED_PRODUCT_CATEGORY ( 'detail', '', ( #21 ) ) ;
#172 = EDGE_CURVE ( 'NONE', #20, #160, #99, .T. ) ;
#173 = CIRCLE ( 'NONE', #82, 14.77860877048567012 ) ;
#174 = LINE ( 'NONE', #66, #192 ) ;
#175 = EDGE_CURVE ( 'NONE', #206, #62, #224, .T. ) ;
#176 = DIRECTION ( 'NONE',  ( 1.000000000000000000, 0.000000000000000000, 0.000000000000000000 ) ) ;
#177 = EDGE_LOOP ( 'NONE', ( #1, #223, #26, #94 ) ) ;
#178 = PLANE ( 'NONE',  #31 ) ;
#179 = AXIS2_PLACEMENT_3D ( 'NONE', #182, #232, #216 ) ;
#180 = ORIENTED_EDGE ( 'NONE', *, *, #200, .F. ) ;
#181 = ADVANCED_FACE ( 'NONE', ( #222 ), #195, .T. ) ;
#182 = CARTESIAN_POINT ( 'NONE',  ( 23.00000000000000000, 0.000000000000000000, 0.000000000000000000 ) ) ;
#183 = DIRECTION ( 'NONE',  ( -0.9655346471988933699, 3.187444032165025890E-17, -0.2602745570710060519 ) ) ;
#184 = CALENDAR_DATE ( 2024, 11, 7 ) ;
#185 = CARTESIAN_POINT ( 'NONE',  ( 0.000000000000000000, 0.000000000000000000, 0.000000000000000000 ) ) ;
#186 = CC_DESIGN_PERSON_AND_ORGANIZATION_ASSIGNMENT ( #243, #245, ( #4 ) ) ;
#187 = APPROVAL_DATE_TIME ( #168, #97 ) ;
#188 = CARTESIAN_POINT ( 'NONE',  ( 23.00000000000000000, 0.000000000000000000, 10.65000000000000036 ) ) ;
#189 = PERSON_AND_ORGANIZATION ( #48, #131 ) ;
#190 = AXIS2_PLACEMENT_3D ( 'NONE', #76, #234, #78 ) ;
#191 = ORIENTED_EDGE ( 'NONE', *, *, #221, .F. ) ;
#192 = VECTOR ( 'NONE', #112, 1000.000000000000227 ) ;
#193 = ORIENTED_EDGE ( 'NONE', *, *, #158, .T. ) ;
#194 = UNCERTAINTY_MEASURE_WITH_UNIT (LENGTH_MEASURE( 1.000000000000000082E-05 ), #197, 'distance_accuracy_value', 'NONE');
#195 = CONICAL_SURFACE ( 'NONE', #119, 10.65000000000000036, 0.2633065495691607749 ) ;
#196 = CARTESIAN_POINT ( 'NONE',  ( 22.47945088585798956, 0.000000000000000000, 8.718930705602213393 ) ) ;
#197 =( LENGTH_UNIT ( ) NAMED_UNIT ( * ) SI_UNIT ( .MILLI., .METRE. ) );
#198 = DIRECTION ( 'NONE',  ( -1.000000000000000000, -0.000000000000000000, -0.000000000000000000 ) ) ;
#199 = CIRCLE ( 'NONE', #84, 16.85000000000000142 ) ;
#200 = EDGE_CURVE ( 'NONE', #107, #125, #199, .T. ) ;
#201 = FACE_OUTER_BOUND ( 'NONE', #137, .T. ) ;
#202 = DIRECTION ( 'NONE',  ( 1.000000000000000000, 0.000000000000000000, 0.000000000000000000 ) ) ;
#203 = AXIS2_PLACEMENT_3D ( 'NONE', #108, #236, #151 ) ;
#204 = LOCAL_TIME ( 12, 18, 46.00000000000000000, #238 ) ;
#205 = COORDINATED_UNIVERSAL_TIME_OFFSET ( 1, 0, .AHEAD. ) ;
#206 = VERTEX_POINT ( 'NONE', #116 ) ;
#207 = PERSON_AND_ORGANIZATION ( #48, #131 ) ;
#208 = PERSON_AND_ORGANIZATION_ROLE ( 'design_owner' ) ;
#209 = CIRCLE ( 'NONE', #118, 14.77860877048567012 ) ;
#210 = CARTESIAN_POINT ( 'NONE',  ( 0.000000000000000000, 0.000000000000000000, 0.000000000000000000 ) ) ;
#211 = DIRECTION ( 'NONE',  ( 0.000000000000000000, 0.000000000000000000, 1.000000000000000000 ) ) ;
#212 = ORIENTED_EDGE ( 'NONE', *, *, #158, .F. ) ;
#213 = VECTOR ( 'NONE', #27, 1000.000000000000227 ) ;
#214 = FACE_OUTER_BOUND ( 'NONE', #45, .T. ) ;
#215 = DESIGN_CONTEXT ( 'detailed design', #51, 'design' ) ;
#216 = DIRECTION ( 'NONE',  ( 0.000000000000000000, 0.000000000000000000, -1.000000000000000000 ) ) ;
#217 = DATE_TIME_ROLE ( 'creation_date' ) ;
#218 = APPROVAL_ROLE ( '' ) ;
#219 = CALENDAR_DATE ( 2024, 11, 7 ) ;
#220 = PERSON_AND_ORGANIZATION ( #48, #131 ) ;
#221 = EDGE_CURVE ( 'NONE', #206, #132, #109, .T. ) ;
#222 = FACE_OUTER_BOUND ( 'NONE', #249, .T. ) ;
#223 = ORIENTED_EDGE ( 'NONE', *, *, #2, .T. ) ;
#224 = LINE ( 'NONE', #196, #213 ) ;
#225 = ORIENTED_EDGE ( 'NONE', *, *, #144, .F. ) ;
#226 = CC_DESIGN_APPROVAL ( #97, ( #4 ) ) ;
#227 = FACE_OUTER_BOUND ( 'NONE', #115, .T. ) ;
#228 = DIRECTION ( 'NONE',  ( 0.000000000000000000, 0.000000000000000000, 1.000000000000000000 ) ) ;
#229 = AXIS2_PLACEMENT_3D ( 'NONE', #81, #53, #211 ) ;
#230 = LOCAL_TIME ( 12, 18, 46.00000000000000000, #123 ) ;
#231 = ORIENTED_EDGE ( 'NONE', *, *, #16, .T. ) ;
#232 = DIRECTION ( 'NONE',  ( 1.000000000000000000, 0.000000000000000000, 0.000000000000000000 ) ) ;
#233 = CC_DESIGN_PERSON_AND_ORGANIZATION_ASSIGNMENT ( #13, #241, ( #4 ) ) ;
#234 = DIRECTION ( 'NONE',  ( 1.000000000000000000, 0.000000000000000000, 0.000000000000000000 ) ) ;
#235 = COORDINATED_UNIVERSAL_TIME_OFFSET ( 1, 0, .AHEAD. ) ;
#236 = DIRECTION ( 'NONE',  ( -1.000000000000000000, -0.000000000000000000, -0.000000000000000000 ) ) ;
#237 = CARTESIAN_POINT ( 'NONE',  ( 22.47945088585798956, 1.067761058060332463E-15, -8.718930705602213393 ) ) ;
#238 = COORDINATED_UNIVERSAL_TIME_OFFSET ( 1, 0, .AHEAD. ) ;
#239 = SECURITY_CLASSIFICATION ( '', '', #57 ) ;
#240 = CONICAL_SURFACE ( 'NONE', #89, 8.718930705602213393, 0.2633065495691607749 ) ;
#241 = PERSON_AND_ORGANIZATION_ROLE ( 'design_supplier' ) ;
#242 = CC_DESIGN_PERSON_AND_ORGANIZATION_ASSIGNMENT ( #143, #208, ( #21 ) ) ;
#243 = PERSON_AND_ORGANIZATION ( #48, #131 ) ;
#244 = ADVANCED_FACE ( 'NONE', ( #95, #227 ), #178, .F. ) ;
#245 = PERSON_AND_ORGANIZATION_ROLE ( 'creator' ) ;
#246 = DIRECTION ( 'NONE',  ( 0.000000000000000000, 0.000000000000000000, 1.000000000000000000 ) ) ;
#247 = APPROVAL_PERSON_ORGANIZATION ( #34, #166, #218 ) ;
#248 = CARTESIAN_POINT ( 'NONE',  ( 23.00000000000000000, 0.000000000000000000, 0.000000000000000000 ) ) ;
#249 = EDGE_LOOP ( 'NONE', ( #212, #113, #35, #138 ) ) ;
ENDSEC;
END-ISO-10303-21;
